  0
SECTION
  2
HEADER
  9
$ACADVER
  1
AC1009
  9
$INSBASE
 10
0.0
 20
0.0
 30
0.0
  9
$EXTMIN
 10
0.0
 20
-2.960436562073669
 30
0.0
  9
$EXTMAX
 10
96.3028649386084652
 20
98.9999999999999858
 30
0.0
  9
$LIMMIN
 10
0.0
 20
0.0
  9
$LIMMAX
 10
400.0
 20
277.0
  9
$ORTHOMODE
 70
     1
  9
$REGENMODE
 70
     1
  9
$FILLMODE
 70
     1
  9
$QTEXTMODE
 70
     0
  9
$MIRRTEXT
 70
     1
  9
$DRAGMODE
 70
     2
  9
$LTSCALE
 40
5.0
  9
$OSMODE
 70
    37
  9
$ATTMODE
 70
     1
  9
$TEXTSIZE
 40
2.5
  9
$TRACEWID
 40
1.0
  9
$TEXTSTYLE
  7
STANDARD
  9
$CLAYER
  8
0
  9
$CELTYPE
  6
BYLAYER
  9
$CECOLOR
 62
   256
  9
$DIMSCALE
 40
1.0
  9
$DIMASZ
 40
3.0
  9
$DIMEXO
 40
1.0
  9
$DIMDLI
 40
6.0
  9
$DIMRND
 40
0.0
  9
$DIMDLE
 40
0.0
  9
$DIMEXE
 40
1.0
  9
$DIMTP
 40
495.0
  9
$DIMTM
 40
0.0
  9
$DIMTXT
 40
3.0
  9
$DIMCEN
 40
0.0
  9
$DIMTSZ
 40
0.0
  9
$DIMTOL
 70
     0
  9
$DIMLIM
 70
     0
  9
$DIMTIH
 70
     0
  9
$DIMTOH
 70
     0
  9
$DIMSE1
 70
     0
  9
$DIMSE2
 70
     0
  9
$DIMTAD
 70
     3
  9
$DIMZIN
 70
     8
  9
$DIMBLK
  1

  9
$DIMASO
 70
     0
  9
$DIMSHO
 70
     1
  9
$DIMPOST
  1

  9
$DIMAPOST
  1

  9
$DIMALT
 70
     0
  9
$DIMALTD
 70
     2
  9
$DIMALTF
 40
25.3999999999999986
  9
$DIMLFAC
 40
1.0
  9
$DIMTOFL
 70
     1
  9
$DIMTVP
 40
0.0
  9
$DIMTIX
 70
     1
  9
$DIMSOXD
 70
     0
  9
$DIMSAH
 70
     1
  9
$DIMBLK1
  1
ARROW1
  9
$DIMBLK2
  1
ARROW1
  9
$DIMSTYLE
  2
ITM
  9
$DIMCLRD
 70
     4
  9
$DIMCLRE
 70
     4
  9
$DIMCLRT
 70
     4
  9
$DIMTFAC
 40
1.0
  9
$DIMGAP
 40
1.0
  9
$LUNITS
 70
     2
  9
$LUPREC
 70
     1
  9
$SKETCHINC
 40
1.0
  9
$FILLETRAD
 40
0.0
  9
$AUNITS
 70
     0
  9
$AUPREC
 70
     0
  9
$MENU
  1
.
  9
$ELEVATION
 40
0.0
  9
$PELEVATION
 40
0.0
  9
$THICKNESS
 40
0.0
  9
$LIMCHECK
 70
     0
  9
$BLIPMODE
 70
     0
  9
$CHAMFERA
 40
10.0
  9
$CHAMFERB
 40
10.0
  9
$SKPOLY
 70
     0
  9
$TDCREATE
 40
2451415.6127083338797092
  9
$TDUPDATE
 40
2460725.6420486117713153
  9
$TDINDWG
 40
0.3352678356
  9
$TDUSRTIMER
 40
0.3352678356
  9
$USRTIMER
 70
     1
  9
$ANGBASE
 50
0.0
  9
$ANGDIR
 70
     0
  9
$PDMODE
 70
     0
  9
$PDSIZE
 40
0.0
  9
$PLINEWID
 40
0.0
  9
$COORDS
 70
     1
  9
$SPLFRAME
 70
     0
  9
$SPLINETYPE
 70
     6
  9
$SPLINESEGS
 70
     8
  9
$ATTDIA
 70
     1
  9
$ATTREQ
 70
     1
  9
$HANDLING
 70
     1
  9
$HANDSEED
  5
1D3C
  9
$SURFTAB1
 70
     6
  9
$SURFTAB2
 70
     6
  9
$SURFTYPE
 70
     6
  9
$SURFU
 70
     6
  9
$SURFV
 70
     6
  9
$UCSNAME
  2

  9
$UCSORG
 10
0.0
 20
0.0
 30
0.0
  9
$UCSXDIR
 10
1.0
 20
0.0
 30
0.0
  9
$UCSYDIR
 10
0.0
 20
1.0
 30
0.0
  9
$PUCSNAME
  2

  9
$PUCSORG
 10
0.0
 20
0.0
 30
0.0
  9
$PUCSXDIR
 10
1.0
 20
0.0
 30
0.0
  9
$PUCSYDIR
 10
0.0
 20
1.0
 30
0.0
  9
$USERI1
 70
     3
  9
$USERI2
 70
     1
  9
$USERI3
 70
     1
  9
$USERI4
 70
     0
  9
$USERI5
 70
     0
  9
$USERR1
 40
1.0
  9
$USERR2
 40
3.0
  9
$USERR3
 40
3.0
  9
$USERR4
 40
3.0
  9
$USERR5
 40
10.0
  9
$WORLDVIEW
 70
     1
  9
$SHADEDGE
 70
     3
  9
$SHADEDIF
 70
    70
  9
$TILEMODE
 70
     1
  9
$MAXACTVP
 70
    16
  9
$PLIMCHECK
 70
     0
  9
$PEXTMIN
 10
1.0000000000000000E+20
 20
1.0000000000000000E+20
 30
1.0000000000000000E+20
  9
$PEXTMAX
 10
-1.0000000000000000E+20
 20
-1.0000000000000000E+20
 30
-1.0000000000000000E+20
  9
$PLIMMIN
 10
0.0
 20
0.0
  9
$PLIMMAX
 10
420.0
 20
297.0
  9
$UNITMODE
 70
     0
  9
$VISRETAIN
 70
     0
  9
$PLINEGEN
 70
     0
  9
$PSLTSCALE
 70
     1
  0
ENDSEC
  0
SECTION
  2
TABLES
  0
TABLE
  2
VPORT
 70
     1
  0
VPORT
  2
*ACTIVE
 70
     0
 10
0.0
 20
0.0
 11
1.0
 21
1.0
 12
247.4012474012473888
 22
105.3433733035200959
 13
0.0
 23
0.0
 14
10.0
 24
10.0
 15
10.0
 25
10.0
 16
0.0
 26
0.0
 36
1.0
 17
0.0
 27
0.0
 37
0.0
 40
210.6867466070401917
 41
2.3485221674876842
 42
50.0
 43
0.0
 44
0.0
 50
0.0
 51
0.0
 71
     0
 72
   100
 73
     1
 74
     1
 75
     0
 76
     0
 77
     0
 78
     0
  0
ENDTAB
  0
TABLE
  2
LTYPE
 70
     4
  0
LTYPE
  2
CONTINUOUS
 70
     0
  3
Solid line
 72
    65
 73
     0
 40
0.0
  0
LTYPE
  2
CENTER
 70
     0
  3
____ _ ____ _ ____ _ ____ _ ____ _ ____ _ ____ 
 72
    65
 73
     4
 40
2.0
 49
1.25
 49
-0.25
 49
0.25
 49
-0.25
  0
LTYPE
  2
HIDDEN
 70
     0
  3
__ __ __ __ __ __ __ __ __ __ __ __ __ __ __ __
 72
    65
 73
     2
 40
0.375
 49
0.25
 49
-0.125
  0
LTYPE
  2
PHANTOM2
 70
     0
  3
___ _ _ ___ _ _ ___ _ _ ___ _ _
 72
    65
 73
     6
 40
1.25
 49
0.625
 49
-0.125
 49
0.125
 49
-0.125
 49
0.125
 49
-0.125
  0
ENDTAB
  0
TABLE
  2
LAYER
 70
     6
  0
LAYER
  2
0
 70
     0
 62
     7
  6
CONTINUOUS
  0
LAYER
  2
WAKU
 70
     0
 62
     5
  6
CONTINUOUS
  0
LAYER
  2
1
 70
     0
 62
     1
  6
CENTER
  0
LAYER
  2
2
 70
     0
 62
     2
  6
HIDDEN
  0
LAYER
  2
3
 70
     0
 62
     3
  6
CONTINUOUS
  0
LAYER
  2
DEFPOINTS
 70
     0
 62
     7
  6
CONTINUOUS
  0
ENDTAB
  0
TABLE
  2
STYLE
 70
     3
  0
STYLE
  2
STANDARD
 70
     0
 40
0.0
 41
1.0
 50
0.0
 71
     0
 42
2.5
  3
ROMANS
  4
EXTFONT
  0
STYLE
  2
K
 70
     0
 40
0.0
 41
1.0
 50
0.0
 71
     0
 42
3.0
  3
ROMANS
  4
bigfont
  0
STYLE
  2
STANDARD1
 70
     0
 40
0.0
 41
1.0
 50
0.0
 71
     0
 42
3.0
  3
txt
  4

  0
ENDTAB
  0
TABLE
  2
VIEW
 70
     0
  0
ENDTAB
  0
TABLE
  2
UCS
 70
     0
  0
ENDTAB
  0
TABLE
  2
APPID
 70
    43
  0
APPID
  2
ACAD
 70
     0
  0
APPID
  2
ACAD_NAV_VCDISPLAY
 70
     0
  0
APPID
  2
DCO15
 70
     0
  0
APPID
  2
GENIUS_GENOREF_13
 70
     0
  0
APPID
  2
GENIUS_GENOENT_13
 70
     0
  0
APPID
  2
GENIUS_GENBH_13
 70
     0
  0
APPID
  2
GENIUS_GENOBJ_13
 70
     0
  0
APPID
  2
GENIUS_GENODEF_13
 70
     0
  0
APPID
  2
GENIUS_GENOLIS_13
 70
     0
  0
APPID
  2
GENIUS_GENOBJ-NBEHI-BHF_13
 70
     0
  0
APPID
  2
GENIUS_GENOBJ-NBEHI-BHB_13
 70
     0
  0
APPID
  2
GENIUS_GENOBJ-F-PART_13
 70
     0
  0
APPID
  2
GENIUS_GEFSTDP_13
 70
     0
  0
APPID
  2
GENIUS_GENOBJ-N-RSSYM_13
 70
     0
  0
APPID
  2
GENIUS_GENSYMENT_13
 70
     0
  0
APPID
  2
GENIUS_GENOBJ-N-TIT_13
 70
     0
  0
APPID
  2
GENIUS_GENTITLE_13
 70
     0
  0
APPID
  2
GENIUS_GENZVEED_13
 70
     0
  0
APPID
  2
GENIUS_GENOBJ-N-LEADER_13
 70
     0
  0
APPID
  2
GENIUS_GENOBJ-N-FIL_13
 70
     0
  0
APPID
  2
GENIUS_GENOBJ-N-SEC_13
 70
     0
  0
APPID
  2
GENIUS_GENOBJ-N-CRS_13
 70
     0
  0
APPID
  2
GENIUS_GENOBJ-N-ZOO_13
 70
     0
  0
APPID
  2
GENIUS_GENZOO_13
 70
     0
  0
APPID
  2
GENIUS_GENOBJ-F-TOL_13
 70
     0
  0
APPID
  2
GENIUS_GENFIL_13
 70
     0
  0
APPID
  2
GENIUS_GENOBJ-N-CHA_13
 70
     0
  0
APPID
  2
_CALL_MAC$
 70
     0
  0
APPID
  2
ASM_BASE
 70
     0
  0
APPID
  2
ASM_EXPLO_VER_2_00
 70
     0
  0
APPID
  2
ASM_CADM_VER_12_00
 70
     0
  0
APPID
  2
ASM_BASEFORO
 70
     0
  0
APPID
  2
ASM_BASETRAVI
 70
     0
  0
APPID
  2
ASM_BASETRAVI1
 70
     0
  0
APPID
  2
ASM_GRUPPI
 70
     0
  0
APPID
  2
ASM_CADM_ALBERO
 70
     0
  0
APPID
  2
ASM_GOLE
 70
     0
  0
APPID
  2
ACAD_EXEMPT_FROM_CAD_STANDARDS
 70
     0
  0
APPID
  2
ACAD_DSTYLE_DIMJAG
 70
     0
  0
APPID
  2
ACAD_DSTYLE_DIMTALN
 70
     0
  0
APPID
  2
GRADIENTCOLOR1ACI
 70
     0
  0
APPID
  2
GRADIENTCOLOR2ACI
 70
     0
  0
APPID
  2
ACAD_MLEADERVER
 70
     0
  0
ENDTAB
  0
TABLE
  2
DIMSTYLE
 70
     2
  0
DIMSTYLE
  2
STANDARD
 70
     0
  3

  4

  5

  6

  7

 40
1.0
 41
0.18
 42
0.0625
 43
0.38
 44
0.18
 45
0.0
 46
0.0
 47
0.0
 48
0.0
140
0.18
141
0.09
142
0.0
143
25.3999999999999986
144
1.0
145
0.0
146
1.0
147
0.09
 71
     0
 72
     0
 73
     1
 74
     1
 75
     0
 76
     0
 77
     0
 78
     0
170
     0
171
     2
172
     0
173
     0
174
     0
175
     0
176
     0
177
     0
178
     0
  0
DIMSTYLE
  2
ITM
 70
     0
  3

  4

  5
ARROWANG
  6
ARROWANG
  7
ARROWANG
 40
1.0
 41
1.5
 42
1.0
 43
6.0
 44
1.0
 45
0.0
 46
0.0
 47
495.0
 48
0.0
140
3.0
141
0.0
142
0.0
143
25.3999999999999986
144
1.0
145
0.0
146
1.0
147
0.5
 71
     0
 72
     0
 73
     0
 74
     0
 75
     0
 76
     0
 77
     3
 78
     8
170
     0
171
     2
172
     1
173
     1
174
     1
175
     0
176
     0
177
     0
178
     0
  0
ENDTAB
  0
ENDSEC
  0
SECTION
  2
BLOCKS
  0
BLOCK
  8
0
  2
$MODEL_SPACE
 70
     0
 10
0.0
 20
0.0
 30
0.0
  3
$MODEL_SPACE
  1

  0
ENDBLK
  5
1C
  8
0
  0
BLOCK
 67
     1
  8
0
  2
$PAPER_SPACE
 70
     0
 10
0.0
 20
0.0
 30
0.0
  3
$PAPER_SPACE
  1

  0
ENDBLK
  5
19
 67
     1
  8
0
  0
BLOCK
  8
0
  2
ARROWANG
 70
     0
 10
0.0
 20
0.0
 30
0.0
  3
ARROWANG
  1

  0
LINE
  5
C9
  8
0
 10
0.0
 20
0.0
 30
0.0
 11
-1.4999999999999429
 21
0.4019237886467409
 31
0.0
  0
LINE
  5
CA
  8
0
 10
0.0
 20
0.0
 30
0.0
 11
-1.5
 21
-0.4019237886467124
 31
0.0
  0
ENDBLK
  5
CB
  8
0
  0
BLOCK
  8
0
  2
ARROW1
 70
     0
 10
0.0
 20
0.0
 30
0.0
  3
ARROW1
  1

  0
SOLID
  5
EE
  8
WAKU
  6
CONTINUOUS
 62
     4
 10
-1.0
 20
0.1666666666666714
 30
0.0
 11
-1.0
 21
-0.1666666666666714
 31
0.0
 12
0.0
 22
0.0
 32
0.0
 13
0.0
 23
0.0
 33
0.0
  0
ENDBLK
  5
F0
  8
0
  0
ENDSEC
  0
SECTION
  2
ENTITIES
  0
TEXT
  5
1BB9
  8
0
 62
     3
 10
0.0
 20
0.0
 30
0.0
 40
10.0
  1
CP720-10032N
  7
STANDARD1
  0
LINE
  5
1C36
  8
0
 10
43.5000000000000071
 20
63.2999999999999972
 30
0.0
 11
43.5000000000000071
 21
62.2000000000000028
 31
0.0
  0
LINE
  5
1C37
  8
0
 10
56.5000000000000284
 20
62.2000000000000028
 30
0.0
 11
56.5000000000000284
 21
63.2999999999999972
 31
0.0
  0
LINE
  5
1C38
  8
0
 10
43.5000000000000071
 20
62.2000000000000028
 30
0.0
 11
44.6004767972692235
 21
58.3621813220915016
 31
0.0
  0
LINE
  5
1C39
  8
0
 10
55.3995232027308191
 20
58.3621813220915016
 30
0.0
 11
56.5000000000000284
 21
62.2000000000000028
 31
0.0
  0
LINE
  5
1C3A
  8
0
 10
56.5000000000000213
 20
63.2999999999999972
 30
0.0
 11
56.3000000000000185
 21
63.5
 31
0.0
  0
LINE
  5
1C3B
  8
0
 10
43.7000000000000313
 20
63.5
 30
0.0
 11
43.5000000000000071
 21
63.2999999999999972
 31
0.0
  0
POLYLINE
  5
1C3C
  8
0
 66
     1
 10
0.0
 20
0.0
 30
0.0
 70
   128
  0
VERTEX
  5
1D34
  8
0
 10
45.3000000000000185
 20
63.6000000000000085
 30
0.0
  0
VERTEX
  5
1D35
  8
0
 10
45.2923141121613213
 20
63.5219638711935488
 30
0.0
  0
VERTEX
  5
1D36
  8
0
 10
45.2872983346207505
 20
63.5
 30
0.0
  0
SEQEND
  5
1D37
  8
0
  0
POLYLINE
  5
1C3D
  8
0
 66
     1
 10
0.0
 20
0.0
 30
0.0
 70
   128
  0
VERTEX
  5
1D38
  8
0
 10
54.7127016653792779
 20
63.5
 30
0.0
  0
VERTEX
  5
1D39
  8
0
 10
54.7076858878387284
 20
63.5219638711935488
 30
0.0
  0
VERTEX
  5
1D3A
  8
0
 10
54.7000000000000171
 20
63.6000000000000085
 30
0.0
  0
SEQEND
  5
1D3B
  8
0
  0
ARC
  5
1C3E
  8
0
 10
54.9188923547616668
 20
58.5
 30
0.0
 40
0.5000000000000066
 50
270.0
 51
344.0000000000001137
  0
ARC
  5
1C3F
  8
0
 10
45.0811076452383901
 20
58.5
 30
0.0
 40
0.5000000000000066
 50
195.999999999999801
 51
270.0
  0
LINE
  5
1C40
  8
0
 10
45.0000000000000071
 20
67.0
 30
0.0
 11
45.0000000000000071
 21
64.5
 31
0.0
  0
LINE
  5
1C41
  8
0
 10
55.0000000000000284
 20
64.5
 30
0.0
 11
55.0000000000000284
 21
67.0
 31
0.0
  0
LINE
  5
1C42
  8
0
 10
45.0000000000000071
 20
64.5
 30
0.0
 11
45.3000000000000185
 21
63.9803847577293183
 31
0.0
  0
LINE
  5
1C43
  8
0
 10
54.7000000000000171
 20
63.9803847577293183
 30
0.0
 11
55.0000000000000284
 21
64.5
 31
0.0
  0
LINE
  5
1C44
  8
0
 10
45.0500000000000185
 20
67.7999999999999972
 30
0.0
 11
45.0500000000000185
 21
67.0
 31
0.0
  0
LINE
  5
1C45
  8
0
 10
54.9500000000000099
 20
67.0
 30
0.0
 11
54.9500000000000099
 21
67.7999999999999972
 31
0.0
  0
LINE
  5
1C46
  8
0
 10
54.9500000000000099
 20
67.7999999999999972
 30
0.0
 11
54.7500000000000284
 21
68.0
 31
0.0
  0
LINE
  5
1C47
  8
0
 10
45.2500000000000071
 20
68.0
 30
0.0
 11
45.0500000000000185
 21
67.7999999999999972
 31
0.0
  0
LINE
  5
1C48
  8
0
 10
45.3000000000000185
 20
63.9803847577293183
 30
0.0
 11
45.3000000000000185
 21
63.6000000000000085
 31
0.0
  0
LINE
  5
1C49
  8
0
 10
54.7000000000000171
 20
63.6000000000000085
 30
0.0
 11
54.7000000000000171
 21
63.9803847577293183
 31
0.0
  0
LINE
  5
1C4A
  8
0
 10
43.5000000000000071
 20
62.2000000000000028
 30
0.0
 11
56.5000000000000284
 21
62.2000000000000028
 31
0.0
  0
LINE
  5
1C4B
  8
0
 10
56.5000000000000284
 20
63.2999999999999972
 30
0.0
 11
43.5000000000000071
 21
63.2999999999999972
 31
0.0
  0
LINE
  5
1C4C
  8
0
 10
43.7000000000000313
 20
63.5
 30
0.0
 11
56.3000000000000185
 21
63.5
 31
0.0
  0
LINE
  5
1C4D
  8
0
 10
54.9188923547616383
 20
58.0
 30
0.0
 11
45.0811076452383901
 21
58.0
 31
0.0
  0
LINE
  5
1C4E
  8
0
 10
45.0000000000000071
 20
67.0
 30
0.0
 11
55.0000000000000284
 21
67.0
 31
0.0
  0
LINE
  5
1C4F
  8
0
 10
45.0000000000000071
 20
64.5
 30
0.0
 11
55.0000000000000284
 21
64.5
 31
0.0
  0
LINE
  5
1C50
  8
0
 10
45.3000000000000185
 20
63.9803847577293183
 30
0.0
 11
54.7000000000000171
 21
63.9803847577293183
 31
0.0
  0
LINE
  5
1C51
  8
0
 10
54.9500000000000099
 20
67.7999999999999972
 30
0.0
 11
45.0500000000000469
 21
67.7999999999999972
 31
0.0
  0
LINE
  5
1C52
  8
0
 10
45.2500000000000071
 20
68.0
 30
0.0
 11
54.7500000000000284
 21
68.0
 31
0.0
  0
LINE
  5
1C53
  8
2
 10
50.0000000000000284
 20
58.2000000000000171
 30
0.0
 11
46.0000000000000071
 21
58.2000000000000028
 31
0.0
  0
LINE
  5
1C54
  8
2
 10
54.0000000000000284
 20
58.2000000000000028
 30
0.0
 11
50.0000000000000284
 21
58.2000000000000171
 31
0.0
  0
LINE
  5
1C55
  8
2
 10
54.0000000000000284
 20
62.0
 30
0.0
 11
46.0000000000000071
 21
62.0
 31
0.0
  0
LINE
  5
1C57
  8
2
 10
54.2000000000000099
 20
58.0
 30
0.0
 11
54.0000000000000284
 21
58.2000000000000028
 31
0.0
  0
LINE
  5
1C58
  8
2
 10
46.0000000000000071
 20
58.2000000000000028
 30
0.0
 11
45.8000000000000185
 21
58.0
 31
0.0
  0
LINE
  5
1C59
  8
2
 10
54.0000000000000284
 20
58.2000000000000028
 30
0.0
 11
54.0000000000000284
 21
62.0
 31
0.0
  0
LINE
  5
1C5A
  8
2
 10
46.0000000000000071
 20
62.0
 30
0.0
 11
46.0000000000000071
 21
58.2000000000000028
 31
0.0
  0
LINE
  5
1C5F
  8
2
 10
52.1000000000000227
 20
62.0
 30
0.0
 11
52.1000000000000369
 21
68.0
 31
0.0
  0
LINE
  5
1C60
  8
2
 10
47.9000000000000483
 20
68.0
 30
0.0
 11
47.9000000000000128
 21
62.0
 31
0.0
  0
CIRCLE
  5
1C61
  8
0
 10
50.0000000000000213
 20
89.5000000000000142
 30
0.0
 40
2.1000000000000081
  0
CIRCLE
  5
1C62
  8
0
 10
50.0000000000000213
 20
89.5000000000000142
 30
0.0
 40
5.0
  0
CIRCLE
  5
1C63
  8
0
 10
50.0000000000000213
 20
89.4999999999999858
 30
0.0
 40
6.4999999999999849
  0
CIRCLE
  5
1C64
  8
0
 10
50.0
 20
36.5000000000000568
 30
0.0
 40
3.9999999999999711
  0
CIRCLE
  5
1C65
  8
0
 10
50.0
 20
36.5
 30
0.0
 40
6.5
  0
CIRCLE
  5
1C66
  8
0
 10
50.0
 20
36.5
 30
0.0
 40
2.0999999999999939
  0
LINE
  5
1C85
  8
1
 10
40.5000000000000284
 20
89.4999999999999858
 30
0.0
 11
59.5000000000000071
 21
89.4999999999999858
 31
0.0
  0
LINE
  5
1C86
  8
1
 10
50.0000000000000213
 20
80.0000000000000142
 30
0.0
 11
50.0000000000000213
 21
98.9999999999999858
 31
0.0
  0
LINE
  5
1C87
  8
1
 10
50.0000000000000071
 20
70.9999999999999858
 30
0.0
 11
50.0000000000000071
 21
54.9999999999999929
 31
0.0
  0
LINE
  5
1C89
  8
1
 10
40.5
 20
36.5000000000000711
 30
0.0
 11
59.5000000000000071
 21
36.5000000000000711
 31
0.0
  0
LINE
  5
1C8A
  8
1
 10
50.0
 20
27.0
 30
0.0
 11
50.0
 21
46.0
 31
0.0
  0
CIRCLE
  5
1C91
  8
3
 10
50.0000000000000213
 20
89.5000000000000142
 30
0.0
 40
2.5
  0
CIRCLE
  5
1C92
  8
3
 10
50.0
 20
36.5
 30
0.0
 40
2.5
  0
LINE
  5
1C94
  8
2
 10
47.5000000000000071
 20
68.0
 30
0.0
 11
47.5000000000000071
 21
62.0
 31
0.0
  0
LINE
  5
1C95
  8
2
 10
52.5000000000000071
 20
68.0
 30
0.0
 11
52.5000000000000071
 21
62.0
 31
0.0
  0
VIEWPORT
  5
22
 67
     1
  8
0
 10
261.517699115044195
 20
148.5
 30
0.0
 40
523.0353982300885036
 41
297.0
 68
     1
 69
     1
1001
ACAD
1000
MVIEW
1002
{
1070
    16
1010
0.0
1020
0.0
1030
0.0
1010
0.0
1020
0.0
1030
1.0
1040
0.0
1040
297.0
1040
261.517699115044195
1040
148.5
1040
50.0
1040
0.0
1040
0.0
1070
     0
1070
   100
1070
     1
1070
     1
1070
     0
1070
     0
1070
     0
1070
     0
1040
0.0
1040
0.0
1040
0.0
1040
1.0
1040
1.0
1040
10.0
1040
10.0
1070
     0
1002
{
1002
}
1002
}
  0
ENDSEC
  0
EOF
