  0
SECTION
  2
HEADER
  9
$ACADVER
  1
AC1009
  9
$INSBASE
 10
0.0
 20
0.0
 30
0.0
  9
$EXTMIN
 10
0.0
 20
-2.960436562073669
 30
0.0
  9
$EXTMAX
 10
629.73515793425963
 20
424.34867106314931
 30
0.0
  9
$LIMMIN
 10
0.0
 20
0.0
  9
$LIMMAX
 10
750.0
 20
540.0
  9
$ORTHOMODE
 70
     1
  9
$REGENMODE
 70
     1
  9
$FILLMODE
 70
     1
  9
$QTEXTMODE
 70
     0
  9
$MIRRTEXT
 70
     0
  9
$DRAGMODE
 70
     2
  9
$LTSCALE
 40
20.0
  9
$OSMODE
 70
  3071
  9
$ATTMODE
 70
     1
  9
$TEXTSIZE
 40
8.0000000000000497
  9
$TRACEWID
 40
0.05
  9
$TEXTSTYLE
  7
STANDARD
  9
$CLAYER
  8
0
  9
$CELTYPE
  6
BYLAYER
  9
$CECOLOR
 62
   256
  9
$DIMSCALE
 40
2.0
  9
$DIMASZ
 40
3.0
  9
$DIMEXO
 40
2.0
  9
$DIMDLI
 40
0.3799999999999999
  9
$DIMRND
 40
0.0
  9
$DIMDLE
 40
0.0
  9
$DIMEXE
 40
2.0
  9
$DIMTP
 40
0.0
  9
$DIMTM
 40
0.0
  9
$DIMTXT
 40
3.2000000000000002
  9
$DIMCEN
 40
0.0
  9
$DIMTSZ
 40
0.0
  9
$DIMTOL
 70
     0
  9
$DIMLIM
 70
     0
  9
$DIMTIH
 70
     0
  9
$DIMTOH
 70
     0
  9
$DIMSE1
 70
     0
  9
$DIMSE2
 70
     0
  9
$DIMTAD
 70
     1
  9
$DIMZIN
 70
     0
  9
$DIMBLK
  1

  9
$DIMASO
 70
     1
  9
$DIMSHO
 70
     0
  9
$DIMPOST
  1

  9
$DIMAPOST
  1

  9
$DIMALT
 70
     0
  9
$DIMALTD
 70
     2
  9
$DIMALTF
 40
25.399999999999999
  9
$DIMLFAC
 40
1.0
  9
$DIMTOFL
 70
     1
  9
$DIMTVP
 40
0.0
  9
$DIMTIX
 70
     1
  9
$DIMSOXD
 70
     0
  9
$DIMSAH
 70
     0
  9
$DIMBLK1
  1

  9
$DIMBLK2
  1

  9
$DIMSTYLE
  2
STANDARD
  9
$DIMCLRD
 70
     0
  9
$DIMCLRE
 70
     0
  9
$DIMCLRT
 70
     0
  9
$DIMTFAC
 40
1.0
  9
$DIMGAP
 40
0.09
  9
$LUNITS
 70
     2
  9
$LUPREC
 70
     4
  9
$SKETCHINC
 40
0.1
  9
$FILLETRAD
 40
10.0
  9
$AUNITS
 70
     0
  9
$AUPREC
 70
     0
  9
$MENU
  1
E:\r13\win\SUPPORT\ACAD
  9
$ELEVATION
 40
0.0
  9
$PELEVATION
 40
0.0
  9
$THICKNESS
 40
0.0
  9
$LIMCHECK
 70
     0
  9
$BLIPMODE
 70
     0
  9
$CHAMFERA
 40
0.0
  9
$CHAMFERB
 40
0.0
  9
$SKPOLY
 70
     0
  9
$TDCREATE
 40
2449840.6323611112
  9
$TDUPDATE
 40
2456598.4997402201
  9
$TDINDWG
 40
0.0002602199
  9
$TDUSRTIMER
 40
0.0002602199
  9
$USRTIMER
 70
     1
  9
$ANGBASE
 50
0.0
  9
$ANGDIR
 70
     0
  9
$PDMODE
 70
     0
  9
$PDSIZE
 40
0.0
  9
$PLINEWID
 40
0.0
  9
$COORDS
 70
     1
  9
$SPLFRAME
 70
     0
  9
$SPLINETYPE
 70
     6
  9
$SPLINESEGS
 70
     8
  9
$ATTDIA
 70
     0
  9
$ATTREQ
 70
     1
  9
$HANDLING
 70
     1
  9
$HANDSEED
  5
290
  9
$SURFTAB1
 70
     6
  9
$SURFTAB2
 70
     6
  9
$SURFTYPE
 70
     6
  9
$SURFU
 70
     6
  9
$SURFV
 70
     6
  9
$UCSNAME
  2

  9
$UCSORG
 10
0.0
 20
0.0
 30
0.0
  9
$UCSXDIR
 10
1.0
 20
0.0
 30
0.0
  9
$UCSYDIR
 10
0.0
 20
1.0
 30
0.0
  9
$PUCSNAME
  2

  9
$PUCSORG
 10
0.0
 20
0.0
 30
0.0
  9
$PUCSXDIR
 10
1.0
 20
0.0
 30
0.0
  9
$PUCSYDIR
 10
0.0
 20
1.0
 30
0.0
  9
$USERI1
 70
     0
  9
$USERI2
 70
     1
  9
$USERI3
 70
     1
  9
$USERI4
 70
     0
  9
$USERI5
 70
     0
  9
$USERR1
 40
0.0
  9
$USERR2
 40
0.0
  9
$USERR3
 40
0.0
  9
$USERR4
 40
0.0
  9
$USERR5
 40
0.0
  9
$WORLDVIEW
 70
     1
  9
$SHADEDGE
 70
     3
  9
$SHADEDIF
 70
    70
  9
$TILEMODE
 70
     1
  9
$MAXACTVP
 70
    16
  9
$PLIMCHECK
 70
     0
  9
$PEXTMIN
 10
1.0000000000000000E+020
 20
1.0000000000000000E+020
 30
1.0000000000000000E+020
  9
$PEXTMAX
 10
-1.0000000000000000E+020
 20
-1.0000000000000000E+020
 30
-1.0000000000000000E+020
  9
$PLIMMIN
 10
0.0
 20
0.0
  9
$PLIMMAX
 10
12.0
 20
9.0
  9
$UNITMODE
 70
     0
  9
$VISRETAIN
 70
     0
  9
$PLINEGEN
 70
     0
  9
$PSLTSCALE
 70
     0
  0
ENDSEC
  0
SECTION
  2
TABLES
  0
TABLE
  2
VPORT
 70
     1
  0
VPORT
  2
*ACTIVE
 70
     0
 10
0.0
 20
0.0
 11
1.0
 21
1.0
 12
390.03402345615979
 22
268.50860658393782
 13
0.0
 23
0.0
 14
20.0
 24
20.0
 15
20.0
 25
20.0
 16
0.0
 26
0.0
 36
1.0
 17
0.0
 27
0.0
 37
0.0
 40
547.85258761088789
 41
1.831871345029239
 42
50.0
 43
0.0
 44
0.0
 50
0.0
 51
0.0
 71
     0
 72
   500
 73
     1
 74
     0
 75
     0
 76
     0
 77
     0
 78
     0
  0
ENDTAB
  0
TABLE
  2
LTYPE
 70
     4
  0
LTYPE
  2
CONTINUOUS
 70
     0
  3
Solid Line
 72
    65
 73
     0
 40
0.0
  0
LTYPE
  2
CENTER
 70
     0
  3
____ _ ____ _ ____ _ ____ _ ____ _ ____ _ ____
 72
    65
 73
     4
 40
2.0
 49
1.25
 49
-0.25
 49
0.25
 49
-0.25
  0
LTYPE
  2
HIDDEN
 70
     0
  3
_ _ _ _ _ _ _ _ _ _ _ _ _ _ _ _ _ _ _ _ _ _ _
 72
    65
 73
     2
 40
0.375
 49
0.25
 49
-0.125
  0
LTYPE
  2
PHANTOM2
 70
     0
  3
___ _ _ ___ _ _ ___ _ _ ___ _ _
 72
    65
 73
     6
 40
1.25
 49
0.625
 49
-0.125
 49
0.125
 49
-0.125
 49
0.125
 49
-0.125
  0
ENDTAB
  0
TABLE
  2
LAYER
 70
     4
  0
LAYER
  2
0
 70
     0
 62
     7
  6
CONTINUOUS
  0
LAYER
  2
1
 70
     0
 62
     1
  6
CENTER
  0
LAYER
  2
2
 70
     0
 62
     2
  6
HIDDEN
  0
LAYER
  2
3
 70
     0
 62
     3
  6
CONTINUOUS
  0
ENDTAB
  0
TABLE
  2
STYLE
 70
     2
  0
STYLE
  2
STANDARD
 70
     0
 40
0.0
 41
1.0
 50
0.0
 71
     0
 42
8.0000000000000497
  3
TXT
  4
BIGFONT
  0
STYLE
  2
STANDARD1
 70
     0
 40
0.0
 41
1.0
 50
0.0
 71
     0
 42
3.0
  3
txt
  4

  0
ENDTAB
  0
TABLE
  2
VIEW
 70
     1
  0
VIEW
  2
ALL
 70
     0
 40
540.0
 10
441.98319327731087
 20
270.0
 41
0.0
 11
0.0
 21
0.0
 31
1.0
 12
0.0
 22
0.0
 32
0.0
 42
0.0
 43
0.0
 44
0.0
 50
0.0
 71
     0
  0
ENDTAB
  0
TABLE
  2
UCS
 70
     0
  0
ENDTAB
  0
TABLE
  2
APPID
 70
     3
  0
APPID
  2
ACAD
 70
     0
  0
APPID
  2
ACAD_MLEADERVER
 70
     0
  0
APPID
  2
ACAD_NAV_VCDISPLAY
 70
     0
  0
ENDTAB
  0
TABLE
  2
DIMSTYLE
 70
     1
  0
DIMSTYLE
  2
STANDARD
 70
     0
  3

  4

  5

  6

  7

 40
1.0
 41
0.18
 42
0.0625
 43
0.38
 44
0.18
 45
0.0
 46
0.0
 47
0.0
 48
0.0
140
0.18
141
0.09
142
0.0
143
25.399999999999999
144
1.0
145
0.0
146
1.0
147
0.09
 71
     0
 72
     0
 73
     1
 74
     1
 75
     0
 76
     0
 77
     0
 78
     0
170
     0
171
     2
172
     0
173
     0
174
     0
175
     0
176
     0
177
     0
178
     0
  0
ENDTAB
  0
ENDSEC
  0
SECTION
  2
BLOCKS
  0
BLOCK
  8
0
  2
$MODEL_SPACE
 70
     0
 10
0.0
 20
0.0
 30
0.0
  3
$MODEL_SPACE
  1

  0
ENDBLK
  5
10F
  8
0
  0
BLOCK
 67
     1
  8
0
  2
$PAPER_SPACE
 70
     0
 10
0.0
 20
0.0
 30
0.0
  3
$PAPER_SPACE
  1

  0
ENDBLK
  5
10D
 67
     1
  8
0
  0
ENDSEC
  0
SECTION
  2
ENTITIES
  0
LINE
  5
36
  8
1
 10
169.27853272786871
 20
129.26781697250351
 30
0.0
 11
133.27853272786871
 21
129.26781697250351
 31
0.0
  0
LINE
  5
37
  8
2
 10
154.6020327278687
 20
317.5486710631497
 30
0.0
 11
155.80203272786861
 21
316.3486710631496
 31
0.0
  0
LINE
  5
38
  8
2
 10
147.9550327278686
 20
317.5486710631497
 30
0.0
 11
146.75503272786861
 21
316.3486710631496
 31
0.0
  0
LINE
  5
39
  8
2
 10
147.9550327278686
 20
317.5486710631497
 30
0.0
 11
154.6020327278687
 21
317.5486710631497
 31
0.0
  0
LINE
  5
3A
  8
2
 10
154.6020327278687
 20
336.3486710631496
 30
0.0
 11
147.95503272786851
 21
336.3486710631496
 31
0.0
  0
LINE
  5
3B
  8
2
 10
155.27853272786859
 20
331.3486710631496
 30
0.0
 11
147.27853272786859
 21
331.3486710631496
 31
0.0
  0
LINE
  5
3C
  8
2
 10
154.60203272786879
 20
336.3486710631496
 30
0.0
 11
151.27853272786859
 21
338.34563133048778
 31
0.0
  0
LINE
  5
3D
  8
2
 10
147.9550327278684
 20
336.3486710631496
 30
0.0
 11
151.27853272786859
 21
338.34563133048778
 31
0.0
  0
LINE
  5
3E
  8
2
 10
147.27853272786859
 20
316.87217106314961
 30
0.0
 11
147.27853272786859
 21
331.3486710631496
 31
0.0
  0
LINE
  5
3F
  8
2
 10
147.95503272786851
 20
317.5486710631497
 30
0.0
 11
147.95503272786851
 21
336.3486710631496
 31
0.0
  0
LINE
  5
40
  8
2
 10
154.6020327278687
 20
317.5486710631497
 30
0.0
 11
154.6020327278687
 21
336.3486710631496
 31
0.0
  0
LINE
  5
41
  8
2
 10
155.27853272786859
 20
316.87217106314961
 30
0.0
 11
155.27853272786859
 21
331.3486710631496
 31
0.0
  0
LINE
  5
42
  8
1
 10
333.27853272786871
 20
129.26781697250351
 30
0.0
 11
369.27853272786871
 21
129.26781697250351
 31
0.0
  0
LINE
  5
43
  8
0
 10
179.27853272786859
 20
237.26781697250351
 30
0.0
 11
323.27853272786871
 21
237.26781697250351
 31
0.0
  0
LINE
  5
44
  8
0
 10
179.27853272786859
 20
221.26781697250351
 30
0.0
 11
323.27853272786871
 21
221.26781697250351
 31
0.0
  0
LINE
  5
45
  8
1
 10
179.27853272786859
 20
229.26781697250351
 30
0.0
 11
323.27853272786871
 21
229.26781697250351
 31
0.0
  0
LINE
  5
46
  8
0
 10
343.27853272786871
 20
203.9529386368942
 30
0.0
 11
343.27853272786871
 21
129.26781697250351
 31
0.0
  0
LINE
  5
47
  8
0
 10
359.27853272786859
 20
203.9529386368942
 30
0.0
 11
359.27853272786859
 21
129.26781697250351
 31
0.0
  0
LINE
  5
48
  8
1
 10
351.27853272786859
 20
203.9529386368942
 30
0.0
 11
351.27853272786859
 21
111.2678169725034
 31
0.0
  0
LINE
  5
49
  8
1
 10
521.73515793425963
 20
424.34867106314931
 30
0.0
 11
521.73515793425963
 21
388.34867106314942
 31
0.0
  0
LINE
  5
4A
  8
1
 10
539.73515793425963
 20
406.34867106314931
 30
0.0
 11
503.73515793425969
 21
406.34867106314931
 31
0.0
  0
ARC
  5
4B
  8
0
 10
593.73515793425963
 20
341.34867106314948
 30
0.0
 40
36.0
 50
0.0
 51
64.70271478649768
  0
ARC
  5
4C
  8
0
 10
593.73515793425963
 20
341.34867106314948
 30
0.0
 40
20.0
 50
0.0
 51
64.70271478649785
  0
ARC
  5
4D
  8
1
 10
593.73515793425963
 20
341.34867106314948
 30
0.0
 40
28.0
 50
0.0
 51
64.702714786497751
  0
LINE
  5
4E
  8
0
 10
613.73515793425963
 20
341.34867106314948
 30
0.0
 11
613.73515793425963
 21
316.34867106314948
 31
0.0
  0
LINE
  5
4F
  8
0
 10
629.73515793425963
 20
341.34867106314948
 30
0.0
 11
629.73515793425963
 21
316.34867106314948
 31
0.0
  0
LINE
  5
50
  8
0
 10
629.73515793425963
 20
316.34867106314948
 30
0.0
 11
613.73515793425963
 21
316.34867106314948
 31
0.0
  0
LINE
  5
51
  8
1
 10
621.73515793425963
 20
341.34867106314948
 30
0.0
 11
621.73515793425963
 21
306.34867106314948
 31
0.0
  0
LINE
  5
52
  8
0
 10
143.27853272786859
 20
316.3486710631496
 30
0.0
 11
159.27853272786859
 21
316.3486710631496
 31
0.0
  0
LINE
  5
53
  8
1
 10
323.27853272786871
 20
406.34867106314931
 30
0.0
 11
179.27853272786859
 21
406.34867106314931
 31
0.0
  0
LINE
  5
54
  8
0
 10
323.27853272786871
 20
398.34867106314948
 30
0.0
 11
179.27853272786859
 21
398.34867106314948
 31
0.0
  0
LINE
  5
55
  8
0
 10
323.27853272786871
 20
414.34867106314948
 30
0.0
 11
179.27853272786859
 21
414.34867106314948
 31
0.0
  0
LINE
  5
56
  8
0
 10
343.27853272786871
 20
393.3686084165401
 30
0.0
 11
343.27853272786871
 21
316.3486710631496
 31
0.0
  0
LINE
  5
57
  8
0
 10
359.27853272786859
 20
394.38385034350222
 30
0.0
 11
359.27853272786859
 21
316.3486710631496
 31
0.0
  0
LINE
  5
58
  8
0
 10
359.27853272786859
 20
316.3486710631496
 30
0.0
 11
343.27853272786871
 21
316.3486710631496
 31
0.0
  0
LINE
  5
59
  8
1
 10
351.27853272786859
 20
394.38385034350222
 30
0.0
 11
351.27853272786859
 21
306.3486710631496
 31
0.0
  0
CIRCLE
  5
5A
  8
3
 10
151.27853272786871
 20
129.26781697250351
 30
0.0
 40
4.0
  0
CIRCLE
  5
5B
  8
0
 10
151.27853272786871
 20
129.26781697250351
 30
0.0
 40
3.3235000000000001
  0
CIRCLE
  5
5C
  8
3
 10
351.27853272786859
 20
129.26781697250351
 30
0.0
 40
4.0
  0
CIRCLE
  5
5D
  8
0
 10
351.27853272786859
 20
129.26781697250351
 30
0.0
 40
3.3235000000000001
  0
CIRCLE
  5
5E
  8
0
 10
151.27853272786871
 20
129.26781697250351
 30
0.0
 40
7.9999999999999707
  0
CIRCLE
  5
5F
  8
0
 10
351.27853272786859
 20
129.26781697250351
 30
0.0
 40
8.0
  0
LINE
  5
60
  8
0
 10
525.15367813987314
 20
413.58149344475203
 30
0.0
 11
609.1184988595204
 21
373.89637178036139
 31
0.0
  0
LINE
  5
61
  8
0
 10
518.31663772864613
 20
399.11584868154659
 30
0.0
 11
602.28145844829351
 21
359.43072701715607
 31
0.0
  0
LINE
  5
62
  8
1
 10
521.73515793425963
 20
406.34867106314931
 30
0.0
 11
605.69997865390701
 21
366.66354939875879
 31
0.0
  0
POLYLINE
  5
63
  8
1
 66
     1
 10
0.0
 20
0.0
 30
0.0
  0
VERTEX
  5
64
  8
1
 10
351.27853272786859
 20
394.38385034350222
 30
0.0
 42
0.1948696433651811
  0
VERTEX
  5
65
  8
1
 10
349.69441072196389
 20
398.29407014149552
 30
0.0
 42
0.0996114389156681
  0
VERTEX
  5
66
  8
1
 10
343.07752260109203
 20
402.8442562100459
 30
0.0
 42
0.0572234864624192
 70
     2
 50
156.862253391802
  0
VERTEX
  5
67
  8
1
 10
334.67170204687659
 20
405.34815325147082
 30
0.0
 42
0.0438243396755928
 50
156.862253391802
  0
VERTEX
  5
68
  8
1
 10
323.27853272786871
 20
406.34867106314931
 30
0.0
 42
0.043824339675592
  0
SEQEND
  5
69
  8
1
  0
POLYLINE
  5
6A
  8
0
 66
     1
 10
0.0
 20
0.0
 30
0.0
  0
VERTEX
  5
6B
  8
0
 10
359.27853272786859
 20
394.38385034350222
 30
0.0
 42
0.1948696433651801
  0
VERTEX
  5
6C
  8
0
 10
355.43863844157568
 20
403.86218004569491
 30
0.0
 42
0.0996114389156681
  0
VERTEX
  5
6D
  8
0
 10
346.22106669875132
 20
410.20075881019977
 30
0.0
 42
0.0572234864624188
 70
     2
 50
156.862253391802
  0
VERTEX
  5
6E
  8
0
 10
336.06602659927671
 20
413.22570737966151
 30
0.0
 42
0.0438243396755937
 50
156.862253391802
  0
VERTEX
  5
6F
  8
0
 10
323.27853272786871
 20
414.34867106314931
 30
0.0
 42
0.0438243396755937
 50
156.862253391802
  0
SEQEND
  5
70
  8
0
  0
POLYLINE
  5
71
  8
0
 66
     1
 10
0.0
 20
0.0
 30
0.0
  0
VERTEX
  5
72
  8
0
 10
343.95018300235211
 20
392.72596023729608
 30
0.0
 42
0.0996114389156677
  0
VERTEX
  5
73
  8
0
 10
339.93397850343268
 20
395.48775360989202
 30
0.0
 42
0.057223486462419
 70
     2
 50
156.862253391802
  0
VERTEX
  5
74
  8
0
 10
333.27737749447653
 20
397.47059912328012
 30
0.0
 42
0.0438243396755933
 50
156.862253391802
  0
VERTEX
  5
75
  8
0
 10
323.27853272786871
 20
398.34867106314931
 30
0.0
 42
0.0438243396755933
 50
156.862253391802
  0
SEQEND
  5
76
  8
0
  0
POLYLINE
  5
77
  8
0
 66
     1
 10
0.0
 20
0.0
 30
0.0
  0
VERTEX
  5
78
  8
0
 10
158.6068824533852
 20
392.72596023729608
 30
0.0
 42
-0.0996114389156677
  0
VERTEX
  5
79
  8
0
 10
162.62308695230459
 20
395.48775360989202
 30
0.0
 42
-0.057223486462419
 70
     2
 50
23.137746608198011
  0
VERTEX
  5
7A
  8
0
 10
169.27968796126081
 20
397.47059912328012
 30
0.0
 42
-0.0438243396755933
  0
VERTEX
  5
7B
  8
0
 10
179.27853272786859
 20
398.34867106314931
 30
0.0
 42
-0.0438243396755933
  0
SEQEND
  5
7C
  8
0
  0
POLYLINE
  5
7D
  8
0
 66
     1
 10
0.0
 20
0.0
 30
0.0
  0
VERTEX
  5
7E
  8
0
 10
143.27853272786859
 20
394.38385034350222
 30
0.0
 42
-0.1948696433651801
  0
VERTEX
  5
7F
  8
0
 10
147.1184270141616
 20
403.86218004569491
 30
0.0
 42
-0.0996114389156681
  0
VERTEX
  5
80
  8
0
 10
156.33599875698599
 20
410.20075881019977
 30
0.0
 42
-0.0572234864624188
 70
     2
 50
23.137746608198011
  0
VERTEX
  5
81
  8
0
 10
166.49103885646059
 20
413.22570737966151
 30
0.0
 42
-0.0438243396755937
  0
VERTEX
  5
82
  8
0
 10
179.27853272786859
 20
414.34867106314931
 30
0.0
 42
-0.0438243396755937
  0
SEQEND
  5
83
  8
0
  0
POLYLINE
  5
84
  8
1
 66
     1
 10
0.0
 20
0.0
 30
0.0
  0
VERTEX
  5
85
  8
1
 10
151.27853272786859
 20
394.38385034350222
 30
0.0
 42
-0.1948696433651811
  0
VERTEX
  5
86
  8
1
 10
152.86265473377341
 20
398.29407014149552
 30
0.0
 42
-0.0996114389156681
  0
VERTEX
  5
87
  8
1
 10
159.4795428546453
 20
402.8442562100459
 30
0.0
 42
-0.0572234864624192
 70
     2
 50
23.137746608198011
  0
VERTEX
  5
88
  8
1
 10
167.88536340886071
 20
405.34815325147082
 30
0.0
 42
-0.0438243396755928
  0
VERTEX
  5
89
  8
1
 10
179.27853272786859
 20
406.34867106314931
 30
0.0
 42
-0.043824339675592
  0
SEQEND
  5
8A
  8
1
  0
LINE
  5
8B
  8
1
 10
151.27853272786859
 20
394.38385034350222
 30
0.0
 11
151.27853272786859
 21
306.3486710631496
 31
0.0
  0
LINE
  5
8C
  8
0
 10
143.27853272786859
 20
394.38385034350222
 30
0.0
 11
143.27853272786859
 21
316.3486710631496
 31
0.0
  0
LINE
  5
8D
  8
0
 10
159.27853272786859
 20
393.3686084165401
 30
0.0
 11
159.27853272786859
 21
316.3486710631496
 31
0.0
  0
POLYLINE
  5
8E
  8
0
 66
     1
 10
0.0
 20
0.0
 30
0.0
  0
VERTEX
  5
8F
  8
0
 10
343.27853272786871
 20
203.9529386368942
 30
0.0
 42
0.1120296693565054
  0
VERTEX
  5
90
  8
0
 10
341.8040252719324
 20
210.4512236090458
 30
0.0
 42
0.1031067825463422
  0
VERTEX
  5
91
  8
0
 10
337.4206683515996
 20
216.1964065234236
 30
0.0
 42
0.0925744312493521
 70
     2
 50
139.11582264465261
  0
VERTEX
  5
92
  8
0
 10
331.05857211533379
 20
219.91502086250239
 30
0.0
 42
0.0862927885591246
 50
139.11582264465261
  0
VERTEX
  5
93
  8
0
 10
323.27853272786871
 20
221.26781697250351
 30
0.0
 42
0.0862927885591257
  0
SEQEND
  5
94
  8
0
  0
POLYLINE
  5
95
  8
1
 66
     1
 10
0.0
 20
0.0
 30
0.0
  0
VERTEX
  5
96
  8
1
 10
351.27853272786859
 20
203.9529386368942
 30
0.0
 42
0.1078173181626425
  0
VERTEX
  5
97
  8
1
 10
349.19288104777229
 20
213.5126592028123
 30
0.0
 42
0.1018776304909065
  0
VERTEX
  5
98
  8
1
 10
343.07752260109203
 20
221.853260772916
 30
0.0
 42
0.0944675962638547
 70
     2
 50
137.88317755700109
  0
VERTEX
  5
99
  8
1
 10
334.12048799590491
 20
227.30429135781111
 30
0.0
 42
0.0898216230910253
 50
137.88317755700109
  0
VERTEX
  5
9A
  8
1
 10
323.27853272786871
 20
229.2678169725034
 30
0.0
 42
0.0898216230910266
  0
SEQEND
  5
9B
  8
1
  0
POLYLINE
  5
9C
  8
0
 66
     1
 10
0.0
 20
0.0
 30
0.0
  0
VERTEX
  5
9D
  8
0
 10
359.27853272786859
 20
203.9529386368942
 30
0.0
 42
0.1056037157293259
  0
VERTEX
  5
9E
  8
0
 10
356.58277566330861
 20
216.57414979923641
 30
0.0
 42
0.101158404204798
  0
VERTEX
  5
9F
  8
0
 10
348.73437685058428
 20
227.51011502240831
 30
0.0
 42
0.0954471997018195
 70
     2
 50
137.21841624964489
  0
VERTEX
  5
A0
  8
0
 10
337.1821668447505
 20
234.6943486543081
 30
0.0
 42
0.0917672506530544
 50
137.21841624964489
  0
VERTEX
  5
A1
  8
0
 10
323.27853272786871
 20
237.26781697250351
 30
0.0
 42
0.0917672506530519
  0
SEQEND
  5
A2
  8
0
  0
POLYLINE
  5
A3
  8
0
 66
     1
 10
0.0
 20
0.0
 30
0.0
  0
VERTEX
  5
A4
  8
0
 10
143.27853272786871
 20
203.9529386368942
 30
0.0
 42
-0.1056037157293259
  0
VERTEX
  5
A5
  8
0
 10
145.97428979242869
 20
216.57414979923641
 30
0.0
 42
-0.101158404204798
  0
VERTEX
  5
A6
  8
0
 10
153.82268860515299
 20
227.51011502240831
 30
0.0
 42
-0.0954471997018195
 70
     2
 50
42.781583750355047
  0
VERTEX
  5
A7
  8
0
 10
165.37489861098689
 20
234.6943486543081
 30
0.0
 42
-0.0917672506530544
  0
VERTEX
  5
A8
  8
0
 10
179.27853272786871
 20
237.26781697250351
 30
0.0
 42
-0.0917672506530519
  0
SEQEND
  5
A9
  8
0
  0
POLYLINE
  5
AA
  8
1
 66
     1
 10
0.0
 20
0.0
 30
0.0
  0
VERTEX
  5
AB
  8
1
 10
151.27853272786871
 20
203.9529386368942
 30
0.0
 42
-0.1078173181626425
  0
VERTEX
  5
AC
  8
1
 10
153.36418440796501
 20
213.5126592028123
 30
0.0
 42
-0.1018776304909065
  0
VERTEX
  5
AD
  8
1
 10
159.47954285464539
 20
221.853260772916
 30
0.0
 42
-0.0944675962638547
 70
     2
 50
42.116822442998917
  0
VERTEX
  5
AE
  8
1
 10
168.43657745983239
 20
227.30429135781111
 30
0.0
 42
-0.0898216230910253
  0
VERTEX
  5
AF
  8
1
 10
179.27853272786871
 20
229.2678169725034
 30
0.0
 42
-0.0898216230910266
  0
SEQEND
  5
B0
  8
1
  0
POLYLINE
  5
B1
  8
0
 66
     1
 10
0.0
 20
0.0
 30
0.0
  0
VERTEX
  5
B2
  8
0
 10
159.27853272786871
 20
203.9529386368942
 30
0.0
 42
-0.1120296693565054
  0
VERTEX
  5
B3
  8
0
 10
160.7530401838049
 20
210.4512236090458
 30
0.0
 42
-0.1031067825463422
  0
VERTEX
  5
B4
  8
0
 10
165.1363971041377
 20
216.1964065234236
 30
0.0
 42
-0.0925744312493521
 70
     2
 50
40.88417735534739
  0
VERTEX
  5
B5
  8
0
 10
171.49849334040351
 20
219.91502086250239
 30
0.0
 42
-0.0862927885591246
  0
VERTEX
  5
B6
  8
0
 10
179.27853272786871
 20
221.26781697250351
 30
0.0
 42
-0.0862927885591257
  0
SEQEND
  5
B7
  8
0
  0
LINE
  5
B8
  8
1
 10
151.27853272786871
 20
203.9529386368942
 30
0.0
 11
151.27853272786871
 21
111.2678169725034
 31
0.0
  0
LINE
  5
B9
  8
0
 10
143.27853272786871
 20
203.9529386368942
 30
0.0
 11
143.27853272786871
 21
129.26781697250351
 31
0.0
  0
LINE
  5
BA
  8
0
 10
159.27853272786871
 20
203.9529386368942
 30
0.0
 11
159.27853272786871
 21
129.26781697250351
 31
0.0
  0
ARC
  5
BB
  8
0
 10
521.73515793425963
 20
406.34867106314931
 30
0.0
 40
8.0
 50
64.702714786497609
 51
244.70271478649761
  0
ARC
  5
BC
  8
2
 10
521.73515793425963
 20
406.34867106314931
 30
0.0
 40
8.0000000000000107
 50
244.70271478649761
 51
64.702714786497609
  0
LINE
  5
C6
  8
2
 10
355.27853272786859
 20
316.87217106314961
 30
0.0
 11
355.27853272786859
 21
331.3486710631496
 31
0.0
  0
LINE
  5
C7
  8
2
 10
354.60203272786868
 20
317.5486710631497
 30
0.0
 11
354.60203272786868
 21
336.3486710631496
 31
0.0
  0
LINE
  5
C8
  8
2
 10
347.95503272786863
 20
317.5486710631497
 30
0.0
 11
347.95503272786863
 21
336.3486710631496
 31
0.0
  0
LINE
  5
C9
  8
2
 10
347.27853272786859
 20
316.87217106314961
 30
0.0
 11
347.27853272786859
 21
331.3486710631496
 31
0.0
  0
LINE
  5
CA
  8
2
 10
347.95503272786851
 20
336.3486710631496
 30
0.0
 11
351.27853272786859
 21
338.34563133048778
 31
0.0
  0
LINE
  5
CB
  8
2
 10
354.60203272786879
 20
336.3486710631496
 30
0.0
 11
351.27853272786859
 21
338.34563133048778
 31
0.0
  0
LINE
  5
CC
  8
2
 10
355.27853272786859
 20
331.3486710631496
 30
0.0
 11
347.27853272786859
 21
331.3486710631496
 31
0.0
  0
LINE
  5
CD
  8
2
 10
354.60203272786868
 20
336.3486710631496
 30
0.0
 11
347.95503272786863
 21
336.3486710631496
 31
0.0
  0
LINE
  5
CE
  8
2
 10
347.95503272786863
 20
317.5486710631497
 30
0.0
 11
354.60203272786868
 21
317.5486710631497
 31
0.0
  0
LINE
  5
CF
  8
2
 10
347.95503272786863
 20
317.5486710631497
 30
0.0
 11
346.75503272786858
 21
316.3486710631496
 31
0.0
  0
LINE
  5
D0
  8
2
 10
354.60203272786868
 20
317.5486710631497
 30
0.0
 11
355.80203272786872
 21
316.3486710631496
 31
0.0
  0
LINE
  5
D1
  8
2
 10
625.0586579342596
 20
317.5486710631497
 30
0.0
 11
626.25865793425965
 21
316.3486710631496
 31
0.0
  0
LINE
  5
D2
  8
2
 10
618.41165793425955
 20
317.5486710631497
 30
0.0
 11
617.21165793425962
 21
316.3486710631496
 31
0.0
  0
LINE
  5
D3
  8
2
 10
618.41165793425955
 20
317.5486710631497
 30
0.0
 11
625.05865793425971
 21
317.5486710631497
 31
0.0
  0
LINE
  5
D4
  8
2
 10
625.05865793425971
 20
336.3486710631496
 30
0.0
 11
618.41165793425955
 21
336.3486710631496
 31
0.0
  0
LINE
  5
D5
  8
2
 10
625.73515793425963
 20
331.3486710631496
 30
0.0
 11
617.73515793425963
 21
331.3486710631496
 31
0.0
  0
LINE
  5
D6
  8
2
 10
625.05865793425983
 20
336.3486710631496
 30
0.0
 11
621.73515793425963
 21
338.34563133048778
 31
0.0
  0
LINE
  5
D7
  8
2
 10
618.41165793425944
 20
336.3486710631496
 30
0.0
 11
621.73515793425963
 21
338.34563133048778
 31
0.0
  0
LINE
  5
D8
  8
2
 10
617.73515793425963
 20
316.87217106314961
 30
0.0
 11
617.73515793425963
 21
331.3486710631496
 31
0.0
  0
LINE
  5
D9
  8
2
 10
618.41165793425955
 20
317.5486710631497
 30
0.0
 11
618.41165793425955
 21
336.3486710631496
 31
0.0
  0
LINE
  5
DA
  8
2
 10
625.05865793425971
 20
317.5486710631497
 30
0.0
 11
625.05865793425971
 21
336.3486710631496
 31
0.0
  0
LINE
  5
DB
  8
2
 10
625.73515793425963
 20
316.87217106314961
 30
0.0
 11
625.73515793425963
 21
331.3486710631496
 31
0.0
  0
TEXT
  5
201
  8
0
 62
     3
 10
0.0
 20
0.0
 30
0.0
 40
10.0
  1
CPH200
  7
STANDARD1
  0
ENDSEC
  0
EOF
