  0
SECTION
  2
HEADER
  9
$ACADVER
  1
AC1009
  9
$INSBASE
 10
0.0
 20
0.0
 30
0.0
  9
$EXTMIN
 10
0.0
 20
-2.960436562073669
 30
0.0
  9
$EXTMAX
 10
629.73515793425963
 20
423.4583832933651
 30
0.0
  9
$LIMMIN
 10
0.0
 20
0.0
  9
$LIMMAX
 10
750.0
 20
540.0
  9
$ORTHOMODE
 70
     1
  9
$REGENMODE
 70
     1
  9
$FILLMODE
 70
     1
  9
$QTEXTMODE
 70
     0
  9
$MIRRTEXT
 70
     0
  9
$DRAGMODE
 70
     2
  9
$LTSCALE
 40
20.0
  9
$OSMODE
 70
  3071
  9
$ATTMODE
 70
     1
  9
$TEXTSIZE
 40
8.0000000000000497
  9
$TRACEWID
 40
0.05
  9
$TEXTSTYLE
  7
STANDARD
  9
$CLAYER
  8
0
  9
$CELTYPE
  6
BYLAYER
  9
$CECOLOR
 62
   256
  9
$DIMSCALE
 40
2.0
  9
$DIMASZ
 40
3.0
  9
$DIMEXO
 40
2.0
  9
$DIMDLI
 40
0.3799999999999999
  9
$DIMRND
 40
0.0
  9
$DIMDLE
 40
0.0
  9
$DIMEXE
 40
2.0
  9
$DIMTP
 40
0.0
  9
$DIMTM
 40
0.0
  9
$DIMTXT
 40
3.2000000000000002
  9
$DIMCEN
 40
0.0
  9
$DIMTSZ
 40
0.0
  9
$DIMTOL
 70
     0
  9
$DIMLIM
 70
     0
  9
$DIMTIH
 70
     0
  9
$DIMTOH
 70
     0
  9
$DIMSE1
 70
     0
  9
$DIMSE2
 70
     0
  9
$DIMTAD
 70
     1
  9
$DIMZIN
 70
     0
  9
$DIMBLK
  1

  9
$DIMASO
 70
     1
  9
$DIMSHO
 70
     0
  9
$DIMPOST
  1

  9
$DIMAPOST
  1

  9
$DIMALT
 70
     0
  9
$DIMALTD
 70
     2
  9
$DIMALTF
 40
25.399999999999999
  9
$DIMLFAC
 40
1.0
  9
$DIMTOFL
 70
     1
  9
$DIMTVP
 40
0.0
  9
$DIMTIX
 70
     1
  9
$DIMSOXD
 70
     0
  9
$DIMSAH
 70
     0
  9
$DIMBLK1
  1

  9
$DIMBLK2
  1

  9
$DIMSTYLE
  2
STANDARD
  9
$DIMCLRD
 70
     0
  9
$DIMCLRE
 70
     0
  9
$DIMCLRT
 70
     0
  9
$DIMTFAC
 40
1.0
  9
$DIMGAP
 40
0.09
  9
$LUNITS
 70
     2
  9
$LUPREC
 70
     4
  9
$SKETCHINC
 40
0.1
  9
$FILLETRAD
 40
10.0
  9
$AUNITS
 70
     0
  9
$AUPREC
 70
     0
  9
$MENU
  1
E:\r13\win\SUPPORT\ACAD
  9
$ELEVATION
 40
0.0
  9
$PELEVATION
 40
0.0
  9
$THICKNESS
 40
0.0
  9
$LIMCHECK
 70
     0
  9
$BLIPMODE
 70
     0
  9
$CHAMFERA
 40
0.0
  9
$CHAMFERB
 40
0.0
  9
$SKPOLY
 70
     0
  9
$TDCREATE
 40
2449840.6323726848
  9
$TDUPDATE
 40
2456598.4997631488
  9
$TDINDWG
 40
0.0001721644
  9
$TDUSRTIMER
 40
0.0001721644
  9
$USRTIMER
 70
     1
  9
$ANGBASE
 50
0.0
  9
$ANGDIR
 70
     0
  9
$PDMODE
 70
     0
  9
$PDSIZE
 40
0.0
  9
$PLINEWID
 40
0.0
  9
$COORDS
 70
     1
  9
$SPLFRAME
 70
     0
  9
$SPLINETYPE
 70
     6
  9
$SPLINESEGS
 70
     8
  9
$ATTDIA
 70
     0
  9
$ATTREQ
 70
     1
  9
$HANDLING
 70
     1
  9
$HANDSEED
  5
294
  9
$SURFTAB1
 70
     6
  9
$SURFTAB2
 70
     6
  9
$SURFTYPE
 70
     6
  9
$SURFU
 70
     6
  9
$SURFV
 70
     6
  9
$UCSNAME
  2

  9
$UCSORG
 10
0.0
 20
0.0
 30
0.0
  9
$UCSXDIR
 10
1.0
 20
0.0
 30
0.0
  9
$UCSYDIR
 10
0.0
 20
1.0
 30
0.0
  9
$PUCSNAME
  2

  9
$PUCSORG
 10
0.0
 20
0.0
 30
0.0
  9
$PUCSXDIR
 10
1.0
 20
0.0
 30
0.0
  9
$PUCSYDIR
 10
0.0
 20
1.0
 30
0.0
  9
$USERI1
 70
     0
  9
$USERI2
 70
     1
  9
$USERI3
 70
     1
  9
$USERI4
 70
     0
  9
$USERI5
 70
     0
  9
$USERR1
 40
0.0
  9
$USERR2
 40
0.0
  9
$USERR3
 40
0.0
  9
$USERR4
 40
0.0
  9
$USERR5
 40
0.0
  9
$WORLDVIEW
 70
     1
  9
$SHADEDGE
 70
     3
  9
$SHADEDIF
 70
    70
  9
$TILEMODE
 70
     1
  9
$MAXACTVP
 70
    16
  9
$PLIMCHECK
 70
     0
  9
$PEXTMIN
 10
1.0000000000000000E+020
 20
1.0000000000000000E+020
 30
1.0000000000000000E+020
  9
$PEXTMAX
 10
-1.0000000000000000E+020
 20
-1.0000000000000000E+020
 30
-1.0000000000000000E+020
  9
$PLIMMIN
 10
0.0
 20
0.0
  9
$PLIMMAX
 10
12.0
 20
9.0
  9
$UNITMODE
 70
     0
  9
$VISRETAIN
 70
     0
  9
$PLINEGEN
 70
     0
  9
$PSLTSCALE
 70
     0
  0
ENDSEC
  0
SECTION
  2
TABLES
  0
TABLE
  2
VPORT
 70
     1
  0
VPORT
  2
*ACTIVE
 70
     0
 10
0.0
 20
0.0
 11
1.0
 21
1.0
 12
390.03402345615979
 22
268.50860658393782
 13
0.0
 23
0.0
 14
20.0
 24
20.0
 15
20.0
 25
20.0
 16
0.0
 26
0.0
 36
1.0
 17
0.0
 27
0.0
 37
0.0
 40
547.85258761088789
 41
1.831871345029239
 42
50.0
 43
0.0
 44
0.0
 50
0.0
 51
0.0
 71
     0
 72
   500
 73
     1
 74
     0
 75
     0
 76
     0
 77
     0
 78
     0
  0
ENDTAB
  0
TABLE
  2
LTYPE
 70
     4
  0
LTYPE
  2
CONTINUOUS
 70
     0
  3
Solid Line
 72
    65
 73
     0
 40
0.0
  0
LTYPE
  2
CENTER
 70
     0
  3
____ _ ____ _ ____ _ ____ _ ____ _ ____ _ ____
 72
    65
 73
     4
 40
2.0
 49
1.25
 49
-0.25
 49
0.25
 49
-0.25
  0
LTYPE
  2
HIDDEN
 70
     0
  3
_ _ _ _ _ _ _ _ _ _ _ _ _ _ _ _ _ _ _ _ _ _ _
 72
    65
 73
     2
 40
0.375
 49
0.25
 49
-0.125
  0
LTYPE
  2
PHANTOM2
 70
     0
  3
___ _ _ ___ _ _ ___ _ _ ___ _ _
 72
    65
 73
     6
 40
1.25
 49
0.625
 49
-0.125
 49
0.125
 49
-0.125
 49
0.125
 49
-0.125
  0
ENDTAB
  0
TABLE
  2
LAYER
 70
     4
  0
LAYER
  2
0
 70
     0
 62
     7
  6
CONTINUOUS
  0
LAYER
  2
1
 70
     0
 62
     1
  6
CENTER
  0
LAYER
  2
2
 70
     0
 62
     2
  6
HIDDEN
  0
LAYER
  2
3
 70
     0
 62
     3
  6
CONTINUOUS
  0
ENDTAB
  0
TABLE
  2
STYLE
 70
     2
  0
STYLE
  2
STANDARD
 70
     0
 40
0.0
 41
1.0
 50
0.0
 71
     0
 42
8.0000000000000497
  3
TXT
  4
BIGFONT
  0
STYLE
  2
STANDARD1
 70
     0
 40
0.0
 41
1.0
 50
0.0
 71
     0
 42
3.0
  3
txt
  4

  0
ENDTAB
  0
TABLE
  2
VIEW
 70
     1
  0
VIEW
  2
ALL
 70
     0
 40
540.0
 10
441.98319327731087
 20
270.0
 41
0.0
 11
0.0
 21
0.0
 31
1.0
 12
0.0
 22
0.0
 32
0.0
 42
0.0
 43
0.0
 44
0.0
 50
0.0
 71
     0
  0
ENDTAB
  0
TABLE
  2
UCS
 70
     0
  0
ENDTAB
  0
TABLE
  2
APPID
 70
     3
  0
APPID
  2
ACAD
 70
     0
  0
APPID
  2
ACAD_MLEADERVER
 70
     0
  0
APPID
  2
ACAD_NAV_VCDISPLAY
 70
     0
  0
ENDTAB
  0
TABLE
  2
DIMSTYLE
 70
     1
  0
DIMSTYLE
  2
STANDARD
 70
     0
  3

  4

  5

  6

  7

 40
1.0
 41
0.18
 42
0.0625
 43
0.38
 44
0.18
 45
0.0
 46
0.0
 47
0.0
 48
0.0
140
0.18
141
0.09
142
0.0
143
25.399999999999999
144
1.0
145
0.0
146
1.0
147
0.09
 71
     0
 72
     0
 73
     1
 74
     1
 75
     0
 76
     0
 77
     0
 78
     0
170
     0
171
     2
172
     0
173
     0
174
     0
175
     0
176
     0
177
     0
178
     0
  0
ENDTAB
  0
ENDSEC
  0
SECTION
  2
BLOCKS
  0
BLOCK
  8
0
  2
$MODEL_SPACE
 70
     0
 10
0.0
 20
0.0
 30
0.0
  3
$MODEL_SPACE
  1

  0
ENDBLK
  5
113
  8
0
  0
BLOCK
 67
     1
  8
0
  2
$PAPER_SPACE
 70
     0
 10
0.0
 20
0.0
 30
0.0
  3
$PAPER_SPACE
  1

  0
ENDBLK
  5
111
 67
     1
  8
0
  0
ENDSEC
  0
SECTION
  2
ENTITIES
  0
LINE
  5
38
  8
1
 10
124.8185252493233
 20
128.3775292027193
 30
0.0
 11
88.818525249323358
 21
128.3775292027193
 31
0.0
  0
LINE
  5
39
  8
2
 10
110.1420252493233
 20
316.65838329336549
 30
0.0
 11
111.3420252493233
 21
315.4583832933655
 31
0.0
  0
LINE
  5
3A
  8
2
 10
103.49502524932331
 20
316.65838329336549
 30
0.0
 11
102.2950252493233
 21
315.4583832933655
 31
0.0
  0
LINE
  5
3B
  8
2
 10
103.49502524932331
 20
316.65838329336549
 30
0.0
 11
110.1420252493234
 21
316.65838329336549
 31
0.0
  0
LINE
  5
3C
  8
2
 10
110.1420252493234
 20
335.45838329336539
 30
0.0
 11
103.49502524932321
 21
335.45838329336539
 31
0.0
  0
LINE
  5
3D
  8
2
 10
110.8185252493233
 20
330.45838329336539
 30
0.0
 11
102.8185252493233
 21
330.45838329336539
 31
0.0
  0
LINE
  5
3E
  8
2
 10
110.1420252493235
 20
335.45838329336539
 30
0.0
 11
106.8185252493233
 21
337.45534356070362
 31
0.0
  0
LINE
  5
3F
  8
2
 10
103.49502524932311
 20
335.45838329336539
 30
0.0
 11
106.8185252493233
 21
337.45534356070362
 31
0.0
  0
LINE
  5
40
  8
2
 10
102.8185252493233
 20
315.9818832933654
 30
0.0
 11
102.8185252493233
 21
330.45838329336539
 31
0.0
  0
LINE
  5
41
  8
2
 10
103.49502524932321
 20
316.65838329336549
 30
0.0
 11
103.49502524932321
 21
335.45838329336539
 31
0.0
  0
LINE
  5
42
  8
2
 10
110.1420252493234
 20
316.65838329336549
 30
0.0
 11
110.1420252493234
 21
335.45838329336539
 31
0.0
  0
LINE
  5
43
  8
2
 10
110.8185252493233
 20
315.9818832933654
 30
0.0
 11
110.8185252493233
 21
330.45838329336539
 31
0.0
  0
LINE
  5
44
  8
1
 10
338.81852524932327
 20
128.3775292027193
 30
0.0
 11
374.81852524932327
 21
128.3775292027193
 31
0.0
  0
LINE
  5
45
  8
0
 10
134.8185252493233
 20
236.3775292027193
 30
0.0
 11
328.81852524932327
 21
236.3775292027193
 31
0.0
  0
LINE
  5
46
  8
0
 10
134.8185252493233
 20
220.3775292027193
 30
0.0
 11
328.81852524932327
 21
220.3775292027193
 31
0.0
  0
LINE
  5
47
  8
1
 10
134.8185252493233
 20
228.3775292027193
 30
0.0
 11
328.81852524932327
 21
228.3775292027193
 31
0.0
  0
LINE
  5
48
  8
0
 10
348.81852524932327
 20
203.06265086711011
 30
0.0
 11
348.81852524932327
 21
128.3775292027193
 31
0.0
  0
LINE
  5
49
  8
0
 10
364.81852524932327
 20
203.06265086711011
 30
0.0
 11
364.81852524932327
 21
128.3775292027193
 31
0.0
  0
LINE
  5
4A
  8
1
 10
356.81852524932327
 20
203.06265086711011
 30
0.0
 11
356.81852524932327
 21
110.3775292027193
 31
0.0
  0
LINE
  5
4B
  8
1
 10
521.73515793425963
 20
423.4583832933651
 30
0.0
 11
521.73515793425963
 21
387.45838329336522
 31
0.0
  0
LINE
  5
4C
  8
1
 10
539.73515793425963
 20
405.4583832933651
 30
0.0
 11
503.73515793425969
 21
405.4583832933651
 31
0.0
  0
ARC
  5
4D
  8
0
 10
593.73515793425963
 20
340.45838329336527
 30
0.0
 40
36.0
 50
0.0
 51
64.70271478649768
  0
ARC
  5
4E
  8
0
 10
593.73515793425963
 20
340.45838329336527
 30
0.0
 40
20.0
 50
0.0
 51
64.70271478649785
  0
ARC
  5
4F
  8
1
 10
593.73515793425963
 20
340.45838329336527
 30
0.0
 40
28.0
 50
0.0
 51
64.702714786497751
  0
LINE
  5
50
  8
0
 10
613.73515793425963
 20
340.45838329336527
 30
0.0
 11
613.73515793425963
 21
315.45838329336527
 31
0.0
  0
LINE
  5
51
  8
0
 10
629.73515793425963
 20
340.45838329336527
 30
0.0
 11
629.73515793425963
 21
315.45838329336527
 31
0.0
  0
LINE
  5
52
  8
0
 10
629.73515793425963
 20
315.45838329336527
 30
0.0
 11
613.73515793425963
 21
315.45838329336527
 31
0.0
  0
LINE
  5
53
  8
1
 10
621.73515793425963
 20
340.45838329336527
 30
0.0
 11
621.73515793425963
 21
305.45838329336527
 31
0.0
  0
LINE
  5
54
  8
0
 10
98.818525249323301
 20
315.4583832933655
 30
0.0
 11
114.8185252493233
 21
315.4583832933655
 31
0.0
  0
LINE
  5
55
  8
1
 10
328.81852524932327
 20
405.4583832933651
 30
0.0
 11
134.81852524932319
 21
405.4583832933651
 31
0.0
  0
LINE
  5
56
  8
0
 10
328.81852524932327
 20
397.45838329336539
 30
0.0
 11
134.8185252493233
 21
397.45838329336539
 31
0.0
  0
LINE
  5
57
  8
0
 10
328.81852524932327
 20
413.45838329336527
 30
0.0
 11
134.8185252493233
 21
413.45838329336527
 31
0.0
  0
LINE
  5
58
  8
0
 10
348.81852524932327
 20
392.478320646756
 30
0.0
 11
348.81852524932327
 21
315.4583832933655
 31
0.0
  0
LINE
  5
59
  8
0
 10
364.81852524932327
 20
393.49356257371801
 30
0.0
 11
364.81852524932327
 21
315.4583832933655
 31
0.0
  0
LINE
  5
5A
  8
0
 10
364.81852524932322
 20
315.4583832933655
 30
0.0
 11
348.81852524932327
 21
315.4583832933655
 31
0.0
  0
LINE
  5
5B
  8
1
 10
356.81852524932327
 20
393.49356257371801
 30
0.0
 11
356.81852524932327
 21
305.45838329336539
 31
0.0
  0
CIRCLE
  5
5C
  8
3
 10
106.8185252493233
 20
128.3775292027193
 30
0.0
 40
4.0
  0
CIRCLE
  5
5D
  8
0
 10
106.8185252493233
 20
128.3775292027193
 30
0.0
 40
3.3235000000000001
  0
CIRCLE
  5
5E
  8
3
 10
356.81852524932327
 20
128.3775292027193
 30
0.0
 40
4.0
  0
CIRCLE
  5
5F
  8
0
 10
356.81852524932327
 20
128.3775292027193
 30
0.0
 40
3.3235000000000001
  0
CIRCLE
  5
60
  8
0
 10
106.8185252493233
 20
128.3775292027193
 30
0.0
 40
7.9999999999999707
  0
CIRCLE
  5
61
  8
0
 10
356.81852524932327
 20
128.3775292027193
 30
0.0
 40
8.0
  0
LINE
  5
62
  8
0
 10
525.15367813987314
 20
412.69120567496782
 30
0.0
 11
609.1184988595204
 21
373.00608401057718
 31
0.0
  0
LINE
  5
63
  8
0
 10
518.31663772864613
 20
398.2255609117625
 30
0.0
 11
602.28145844829351
 21
358.54043924737192
 31
0.0
  0
LINE
  5
64
  8
1
 10
521.73515793425963
 20
405.4583832933651
 30
0.0
 11
605.69997865390701
 21
365.77326162897458
 31
0.0
  0
POLYLINE
  5
65
  8
1
 66
     1
 10
0.0
 20
0.0
 30
0.0
  0
VERTEX
  5
66
  8
1
 10
356.81852524932327
 20
393.49356257371801
 30
0.0
 42
0.1948696433651811
  0
VERTEX
  5
67
  8
1
 10
355.23440324341863
 20
397.40378237171137
 30
0.0
 42
0.0996114389156681
  0
VERTEX
  5
68
  8
1
 10
348.61751512254659
 20
401.9539684402618
 30
0.0
 42
0.0572234864624192
 70
     2
 50
156.862253391802
  0
VERTEX
  5
69
  8
1
 10
340.21169456833132
 20
404.45786548168661
 30
0.0
 42
0.0438243396755928
 50
156.862253391802
  0
VERTEX
  5
6A
  8
1
 10
328.81852524932327
 20
405.4583832933651
 30
0.0
 42
0.043824339675592
  0
SEQEND
  5
6B
  8
1
  0
POLYLINE
  5
6C
  8
0
 66
     1
 10
0.0
 20
0.0
 30
0.0
  0
VERTEX
  5
6D
  8
0
 10
364.81852524932327
 20
393.49356257371801
 30
0.0
 42
0.1948696433651801
  0
VERTEX
  5
6E
  8
0
 10
360.97863096303041
 20
402.9718922759107
 30
0.0
 42
0.0996114389156681
  0
VERTEX
  5
6F
  8
0
 10
351.76105922020588
 20
409.31047104041568
 30
0.0
 42
0.0572234864624188
 70
     2
 50
156.862253391802
  0
VERTEX
  5
70
  8
0
 10
341.60601912073128
 20
412.33541960987731
 30
0.0
 42
0.0438243396755937
 50
156.862253391802
  0
VERTEX
  5
71
  8
0
 10
328.81852524932327
 20
413.4583832933651
 30
0.0
 42
0.0438243396755937
 50
156.862253391802
  0
SEQEND
  5
72
  8
0
  0
POLYLINE
  5
73
  8
0
 66
     1
 10
0.0
 20
0.0
 30
0.0
  0
VERTEX
  5
74
  8
0
 10
349.49017552380678
 20
391.83567246751198
 30
0.0
 42
0.0996114389156677
  0
VERTEX
  5
75
  8
0
 10
345.47397102488731
 20
394.59746584010787
 30
0.0
 42
0.057223486462419
 70
     2
 50
156.862253391802
  0
VERTEX
  5
76
  8
0
 10
338.81737001593109
 20
396.58031135349597
 30
0.0
 42
0.0438243396755933
 50
156.862253391802
  0
VERTEX
  5
77
  8
0
 10
328.81852524932327
 20
397.45838329336522
 30
0.0
 42
0.0438243396755933
 50
156.862253391802
  0
SEQEND
  5
78
  8
0
  0
POLYLINE
  5
79
  8
0
 66
     1
 10
0.0
 20
0.0
 30
0.0
  0
VERTEX
  5
7A
  8
0
 10
114.1468749748398
 20
391.83567246751198
 30
0.0
 42
-0.0996114389156677
  0
VERTEX
  5
7B
  8
0
 10
118.1630794737593
 20
394.59746584010787
 30
0.0
 42
-0.057223486462419
 70
     2
 50
23.137746608198011
  0
VERTEX
  5
7C
  8
0
 10
124.8196804827154
 20
396.58031135349597
 30
0.0
 42
-0.0438243396755933
  0
VERTEX
  5
7D
  8
0
 10
134.8185252493233
 20
397.45838329336522
 30
0.0
 42
-0.0438243396755933
  0
SEQEND
  5
7E
  8
0
  0
POLYLINE
  5
7F
  8
0
 66
     1
 10
0.0
 20
0.0
 30
0.0
  0
VERTEX
  5
80
  8
0
 10
98.818525249323301
 20
393.49356257371801
 30
0.0
 42
-0.1948696433651801
  0
VERTEX
  5
81
  8
0
 10
102.6584195356162
 20
402.9718922759107
 30
0.0
 42
-0.0996114389156681
  0
VERTEX
  5
82
  8
0
 10
111.87599127844069
 20
409.31047104041568
 30
0.0
 42
-0.0572234864624188
 70
     2
 50
23.137746608198011
  0
VERTEX
  5
83
  8
0
 10
122.0310313779153
 20
412.33541960987731
 30
0.0
 42
-0.0438243396755937
  0
VERTEX
  5
84
  8
0
 10
134.8185252493233
 20
413.4583832933651
 30
0.0
 42
-0.0438243396755937
  0
SEQEND
  5
85
  8
0
  0
POLYLINE
  5
86
  8
1
 66
     1
 10
0.0
 20
0.0
 30
0.0
  0
VERTEX
  5
87
  8
1
 10
106.8185252493233
 20
393.49356257371801
 30
0.0
 42
-0.1948696433651811
  0
VERTEX
  5
88
  8
1
 10
108.402647255228
 20
397.40378237171137
 30
0.0
 42
-0.0996114389156681
  0
VERTEX
  5
89
  8
1
 10
115.0195353761
 20
401.9539684402618
 30
0.0
 42
-0.0572234864624192
 70
     2
 50
23.137746608198011
  0
VERTEX
  5
8A
  8
1
 10
123.42535593031531
 20
404.45786548168661
 30
0.0
 42
-0.0438243396755928
  0
VERTEX
  5
8B
  8
1
 10
134.8185252493233
 20
405.4583832933651
 30
0.0
 42
-0.043824339675592
  0
SEQEND
  5
8C
  8
1
  0
LINE
  5
8D
  8
1
 10
106.8185252493233
 20
393.49356257371801
 30
0.0
 11
106.8185252493233
 21
305.45838329336539
 31
0.0
  0
LINE
  5
8E
  8
0
 10
98.818525249323301
 20
393.49356257371801
 30
0.0
 11
98.818525249323301
 21
315.4583832933655
 31
0.0
  0
LINE
  5
8F
  8
0
 10
114.8185252493233
 20
392.478320646756
 30
0.0
 11
114.8185252493233
 21
315.4583832933655
 31
0.0
  0
POLYLINE
  5
90
  8
0
 66
     1
 10
0.0
 20
0.0
 30
0.0
  0
VERTEX
  5
91
  8
0
 10
348.81852524932327
 20
203.06265086711011
 30
0.0
 42
0.1120296693565054
  0
VERTEX
  5
92
  8
0
 10
347.34401779338708
 20
209.5609358392617
 30
0.0
 42
0.1031067825463422
  0
VERTEX
  5
93
  8
0
 10
342.96066087305428
 20
215.3061187536394
 30
0.0
 42
0.0925744312493521
 70
     2
 50
139.11582264465261
  0
VERTEX
  5
94
  8
0
 10
336.59856463678852
 20
219.02473309271821
 30
0.0
 42
0.0862927885591246
 50
139.11582264465261
  0
VERTEX
  5
95
  8
0
 10
328.81852524932327
 20
220.3775292027193
 30
0.0
 42
0.0862927885591257
  0
SEQEND
  5
96
  8
0
  0
POLYLINE
  5
97
  8
1
 66
     1
 10
0.0
 20
0.0
 30
0.0
  0
VERTEX
  5
98
  8
1
 10
356.81852524932327
 20
203.06265086711011
 30
0.0
 42
0.1078173181626425
  0
VERTEX
  5
99
  8
1
 10
354.73287356922702
 20
212.62237143302809
 30
0.0
 42
0.1018776304909065
  0
VERTEX
  5
9A
  8
1
 10
348.61751512254659
 20
220.96297300313179
 30
0.0
 42
0.0944675962638547
 70
     2
 50
137.88317755700109
  0
VERTEX
  5
9B
  8
1
 10
339.66048051735959
 20
226.41400358802699
 30
0.0
 42
0.0898216230910253
 50
137.88317755700109
  0
VERTEX
  5
9C
  8
1
 10
328.81852524932327
 20
228.3775292027193
 30
0.0
 42
0.0898216230910266
  0
SEQEND
  5
9D
  8
1
  0
POLYLINE
  5
9E
  8
0
 66
     1
 10
0.0
 20
0.0
 30
0.0
  0
VERTEX
  5
9F
  8
0
 10
364.81852524932327
 20
203.06265086711011
 30
0.0
 42
0.1056037157293259
  0
VERTEX
  5
A0
  8
0
 10
362.12276818476317
 20
215.68386202945231
 30
0.0
 42
0.101158404204798
  0
VERTEX
  5
A1
  8
0
 10
354.27436937203902
 20
226.61982725262419
 30
0.0
 42
0.0954471997018195
 70
     2
 50
137.21841624964489
  0
VERTEX
  5
A2
  8
0
 10
342.72215936620512
 20
233.80406088452401
 30
0.0
 42
0.0917672506530544
 50
137.21841624964489
  0
VERTEX
  5
A3
  8
0
 10
328.81852524932327
 20
236.3775292027193
 30
0.0
 42
0.0917672506530519
  0
SEQEND
  5
A4
  8
0
  0
POLYLINE
  5
A5
  8
0
 66
     1
 10
0.0
 20
0.0
 30
0.0
  0
VERTEX
  5
A6
  8
0
 10
98.818525249323358
 20
203.06265086711011
 30
0.0
 42
-0.1056037157293259
  0
VERTEX
  5
A7
  8
0
 10
101.5142823138834
 20
215.68386202945231
 30
0.0
 42
-0.101158404204798
  0
VERTEX
  5
A8
  8
0
 10
109.3626811266076
 20
226.61982725262419
 30
0.0
 42
-0.0954471997018195
 70
     2
 50
42.781583750355047
  0
VERTEX
  5
A9
  8
0
 10
120.9148911324415
 20
233.80406088452401
 30
0.0
 42
-0.0917672506530544
  0
VERTEX
  5
AA
  8
0
 10
134.8185252493233
 20
236.3775292027193
 30
0.0
 42
-0.0917672506530519
  0
SEQEND
  5
AB
  8
0
  0
POLYLINE
  5
AC
  8
1
 66
     1
 10
0.0
 20
0.0
 30
0.0
  0
VERTEX
  5
AD
  8
1
 10
106.8185252493233
 20
203.06265086711011
 30
0.0
 42
-0.1078173181626425
  0
VERTEX
  5
AE
  8
1
 10
108.90417692941971
 20
212.62237143302809
 30
0.0
 42
-0.1018776304909065
  0
VERTEX
  5
AF
  8
1
 10
115.0195353761
 20
220.96297300313179
 30
0.0
 42
-0.0944675962638547
 70
     2
 50
42.116822442998917
  0
VERTEX
  5
B0
  8
1
 10
123.9765699812871
 20
226.41400358802699
 30
0.0
 42
-0.0898216230910253
  0
VERTEX
  5
B1
  8
1
 10
134.8185252493233
 20
228.3775292027193
 30
0.0
 42
-0.0898216230910266
  0
SEQEND
  5
B2
  8
1
  0
POLYLINE
  5
B3
  8
0
 66
     1
 10
0.0
 20
0.0
 30
0.0
  0
VERTEX
  5
B4
  8
0
 10
114.8185252493233
 20
203.06265086711011
 30
0.0
 42
-0.1120296693565054
  0
VERTEX
  5
B5
  8
0
 10
116.29303270525951
 20
209.5609358392617
 30
0.0
 42
-0.1031067825463422
  0
VERTEX
  5
B6
  8
0
 10
120.67638962559241
 20
215.3061187536394
 30
0.0
 42
-0.0925744312493521
 70
     2
 50
40.88417735534739
  0
VERTEX
  5
B7
  8
0
 10
127.03848586185811
 20
219.02473309271821
 30
0.0
 42
-0.0862927885591246
  0
VERTEX
  5
B8
  8
0
 10
134.8185252493233
 20
220.3775292027193
 30
0.0
 42
-0.0862927885591257
  0
SEQEND
  5
B9
  8
0
  0
LINE
  5
BA
  8
1
 10
106.8185252493233
 20
203.06265086711011
 30
0.0
 11
106.8185252493233
 21
110.3775292027193
 31
0.0
  0
LINE
  5
BB
  8
0
 10
98.818525249323358
 20
203.06265086711011
 30
0.0
 11
98.818525249323358
 21
128.3775292027193
 31
0.0
  0
LINE
  5
BC
  8
0
 10
114.8185252493233
 20
203.06265086711011
 30
0.0
 11
114.8185252493233
 21
128.3775292027193
 31
0.0
  0
ARC
  5
BD
  8
0
 10
521.73515793425963
 20
405.4583832933651
 30
0.0
 40
8.0
 50
64.702714786497609
 51
244.70271478649761
  0
ARC
  5
BE
  8
2
 10
521.73515793425963
 20
405.4583832933651
 30
0.0
 40
8.0000000000000107
 50
244.70271478649761
 51
64.702714786497609
  0
LINE
  5
C7
  8
2
 10
360.81852524932327
 20
315.9818832933654
 30
0.0
 11
360.81852524932327
 21
330.45838329336539
 31
0.0
  0
LINE
  5
C8
  8
2
 10
360.14202524932341
 20
316.65838329336549
 30
0.0
 11
360.14202524932341
 21
335.45838329336539
 31
0.0
  0
LINE
  5
C9
  8
2
 10
353.49502524932319
 20
316.65838329336549
 30
0.0
 11
353.49502524932319
 21
335.45838329336539
 31
0.0
  0
LINE
  5
CA
  8
2
 10
352.81852524932339
 20
315.9818832933654
 30
0.0
 11
352.81852524932339
 21
330.45838329336539
 31
0.0
  0
LINE
  5
CB
  8
2
 10
353.49502524932308
 20
335.45838329336539
 30
0.0
 11
356.81852524932327
 21
337.45534356070362
 31
0.0
  0
LINE
  5
CC
  8
2
 10
360.14202524932352
 20
335.45838329336539
 30
0.0
 11
356.81852524932327
 21
337.45534356070362
 31
0.0
  0
LINE
  5
CD
  8
2
 10
360.81852524932327
 20
330.45838329336539
 30
0.0
 11
352.81852524932339
 21
330.45838329336539
 31
0.0
  0
LINE
  5
CE
  8
2
 10
360.14202524932341
 20
335.45838329336539
 30
0.0
 11
353.49502524932319
 21
335.45838329336539
 31
0.0
  0
LINE
  5
CF
  8
2
 10
353.49502524932331
 20
316.65838329336549
 30
0.0
 11
360.14202524932341
 21
316.65838329336549
 31
0.0
  0
LINE
  5
D0
  8
2
 10
353.49502524932331
 20
316.65838329336549
 30
0.0
 11
352.29502524932332
 21
315.4583832933655
 31
0.0
  0
LINE
  5
D1
  8
2
 10
360.1420252493233
 20
316.65838329336549
 30
0.0
 11
361.34202524932329
 21
315.4583832933655
 31
0.0
  0
LINE
  5
D2
  8
2
 10
625.0586579342596
 20
316.65838329336549
 30
0.0
 11
626.25865793425965
 21
315.4583832933655
 31
0.0
  0
LINE
  5
D3
  8
2
 10
618.41165793425955
 20
316.65838329336549
 30
0.0
 11
617.21165793425962
 21
315.4583832933655
 31
0.0
  0
LINE
  5
D4
  8
2
 10
618.41165793425955
 20
316.65838329336549
 30
0.0
 11
625.05865793425971
 21
316.65838329336549
 31
0.0
  0
LINE
  5
D5
  8
2
 10
625.05865793425971
 20
335.45838329336539
 30
0.0
 11
618.41165793425955
 21
335.45838329336539
 31
0.0
  0
LINE
  5
D6
  8
2
 10
625.73515793425963
 20
330.45838329336539
 30
0.0
 11
617.73515793425963
 21
330.45838329336539
 31
0.0
  0
LINE
  5
D7
  8
2
 10
625.05865793425983
 20
335.45838329336539
 30
0.0
 11
621.73515793425963
 21
337.45534356070362
 31
0.0
  0
LINE
  5
D8
  8
2
 10
618.41165793425944
 20
335.45838329336539
 30
0.0
 11
621.73515793425963
 21
337.45534356070362
 31
0.0
  0
LINE
  5
D9
  8
2
 10
617.73515793425963
 20
315.9818832933654
 30
0.0
 11
617.73515793425963
 21
330.45838329336539
 31
0.0
  0
LINE
  5
DA
  8
2
 10
618.41165793425955
 20
316.65838329336549
 30
0.0
 11
618.41165793425955
 21
335.45838329336539
 31
0.0
  0
LINE
  5
DB
  8
2
 10
625.05865793425971
 20
316.65838329336549
 30
0.0
 11
625.05865793425971
 21
335.45838329336539
 31
0.0
  0
LINE
  5
DC
  8
2
 10
625.73515793425963
 20
315.9818832933654
 30
0.0
 11
625.73515793425963
 21
330.45838329336539
 31
0.0
  0
TEXT
  5
205
  8
0
 62
     3
 10
0.0
 20
0.0
 30
0.0
 40
10.0
  1
CPH250
  7
STANDARD1
  0
ENDSEC
  0
EOF
