  0
SECTION
  2
HEADER
  9
$ACADVER
  1
AC1009
  9
$INSBASE
 10
0.0
 20
0.0
 30
0.0
  9
$EXTMIN
 10
0.0
 20
-2.960436562073669
 30
0.0
  9
$EXTMAX
 10
341.37507552870102
 20
220.0
 30
0.0
  9
$LIMMIN
 10
0.0
 20
0.0
  9
$LIMMAX
 10
375.0
 20
270.0
  9
$ORTHOMODE
 70
     1
  9
$REGENMODE
 70
     1
  9
$FILLMODE
 70
     1
  9
$QTEXTMODE
 70
     0
  9
$MIRRTEXT
 70
     0
  9
$DRAGMODE
 70
     2
  9
$LTSCALE
 40
10.0
  9
$OSMODE
 70
  3071
  9
$ATTMODE
 70
     1
  9
$TEXTSIZE
 40
5.0
  9
$TRACEWID
 40
0.05
  9
$TEXTSTYLE
  7
STANDARD
  9
$CLAYER
  8
0
  9
$CELTYPE
  6
BYLAYER
  9
$CECOLOR
 62
   256
  9
$DIMSCALE
 40
1.0
  9
$DIMASZ
 40
3.0
  9
$DIMEXO
 40
2.0
  9
$DIMDLI
 40
0.3799999999999999
  9
$DIMRND
 40
0.0
  9
$DIMDLE
 40
0.0
  9
$DIMEXE
 40
2.0
  9
$DIMTP
 40
0.0
  9
$DIMTM
 40
0.0
  9
$DIMTXT
 40
3.2000000000000002
  9
$DIMCEN
 40
0.0
  9
$DIMTSZ
 40
0.0
  9
$DIMTOL
 70
     0
  9
$DIMLIM
 70
     0
  9
$DIMTIH
 70
     0
  9
$DIMTOH
 70
     0
  9
$DIMSE1
 70
     0
  9
$DIMSE2
 70
     0
  9
$DIMTAD
 70
     1
  9
$DIMZIN
 70
     0
  9
$DIMBLK
  1

  9
$DIMASO
 70
     0
  9
$DIMSHO
 70
     0
  9
$DIMPOST
  1

  9
$DIMAPOST
  1

  9
$DIMALT
 70
     0
  9
$DIMALTD
 70
     2
  9
$DIMALTF
 40
25.399999999999999
  9
$DIMLFAC
 40
1.0
  9
$DIMTOFL
 70
     1
  9
$DIMTVP
 40
0.0
  9
$DIMTIX
 70
     1
  9
$DIMSOXD
 70
     0
  9
$DIMSAH
 70
     0
  9
$DIMBLK1
  1

  9
$DIMBLK2
  1

  9
$DIMSTYLE
  2
STANDARD
  9
$DIMCLRD
 70
     0
  9
$DIMCLRE
 70
     0
  9
$DIMCLRT
 70
     0
  9
$DIMTFAC
 40
1.0
  9
$DIMGAP
 40
0.09
  9
$LUNITS
 70
     2
  9
$LUPREC
 70
     4
  9
$SKETCHINC
 40
0.1
  9
$FILLETRAD
 40
0.0
  9
$AUNITS
 70
     0
  9
$AUPREC
 70
     0
  9
$MENU
  1
E:\r13\win\SUPPORT\ACAD
  9
$ELEVATION
 40
0.0
  9
$PELEVATION
 40
0.0
  9
$THICKNESS
 40
0.0
  9
$LIMCHECK
 70
     0
  9
$BLIPMODE
 70
     0
  9
$CHAMFERA
 40
0.0
  9
$CHAMFERB
 40
0.0
  9
$SKPOLY
 70
     0
  9
$TDCREATE
 40
2449840.6484375
  9
$TDUPDATE
 40
2456598.4999489472
  9
$TDINDWG
 40
0.0001050579
  9
$TDUSRTIMER
 40
0.0001050579
  9
$USRTIMER
 70
     1
  9
$ANGBASE
 50
0.0
  9
$ANGDIR
 70
     0
  9
$PDMODE
 70
     0
  9
$PDSIZE
 40
0.0
  9
$PLINEWID
 40
0.0
  9
$COORDS
 70
     1
  9
$SPLFRAME
 70
     0
  9
$SPLINETYPE
 70
     6
  9
$SPLINESEGS
 70
     8
  9
$ATTDIA
 70
     0
  9
$ATTREQ
 70
     1
  9
$HANDLING
 70
     1
  9
$HANDSEED
  5
262
  9
$SURFTAB1
 70
     6
  9
$SURFTAB2
 70
     6
  9
$SURFTYPE
 70
     6
  9
$SURFU
 70
     6
  9
$SURFV
 70
     6
  9
$UCSNAME
  2

  9
$UCSORG
 10
0.0
 20
0.0
 30
0.0
  9
$UCSXDIR
 10
1.0
 20
0.0
 30
0.0
  9
$UCSYDIR
 10
0.0
 20
1.0
 30
0.0
  9
$PUCSNAME
  2

  9
$PUCSORG
 10
0.0
 20
0.0
 30
0.0
  9
$PUCSXDIR
 10
1.0
 20
0.0
 30
0.0
  9
$PUCSYDIR
 10
0.0
 20
1.0
 30
0.0
  9
$USERI1
 70
     0
  9
$USERI2
 70
     1
  9
$USERI3
 70
     0
  9
$USERI4
 70
     0
  9
$USERI5
 70
     0
  9
$USERR1
 40
0.0
  9
$USERR2
 40
0.0
  9
$USERR3
 40
0.0
  9
$USERR4
 40
0.0
  9
$USERR5
 40
0.0
  9
$WORLDVIEW
 70
     1
  9
$SHADEDGE
 70
     3
  9
$SHADEDIF
 70
    70
  9
$TILEMODE
 70
     1
  9
$MAXACTVP
 70
    16
  9
$PLIMCHECK
 70
     0
  9
$PEXTMIN
 10
1.0000000000000000E+020
 20
1.0000000000000000E+020
 30
1.0000000000000000E+020
  9
$PEXTMAX
 10
-1.0000000000000000E+020
 20
-1.0000000000000000E+020
 30
-1.0000000000000000E+020
  9
$PLIMMIN
 10
0.0
 20
0.0
  9
$PLIMMAX
 10
12.0
 20
9.0
  9
$UNITMODE
 70
     0
  9
$VISRETAIN
 70
     0
  9
$PLINEGEN
 70
     0
  9
$PSLTSCALE
 70
     0
  0
ENDSEC
  0
SECTION
  2
TABLES
  0
TABLE
  2
VPORT
 70
     1
  0
VPORT
  2
*ACTIVE
 70
     0
 10
0.0
 20
0.0
 11
1.0
 21
1.0
 12
195.0581083320873
 22
133.5127261426681
 13
0.0
 23
0.0
 14
10.0
 24
10.0
 15
10.0
 25
10.0
 16
0.0
 26
0.0
 36
1.0
 17
0.0
 27
0.0
 37
0.0
 40
275.42274993631997
 41
1.831871345029239
 42
50.0
 43
0.0
 44
0.0
 50
0.0
 51
0.0
 71
     0
 72
   100
 73
     1
 74
     0
 75
     0
 76
     0
 77
     0
 78
     0
  0
ENDTAB
  0
TABLE
  2
LTYPE
 70
     3
  0
LTYPE
  2
CONTINUOUS
 70
     0
  3
Solid Line
 72
    65
 73
     0
 40
0.0
  0
LTYPE
  2
CENTER
 70
     0
  3
____ _ ____ _ ____ _ ____ _ ____ _ ____ _ ____
 72
    65
 73
     4
 40
2.0
 49
1.25
 49
-0.25
 49
0.25
 49
-0.25
  0
LTYPE
  2
PHANTOM2
 70
     0
  3
___ _ _ ___ _ _ ___ _ _ ___ _ _
 72
    65
 73
     6
 40
1.25
 49
0.625
 49
-0.125
 49
0.125
 49
-0.125
 49
0.125
 49
-0.125
  0
ENDTAB
  0
TABLE
  2
LAYER
 70
     3
  0
LAYER
  2
0
 70
     0
 62
     7
  6
CONTINUOUS
  0
LAYER
  2
1
 70
     0
 62
     1
  6
CENTER
  0
LAYER
  2
3
 70
     0
 62
     3
  6
CONTINUOUS
  0
ENDTAB
  0
TABLE
  2
STYLE
 70
     2
  0
STYLE
  2
STANDARD
 70
     0
 40
0.0
 41
1.0
 50
0.0
 71
     0
 42
5.0
  3
TXT
  4
BIGFONT
  0
STYLE
  2
STANDARD1
 70
     0
 40
0.0
 41
1.0
 50
0.0
 71
     0
 42
3.0
  3
txt
  4

  0
ENDTAB
  0
TABLE
  2
VIEW
 70
     1
  0
VIEW
  2
ALL
 70
     0
 40
270.0
 10
220.99159663865549
 20
135.0
 41
0.0
 11
0.0
 21
0.0
 31
1.0
 12
0.0
 22
0.0
 32
0.0
 42
0.0
 43
0.0
 44
0.0
 50
0.0
 71
     0
  0
ENDTAB
  0
TABLE
  2
UCS
 70
     0
  0
ENDTAB
  0
TABLE
  2
APPID
 70
     3
  0
APPID
  2
ACAD
 70
     0
  0
APPID
  2
ACAD_MLEADERVER
 70
     0
  0
APPID
  2
ACAD_NAV_VCDISPLAY
 70
     0
  0
ENDTAB
  0
TABLE
  2
DIMSTYLE
 70
     1
  0
DIMSTYLE
  2
STANDARD
 70
     0
  3

  4

  5

  6

  7

 40
1.0
 41
0.18
 42
0.0625
 43
0.38
 44
0.18
 45
0.0
 46
0.0
 47
0.0
 48
0.0
140
0.18
141
0.09
142
0.0
143
25.399999999999999
144
1.0
145
0.0
146
1.0
147
0.09
 71
     0
 72
     0
 73
     1
 74
     1
 75
     0
 76
     0
 77
     0
 78
     0
170
     0
171
     2
172
     0
173
     0
174
     0
175
     0
176
     0
177
     0
178
     0
  0
ENDTAB
  0
ENDSEC
  0
SECTION
  2
BLOCKS
  0
BLOCK
  8
0
  2
$MODEL_SPACE
 70
     0
 10
0.0
 20
0.0
 30
0.0
  3
$MODEL_SPACE
  1

  0
ENDBLK
  5
118
  8
0
  0
BLOCK
 67
     1
  8
0
  2
$PAPER_SPACE
 70
     0
 10
0.0
 20
0.0
 30
0.0
  3
$PAPER_SPACE
  1

  0
ENDBLK
  5
116
 67
     1
  8
0
  0
ENDSEC
  0
SECTION
  2
ENTITIES
  0
LINE
  5
34
  8
0
 10
151.27507552870091
 20
120.0
 30
0.0
 11
151.27507552870091
 21
122.59999999999989
 31
0.0
  0
LINE
  5
35
  8
0
 10
131.3750755287009
 20
94.0
 30
0.0
 11
331.3750755287009
 21
94.0
 31
0.0
  0
LINE
  5
36
  8
0
 10
131.3750755287009
 20
85.0
 30
0.0
 11
331.3750755287009
 21
85.0
 31
0.0
  0
LINE
  5
37
  8
0
 10
131.3750755287009
 20
86.0
 30
0.0
 11
331.3750755287009
 21
86.0
 31
0.0
  0
LINE
  5
38
  8
0
 10
331.3750755287009
 20
120.0
 30
0.0
 11
131.3750755287009
 21
120.0
 31
0.0
  0
LINE
  5
39
  8
0
 10
131.3750755287009
 20
80.0
 30
0.0
 11
331.3750755287009
 21
80.0
 31
0.0
  0
LINE
  5
3A
  8
0
 10
131.3750755287009
 20
120.0
 30
0.0
 11
131.3750755287009
 21
80.0
 31
0.0
  0
LINE
  5
3B
  8
1
 10
121.3750755287009
 20
100.0
 30
0.0
 11
341.37507552870102
 21
100.0
 31
0.0
  0
LINE
  5
3C
  8
1
 10
156.27507552870091
 20
130.0
 30
0.0
 11
156.27507552870091
 21
97.0
 31
0.0
  0
LINE
  5
3D
  8
0
 10
161.27507552870091
 20
122.59999999999989
 30
0.0
 11
151.27507552870091
 21
122.59999999999989
 31
0.0
  0
LINE
  5
3E
  8
0
 10
151.27507552870091
 20
122.59999999999989
 30
0.0
 11
151.96789585172851
 21
123.0
 31
0.0
  0
LINE
  5
3F
  8
0
 10
161.27507552870091
 20
122.59999999999989
 30
0.0
 11
160.58225520567339
 21
122.9999999999999
 31
0.0
  0
LINE
  5
40
  8
0
 10
160.58225520567339
 20
123.0
 30
0.0
 11
151.96789585172851
 21
123.0
 31
0.0
  0
LINE
  5
41
  8
0
 10
161.27507552870091
 20
122.59999999999989
 30
0.0
 11
161.27507552870091
 21
120.0
 31
0.0
  0
LINE
  5
42
  8
0
 10
131.3750755287009
 20
195.99999999999989
 30
0.0
 11
331.3750755287009
 21
195.99999999999989
 31
0.0
  0
LINE
  5
43
  8
0
 10
131.3750755287009
 20
204.0
 30
0.0
 11
331.3750755287009
 21
204.0
 31
0.0
  0
LINE
  5
44
  8
0
 10
131.3750755287009
 20
220.0
 30
0.0
 11
131.3750755287009
 21
180.0
 31
0.0
  0
LINE
  5
45
  8
0
 10
131.3750755287009
 20
180.0
 30
0.0
 11
331.3750755287009
 21
180.0
 31
0.0
  0
LINE
  5
46
  8
0
 10
331.3750755287009
 20
220.0
 30
0.0
 11
131.3750755287009
 21
220.0
 31
0.0
  0
LINE
  5
47
  8
1
 10
121.3750755287009
 20
200.0
 30
0.0
 11
341.3750755287009
 21
200.0
 31
0.0
  0
LINE
  5
48
  8
1
 10
156.3750755287009
 20
196.90000000000001
 30
0.0
 11
156.3750755287009
 21
181.89999999999989
 31
0.0
  0
LINE
  5
49
  8
1
 10
163.8750755287009
 20
189.40000000000001
 30
0.0
 11
148.8750755287009
 21
189.40000000000001
 31
0.0
  0
CIRCLE
  5
4A
  8
0
 10
156.3750755287009
 20
189.40000000000001
 30
0.0
 40
5.0
  0
LINE
  5
4B
  8
0
 10
159.32507552870209
 20
189.40000000000001
 30
0.0
 11
157.85007552870201
 21
191.954774941164
 31
0.0
  0
LINE
  5
4C
  8
0
 10
157.8500755287015
 20
191.954774941165
 30
0.0
 11
154.90007552870151
 21
191.954774941165
 31
0.0
  0
LINE
  5
4D
  8
0
 10
154.90007552870031
 20
191.954774941165
 30
0.0
 11
153.42507552870029
 21
189.40000000000089
 31
0.0
  0
LINE
  5
4E
  8
0
 10
153.42507552869981
 20
189.40000000000001
 30
0.0
 11
154.9000755286998
 21
186.84522505883589
 31
0.0
  0
LINE
  5
4F
  8
0
 10
154.90007552870031
 20
186.8452250588349
 30
0.0
 11
157.8500755287003
 21
186.8452250588349
 31
0.0
  0
LINE
  5
50
  8
0
 10
157.8500755287015
 20
186.8452250588349
 30
0.0
 11
159.32507552870149
 21
189.39999999999901
 31
0.0
  0
LINE
  5
51
  8
0
 10
307.8500755287015
 20
186.8452250588349
 30
0.0
 11
309.32507552870152
 21
189.39999999999901
 31
0.0
  0
LINE
  5
52
  8
0
 10
304.90007552870043
 20
186.8452250588349
 30
0.0
 11
307.85007552870042
 21
186.8452250588349
 31
0.0
  0
LINE
  5
53
  8
0
 10
303.42507552869978
 20
189.40000000000001
 30
0.0
 11
304.9000755286998
 21
186.84522505883589
 31
0.0
  0
LINE
  5
54
  8
0
 10
304.90007552870043
 20
191.954774941165
 30
0.0
 11
303.4250755287004
 21
189.40000000000089
 31
0.0
  0
LINE
  5
55
  8
0
 10
307.8500755287015
 20
191.954774941165
 30
0.0
 11
304.90007552870151
 21
191.954774941165
 31
0.0
  0
LINE
  5
56
  8
0
 10
309.32507552870209
 20
189.40000000000001
 30
0.0
 11
307.85007552870201
 21
191.954774941164
 31
0.0
  0
CIRCLE
  5
57
  8
0
 10
306.37507552870102
 20
189.40000000000001
 30
0.0
 40
5.0
  0
LINE
  5
58
  8
1
 10
306.37507552870102
 20
196.90000000000001
 30
0.0
 11
306.37507552870102
 21
181.89999999999989
 31
0.0
  0
LINE
  5
59
  8
0
 10
331.3750755287009
 20
180.0
 30
0.0
 11
331.3750755287009
 21
220.0
 31
0.0
  0
LINE
  5
5A
  8
0
 10
301.27507552870088
 20
120.0
 30
0.0
 11
301.27507552870088
 21
122.59999999999989
 31
0.0
  0
LINE
  5
5B
  8
0
 10
331.3750755287009
 20
80.0
 30
0.0
 11
331.3750755287009
 21
120.0
 31
0.0
  0
LINE
  5
5C
  8
1
 10
306.27507552870088
 20
130.0
 30
0.0
 11
306.27507552870088
 21
97.0
 31
0.0
  0
LINE
  5
5D
  8
0
 10
311.27507552870088
 20
122.59999999999989
 30
0.0
 11
301.27507552870088
 21
122.59999999999989
 31
0.0
  0
LINE
  5
5E
  8
0
 10
301.27507552870088
 20
122.59999999999989
 30
0.0
 11
301.96789585172849
 21
123.0
 31
0.0
  0
LINE
  5
5F
  8
0
 10
311.27507552870088
 20
122.59999999999989
 30
0.0
 11
310.58225520567339
 21
122.9999999999999
 31
0.0
  0
LINE
  5
60
  8
0
 10
310.58225520567339
 20
123.0
 30
0.0
 11
301.96789585172849
 21
123.0
 31
0.0
  0
LINE
  5
61
  8
0
 10
311.27507552870088
 20
122.59999999999989
 30
0.0
 11
311.27507552870088
 21
120.0
 31
0.0
  0
LINE
  5
62
  8
1
 10
313.87507552870102
 20
189.40000000000001
 30
0.0
 11
298.87507552870102
 21
189.40000000000001
 31
0.0
  0
LINE
  5
6C
  8
0
 10
56.952754449739551
 20
93.106854249492443
 30
0.0
 11
55.310366294314441
 21
91.464466094067319
 31
0.0
  0
ARC
  5
6D
  8
0
 10
53.417220543806849
 20
96.642388155425209
 30
0.0
 40
5.0
 50
314.99999999999989
 51
0.0000000000000368
  0
ARC
  5
6E
  8
0
 10
51.774832388381668
 20
95.000000000000085
 30
0.0
 40
5.0
 50
270.00000000000398
 51
314.99999999999989
  0
LINE
  5
6F
  8
0
 10
50.46722054380669
 20
89.999999999999986
 30
0.0
 11
51.774832388382009
 21
90.000000000000085
 31
0.0
  0
ARC
  5
70
  8
0
 10
50.46722054380669
 20
92.499999999999986
 30
0.0
 40
2.5
 50
180.0
 51
270.0
  0
LINE
  5
71
  8
0
 10
47.967220543806683
 20
92.999999999999972
 30
0.0
 11
47.967220543806683
 21
92.499999999999986
 31
0.0
  0
LINE
  5
72
  8
0
 10
47.467220543806683
 20
95.999999999999972
 30
0.0
 11
49.46722054380669
 21
95.999999999999972
 31
0.0
  0
LINE
  5
73
  8
0
 10
50.46722054380669
 20
94.999999999999986
 30
0.0
 11
50.46722054380669
 21
93.499999999999972
 31
0.0
  0
LINE
  5
74
  8
0
 10
49.967220543806683
 20
92.999999999999972
 30
0.0
 11
47.967220543806683
 21
92.999999999999972
 31
0.0
  0
LINE
  5
75
  8
0
 10
47.467220543806683
 20
95.999999999999972
 30
0.0
 11
47.465820557139999
 21
95.999999999999972
 31
0.0
  0
ARC
  5
76
  8
0
 10
47.467220543806683
 20
94.499999999999972
 30
0.0
 40
1.5
 50
90.0
 51
180.0
  0
ARC
  5
77
  8
0
 10
49.46722054380669
 20
94.999999999999986
 30
0.0
 40
1.0
 50
360.0
 51
89.999999999999687
  0
ARC
  5
78
  8
0
 10
49.967220543806683
 20
93.499999999999972
 30
0.0
 40
0.5
 50
270.0
 51
360.0
  0
LINE
  5
79
  8
0
 10
58.417220543806849
 20
103.35761184457471
 30
0.0
 11
58.417220543806849
 21
96.642388155425209
 31
0.0
  0
ARC
  5
7A
  8
0
 10
53.417220543806849
 20
103.35761184457471
 30
0.0
 40
5.0
 50
360.0
 51
45.000000000000192
  0
ARC
  5
7B
  8
0
 10
69.324832388381452
 20
112.5499999999999
 30
0.0
 40
5.0
 50
270.0
 51
315.00000000000023
  0
ARC
  5
7C
  8
0
 10
62.60960869923192
 20
112.5499999999999
 30
0.0
 40
5.0
 50
224.99999999999989
 51
270.00000000000011
  0
LINE
  5
7D
  8
0
 10
69.324832388381452
 20
107.5499999999999
 30
0.0
 11
62.60960869923192
 21
107.5499999999999
 31
0.0
  0
ARC
  5
7E
  8
0
 10
73.46722054380669
 20
115.5
 30
0.0
 40
2.5
 50
0.0
 51
90.000000000000014
  0
LINE
  5
7F
  8
0
 10
72.96722054380669
 20
118.0
 30
0.0
 11
73.46722054380669
 21
118.0
 31
0.0
  0
LINE
  5
80
  8
0
 10
69.967220543806675
 20
118.5
 30
0.0
 11
69.967220543806675
 21
116.5
 31
0.0
  0
LINE
  5
81
  8
0
 10
70.96722054380669
 20
115.5
 30
0.0
 11
72.467220543806675
 21
115.5
 31
0.0
  0
LINE
  5
82
  8
0
 10
72.96722054380669
 20
116.0
 30
0.0
 11
72.96722054380669
 21
118.0
 31
0.0
  0
LINE
  5
83
  8
0
 10
69.967220543806675
 20
118.5
 30
0.0
 11
69.967220543806675
 21
118.5013999866667
 31
0.0
  0
LINE
  5
84
  8
0
 10
75.96722054380669
 20
115.5
 30
0.0
 11
75.967220543806576
 21
114.19238815542469
 31
0.0
  0
ARC
  5
85
  8
0
 10
71.46722054380669
 20
118.5
 30
0.0
 40
1.5
 50
90.0
 51
180.0
  0
ARC
  5
86
  8
0
 10
70.96722054380669
 20
116.5
 30
0.0
 40
1.0
 50
180.00000000000031
 51
270.0
  0
ARC
  5
87
  8
0
 10
72.467220543806675
 20
116.0
 30
0.0
 40
0.5
 50
270.00000000000011
 51
0.0
  0
LINE
  5
88
  8
0
 10
72.860366294314204
 20
109.0144660940672
 30
0.0
 11
74.502754449739342
 21
110.6568542494923
 31
0.0
  0
ARC
  5
89
  8
0
 10
70.967220543806576
 20
114.19238815542499
 30
0.0
 40
5.0
 50
315.00000000000023
 51
359.99999999999608
  0
ARC
  5
8A
  8
0
 10
49.967220543806683
 20
116.0
 30
0.0
 40
2.2000000000000002
 50
90.0
 51
179.99999999999989
  0
LINE
  5
8B
  8
0
 10
54.167220543806629
 20
118.2
 30
0.0
 11
49.967220543806683
 21
118.2
 31
0.0
  0
LINE
  5
8C
  8
0
 10
54.167220543806629
 20
111.8
 30
0.0
 11
54.167220543806629
 21
118.2
 31
0.0
  0
LINE
  5
8D
  8
0
 10
47.767220543806673
 20
111.8
 30
0.0
 11
54.167220543806629
 21
111.8
 31
0.0
  0
LINE
  5
8E
  8
0
 10
47.767220543806687
 20
116.0
 30
0.0
 11
47.767220543806673
 21
111.8
 31
0.0
  0
LINE
  5
8F
  8
0
 10
45.96722054380669
 20
105.4999999999999
 30
0.0
 11
45.96722054380669
 21
116.0
 31
0.0
  0
LINE
  5
90
  8
0
 10
60.46722054380669
 20
120.0
 30
0.0
 11
49.967220543806683
 21
120.0
 31
0.0
  0
ARC
  5
91
  8
0
 10
49.967220543806683
 20
116.0
 30
0.0
 40
4.0
 50
90.0
 51
179.99999999999989
  0
ARC
  5
92
  8
0
 10
59.46722054380669
 20
116.0
 30
0.0
 40
0.5
 50
180.0
 51
269.99999999999989
  0
ARC
  5
93
  8
0
 10
60.96722054380669
 20
116.5
 30
0.0
 40
1.0
 50
270.0
 51
359.99999999999972
  0
ARC
  5
94
  8
0
 10
60.46722054380669
 20
118.5
 30
0.0
 40
1.5
 50
0.0
 51
90.0
  0
LINE
  5
95
  8
0
 10
61.96722054380669
 20
118.5
 30
0.0
 11
61.96722054380669
 21
118.5013999866667
 31
0.0
  0
LINE
  5
96
  8
0
 10
58.96722054380669
 20
116.0
 30
0.0
 11
58.96722054380669
 21
118.0
 31
0.0
  0
LINE
  5
97
  8
0
 10
60.96722054380669
 20
115.5
 30
0.0
 11
59.46722054380669
 21
115.5
 31
0.0
  0
LINE
  5
98
  8
0
 10
61.96722054380669
 20
118.5
 30
0.0
 11
61.96722054380669
 21
116.5
 31
0.0
  0
LINE
  5
99
  8
0
 10
58.96722054380669
 20
118.0
 30
0.0
 11
58.46722054380669
 21
118.0
 31
0.0
  0
ARC
  5
9A
  8
0
 10
58.46722054380669
 20
115.5
 30
0.0
 40
2.5
 50
89.999999999999986
 51
180.0
  0
LINE
  5
9B
  8
0
 10
55.96722054380669
 20
115.5
 30
0.0
 11
55.96722054380681
 21
114.19238815542469
 31
0.0
  0
ARC
  5
9C
  8
0
 10
60.96722054380681
 20
114.19238815542499
 30
0.0
 40
5.0
 50
180.00000000000389
 51
224.99999999999989
  0
LINE
  5
9D
  8
0
 10
59.074074793299161
 20
109.0144660940672
 30
0.0
 11
57.431686637874037
 21
110.6568542494923
 31
0.0
  0
ARC
  5
9E
  8
0
 10
51.774832388381668
 20
104.9999999999998
 30
0.0
 40
5.0
 50
45.000000000000142
 51
89.999999999996064
  0
LINE
  5
9F
  8
0
 10
56.952754449739551
 20
106.8931457505075
 30
0.0
 11
55.310366294314441
 21
108.5355339059326
 31
0.0
  0
ARC
  5
A0
  8
0
 10
49.967220543806683
 20
106.4999999999999
 30
0.0
 40
0.5
 50
0.0000000000000368
 51
90.0
  0
ARC
  5
A1
  8
0
 10
49.46722054380669
 20
105.0
 30
0.0
 40
1.0
 50
270.00000000000028
 51
360.0
  0
ARC
  5
A2
  8
0
 10
47.467220543806683
 20
105.4999999999999
 30
0.0
 40
1.5
 50
180.0
 51
270.0
  0
LINE
  5
A3
  8
0
 10
50.46722054380669
 20
109.9999999999999
 30
0.0
 11
51.774832388382009
 21
109.9999999999998
 31
0.0
  0
LINE
  5
A4
  8
0
 10
47.467220543806683
 20
104.0
 30
0.0
 11
47.465820557139999
 21
104.0
 31
0.0
  0
LINE
  5
A5
  8
0
 10
49.967220543806683
 20
107.0
 30
0.0
 11
47.967220543806683
 21
107.0
 31
0.0
  0
LINE
  5
A6
  8
0
 10
50.46722054380669
 20
105.0
 30
0.0
 11
50.46722054380669
 21
106.4999999999999
 31
0.0
  0
LINE
  5
A7
  8
0
 10
47.467220543806683
 20
104.0
 30
0.0
 11
49.46722054380669
 21
104.0
 31
0.0
  0
LINE
  5
A8
  8
0
 10
47.967220543806683
 20
107.0
 30
0.0
 11
47.967220543806683
 21
107.4999999999999
 31
0.0
  0
ARC
  5
A9
  8
0
 10
50.46722054380669
 20
107.4999999999999
 30
0.0
 40
2.5
 50
90.0
 51
180.0
  0
LINE
  5
AA
  8
0
 10
45.967220543806292
 20
94.500005722045898
 30
0.0
 11
45.967220543806292
 21
84.000000000000526
 31
0.0
  0
ARC
  5
AB
  8
0
 10
84.967220543806633
 20
95.000000000000554
 30
0.0
 40
1.0
 50
270.0
 51
0.0000000000001527
  0
ARC
  5
AC
  8
0
 10
84.467220543806576
 20
95.000000000000554
 30
0.0
 40
1.0
 50
180.0
 51
269.99999999999989
  0
ARC
  5
AD
  8
0
 10
82.467220543806633
 20
115.5
 30
0.0
 40
1.0
 50
0.0
 51
89.999999999999204
  0
ARC
  5
AE
  8
0
 10
81.46722054380669
 20
115.5
 30
0.0
 40
1.0
 50
90.0
 51
180.00000000000011
  0
ARC
  5
AF
  8
0
 10
79.46722054380669
 20
101.0
 30
0.0
 40
1.0
 50
270.0
 51
0.0
  0
ARC
  5
B0
  8
0
 10
70.967220543806633
 20
95.000000000000554
 30
0.0
 40
1.0
 50
270.0
 51
0.0
  0
ARC
  5
B1
  8
0
 10
63.967220543806633
 20
93.00000000000054
 30
0.0
 40
1.0
 50
90.0
 51
179.99999999999989
  0
ARC
  5
B2
  8
0
 10
63.967220543806633
 20
86.00000000000054
 30
0.0
 40
1.0
 50
180.0
 51
269.99999999999989
  0
ARC
  5
B3
  8
0
 10
84.967220543806675
 20
84.000000000000526
 30
0.0
 40
1.0
 50
0.0
 51
90.0
  0
ARC
  5
B4
  8
0
 10
81.967220543806576
 20
116.0
 30
0.0
 40
4.0
 50
0.0
 51
90.0
  0
ARC
  5
B5
  8
0
 10
81.967220543806619
 20
84.000000000000526
 30
0.0
 40
4.0
 50
270.0
 51
0.0
  0
ARC
  5
B6
  8
0
 10
49.967220543806292
 20
84.000000000000526
 30
0.0
 40
4.0
 50
180.0
 51
269.99999999999989
  0
ARC
  5
B7
  8
0
 10
49.667220543806224
 20
86.00000000000054
 30
0.0
 40
2.0
 50
90.000000000000156
 51
179.99999999999989
  0
ARC
  5
B8
  8
0
 10
49.66722054380628
 20
83.7000000000005
 30
0.0
 40
2.0
 50
180.0
 51
269.99999999999977
  0
ARC
  5
B9
  8
0
 10
57.66722054380628
 20
83.7000000000005
 30
0.0
 40
2.0
 50
270.0
 51
0.0
  0
ARC
  5
BA
  8
0
 10
57.66722054380628
 20
86.000000000000554
 30
0.0
 40
2.0
 50
0.0
 51
90.0
  0
LINE
  5
BB
  8
0
 10
47.667220543806224
 20
86.00000000000054
 30
0.0
 11
47.66722054380628
 21
83.7000000000005
 31
0.0
  0
LINE
  5
BC
  8
0
 10
57.66722054380628
 20
88.000000000000568
 30
0.0
 11
49.667220543806224
 21
88.00000000000054
 31
0.0
  0
LINE
  5
BD
  8
0
 10
59.66722054380628
 20
83.7000000000005
 30
0.0
 11
59.66722054380628
 21
86.000000000000554
 31
0.0
  0
LINE
  5
BE
  8
0
 10
49.66722054380628
 20
81.700000000000486
 30
0.0
 11
57.66722054380628
 21
81.700000000000486
 31
0.0
  0
LINE
  5
BF
  8
0
 10
83.467220543806633
 20
115.5
 30
0.0
 11
83.467220543806576
 21
95.000000000000554
 31
0.0
  0
LINE
  5
C0
  8
0
 10
81.46722054380669
 20
116.5
 30
0.0
 11
82.467220543806633
 21
116.5
 31
0.0
  0
LINE
  5
C1
  8
0
 10
80.46722054380669
 20
101.0
 30
0.0
 11
80.46722054380669
 21
115.5
 31
0.0
  0
LINE
  5
C2
  8
0
 10
71.967220543806633
 20
100.0
 30
0.0
 11
79.46722054380669
 21
100.0
 31
0.0
  0
LINE
  5
C3
  8
0
 10
81.967220543806576
 20
120.0
 30
0.0
 11
71.467220543806576
 21
120.0
 31
0.0
  0
LINE
  5
C4
  8
0
 10
85.967220543806633
 20
95.000000000000554
 30
0.0
 11
85.967220543806576
 21
116.0
 31
0.0
  0
LINE
  5
C5
  8
0
 10
84.467220543806576
 20
94.000000000000568
 30
0.0
 11
84.967220543806633
 21
94.000000000000526
 31
0.0
  0
LINE
  5
C6
  8
0
 10
71.967220543806633
 20
95.000000000000554
 30
0.0
 11
71.967220543806633
 21
100.0
 31
0.0
  0
LINE
  5
C7
  8
0
 10
63.967220543806633
 20
94.000000000000526
 30
0.0
 11
70.967220543806633
 21
94.000000000000526
 31
0.0
  0
LINE
  5
C8
  8
0
 10
62.967220543806633
 20
86.00000000000054
 30
0.0
 11
62.967220543806633
 21
93.00000000000054
 31
0.0
  0
LINE
  5
C9
  8
0
 10
84.967220543806675
 20
85.000000000000554
 30
0.0
 11
63.967220543806633
 21
85.000000000000554
 31
0.0
  0
LINE
  5
CA
  8
0
 10
49.967220543806292
 20
80.000000000000554
 30
0.0
 11
81.967220543806619
 21
80.000000000000554
 31
0.0
  0
CIRCLE
  5
CB
  8
0
 10
65.96722054380669
 20
100.0
 30
0.0
 40
3.399999999999999
  0
LINE
  5
CC
  8
1
 10
76.967220543806633
 20
130.0
 30
0.0
 11
76.967220543806633
 21
82.000000000000014
 31
0.0
  0
LINE
  5
CD
  8
1
 10
35.96722054380669
 20
100.0
 30
0.0
 11
95.967220543806675
 21
100.0
 31
0.0
  0
LINE
  5
CE
  8
1
 10
65.96722054380669
 20
130.0
 30
0.0
 11
65.96722054380669
 21
70.0
 31
0.0
  0
LINE
  5
CF
  8
0
 10
71.567220543806656
 20
122.59999999999989
 30
0.0
 11
71.567220543806656
 21
120.0
 31
0.0
  0
LINE
  5
D0
  8
0
 10
72.260040866834203
 20
123.0
 30
0.0
 11
80.874400220779023
 21
123.0
 31
0.0
  0
LINE
  5
D1
  8
0
 10
81.567220543806627
 20
122.59999999999989
 30
0.0
 11
80.874400220779037
 21
123.0
 31
0.0
  0
LINE
  5
D2
  8
0
 10
71.567220543806613
 20
122.59999999999989
 30
0.0
 11
72.260040866834231
 21
123.0
 31
0.0
  0
LINE
  5
D3
  8
0
 10
71.567220543806656
 20
122.59999999999989
 30
0.0
 11
81.567220543806627
 21
122.59999999999989
 31
0.0
  0
LINE
  5
D4
  8
0
 10
81.567220543806627
 20
120.0
 30
0.0
 11
81.567220543806599
 21
122.59999999999999
 31
0.0
  0
LINE
  5
D5
  8
0
 10
73.567220543806627
 20
115.8129605131053
 30
0.0
 11
75.947554335302982
 21
115.8129605131053
 31
0.0
  0
LINE
  5
D6
  8
3
 10
74.108220543806624
 20
115.8129605131053
 30
0.0
 11
74.108220543806624
 21
110.1616555555555
 31
0.0
  0
LINE
  5
D7
  8
3
 10
73.567220543806627
 20
116.75
 30
0.0
 11
74.108220543806624
 21
115.8129605131053
 31
0.0
  0
ARC
  5
D8
  8
0
 10
73.317220543806613
 20
116.75
 30
0.0
 40
0.25
 50
0.0
 51
90.0
  0
LINE
  5
D9
  8
0
 10
73.567220543806627
 20
116.75
 30
0.0
 11
73.567220543806627
 21
109.62666666666679
 31
0.0
  0
LINE
  5
DA
  8
0
 10
72.967220543806661
 20
117.0
 30
0.0
 11
75.467220543807002
 21
117.0
 31
0.0
  0
LINE
  5
DB
  8
0
 10
72.939492543806637
 20
85.892799999999994
 30
0.0
 11
82.439492543806637
 21
85.892799999999994
 31
0.0
  0
LINE
  5
DC
  8
0
 10
79.439492543806637
 20
91.892799999999994
 30
0.0
 11
72.939492543806637
 21
91.892799999999994
 31
0.0
  0
LINE
  5
DD
  8
0
 10
71.939492543806637
 20
90.892799999999994
 30
0.0
 11
71.939492543806637
 21
86.892799999999994
 31
0.0
  0
ARC
  5
DE
  8
0
 10
72.939492543806637
 20
90.892799999999994
 30
0.0
 40
1.0
 50
90.0
 51
179.99999999999989
  0
ARC
  5
DF
  8
0
 10
72.939492543806637
 20
86.892799999999994
 30
0.0
 40
1.0
 50
180.0
 51
269.99999999999989
  0
LINE
  5
E0
  8
0
 10
83.439492543806637
 20
86.892799999999994
 30
0.0
 11
83.439492543806637
 21
103.7927999999999
 31
0.0
  0
ARC
  5
E1
  8
0
 10
82.439492543806637
 20
86.892799999999994
 30
0.0
 40
1.0
 50
270.0
 51
0.0
  0
ARC
  5
E2
  8
0
 10
79.439492543806637
 20
92.892799999999994
 30
0.0
 40
1.0
 50
270.0
 51
0.0
  0
LINE
  5
E3
  8
0
 10
80.439492543806637
 20
103.7927999999999
 30
0.0
 11
80.439492543806637
 21
92.892799999999994
 31
0.0
  0
LINE
  5
E4
  8
0
 10
82.439492543806637
 20
104.7927999999999
 30
0.0
 11
81.439492543806637
 21
104.7927999999999
 31
0.0
  0
ARC
  5
E5
  8
0
 10
82.439492543806637
 20
103.7927999999999
 30
0.0
 40
1.0
 50
0.0
 51
90.0
  0
ARC
  5
E6
  8
0
 10
81.439492543806637
 20
103.7927999999999
 30
0.0
 40
1.0
 50
90.0
 51
179.99999999999989
  0
TEXT
  5
1D1
  8
0
 62
     3
 10
0.0
 20
0.0
 30
0.0
 40
10.0
  1
CPL4040N-3M
  7
STANDARD1
  0
ENDSEC
  0
EOF
