  0
SECTION
  2
HEADER
  9
$ACADVER
  1
AC1009
  9
$INSBASE
 10
0.0
 20
0.0
 30
0.0
  9
$EXTMIN
 10
0.0
 20
-2.960436562073669
 30
0.0
  9
$EXTMAX
 10
294.64323192548648
 20
225.16484563800401
 30
0.0
  9
$LIMMIN
 10
0.0
 20
0.0
  9
$LIMMAX
 10
275.0
 20
175.0
  9
$ORTHOMODE
 70
     0
  9
$REGENMODE
 70
     1
  9
$FILLMODE
 70
     1
  9
$QTEXTMODE
 70
     0
  9
$MIRRTEXT
 70
     0
  9
$DRAGMODE
 70
     2
  9
$LTSCALE
 40
10.0
  9
$OSMODE
 70
  3071
  9
$ATTMODE
 70
     1
  9
$TEXTSIZE
 40
0.2
  9
$TRACEWID
 40
0.05
  9
$TEXTSTYLE
  7
STANDARD
  9
$CLAYER
  8
1
  9
$CELTYPE
  6
BYLAYER
  9
$CECOLOR
 62
   256
  9
$DIMSCALE
 40
1.0
  9
$DIMASZ
 40
3.0
  9
$DIMEXO
 40
0.0625
  9
$DIMDLI
 40
0.38
  9
$DIMRND
 40
0.0
  9
$DIMDLE
 40
0.0
  9
$DIMEXE
 40
0.18
  9
$DIMTP
 40
0.0
  9
$DIMTM
 40
0.0
  9
$DIMTXT
 40
3.0
  9
$DIMCEN
 40
0.09
  9
$DIMTSZ
 40
0.0
  9
$DIMTOL
 70
     0
  9
$DIMLIM
 70
     0
  9
$DIMTIH
 70
     1
  9
$DIMTOH
 70
     1
  9
$DIMSE1
 70
     0
  9
$DIMSE2
 70
     0
  9
$DIMTAD
 70
     0
  9
$DIMZIN
 70
     0
  9
$DIMBLK
  1

  9
$DIMASO
 70
     1
  9
$DIMSHO
 70
     1
  9
$DIMPOST
  1

  9
$DIMAPOST
  1

  9
$DIMALT
 70
     0
  9
$DIMALTD
 70
     2
  9
$DIMALTF
 40
25.399999999999999
  9
$DIMLFAC
 40
1.0
  9
$DIMTOFL
 70
     0
  9
$DIMTVP
 40
0.0
  9
$DIMTIX
 70
     0
  9
$DIMSOXD
 70
     0
  9
$DIMSAH
 70
     0
  9
$DIMBLK1
  1

  9
$DIMBLK2
  1

  9
$DIMSTYLE
  2
STANDARD
  9
$DIMCLRD
 70
     0
  9
$DIMCLRE
 70
     0
  9
$DIMCLRT
 70
     0
  9
$DIMTFAC
 40
1.0
  9
$DIMGAP
 40
0.09
  9
$LUNITS
 70
     2
  9
$LUPREC
 70
     4
  9
$SKETCHINC
 40
0.1
  9
$FILLETRAD
 40
0.0
  9
$AUNITS
 70
     0
  9
$AUPREC
 70
     0
  9
$MENU
  1
E:\r13\win\SUPPORT\ACAD
  9
$ELEVATION
 40
0.0
  9
$PELEVATION
 40
0.0
  9
$THICKNESS
 40
0.0
  9
$LIMCHECK
 70
     0
  9
$BLIPMODE
 70
     0
  9
$CHAMFERA
 40
0.0
  9
$CHAMFERB
 40
0.0
  9
$SKPOLY
 70
     0
  9
$TDCREATE
 40
2450759.7208849541
  9
$TDUPDATE
 40
2456598.4999836111
  9
$TDINDWG
 40
0.0002368519
  9
$TDUSRTIMER
 40
0.0002368519
  9
$USRTIMER
 70
     1
  9
$ANGBASE
 50
0.0
  9
$ANGDIR
 70
     0
  9
$PDMODE
 70
     0
  9
$PDSIZE
 40
0.0
  9
$PLINEWID
 40
0.0
  9
$COORDS
 70
     1
  9
$SPLFRAME
 70
     0
  9
$SPLINETYPE
 70
     6
  9
$SPLINESEGS
 70
     8
  9
$ATTDIA
 70
     0
  9
$ATTREQ
 70
     1
  9
$HANDLING
 70
     1
  9
$HANDSEED
  5
2C33
  9
$SURFTAB1
 70
     6
  9
$SURFTAB2
 70
     6
  9
$SURFTYPE
 70
     6
  9
$SURFU
 70
     6
  9
$SURFV
 70
     6
  9
$UCSNAME
  2

  9
$UCSORG
 10
0.0
 20
0.0
 30
0.0
  9
$UCSXDIR
 10
1.0
 20
0.0
 30
0.0
  9
$UCSYDIR
 10
0.0
 20
1.0
 30
0.0
  9
$PUCSNAME
  2

  9
$PUCSORG
 10
0.0
 20
0.0
 30
0.0
  9
$PUCSXDIR
 10
1.0
 20
0.0
 30
0.0
  9
$PUCSYDIR
 10
0.0
 20
1.0
 30
0.0
  9
$USERI1
 70
     4
  9
$USERI2
 70
     1
  9
$USERI3
 70
     0
  9
$USERI4
 70
     0
  9
$USERI5
 70
     0
  9
$USERR1
 40
1.0
  9
$USERR2
 40
3.0
  9
$USERR3
 40
3.0
  9
$USERR4
 40
3.0
  9
$USERR5
 40
10.0
  9
$WORLDVIEW
 70
     1
  9
$SHADEDGE
 70
     3
  9
$SHADEDIF
 70
    70
  9
$TILEMODE
 70
     1
  9
$MAXACTVP
 70
    16
  9
$PLIMCHECK
 70
     0
  9
$PEXTMIN
 10
1.0000000000000000E+020
 20
1.0000000000000000E+020
 30
1.0000000000000000E+020
  9
$PEXTMAX
 10
-1.0000000000000000E+020
 20
-1.0000000000000000E+020
 30
-1.0000000000000000E+020
  9
$PLIMMIN
 10
0.0
 20
0.0
  9
$PLIMMAX
 10
12.0
 20
9.0
  9
$UNITMODE
 70
     0
  9
$VISRETAIN
 70
     0
  9
$PLINEGEN
 70
     0
  9
$PSLTSCALE
 70
     1
  0
ENDSEC
  0
SECTION
  2
TABLES
  0
TABLE
  2
VPORT
 70
     1
  0
VPORT
  2
*ACTIVE
 70
     0
 10
0.0
 20
0.0
 11
1.0
 21
1.0
 12
153.64294480033649
 22
111.10505390146621
 13
0.0
 23
0.0
 14
5.0
 24
5.0
 15
0.0
 25
0.0
 16
0.0
 26
0.0
 36
1.0
 17
0.0
 27
0.0
 37
0.0
 40
230.17936630473031
 41
1.831871345029239
 42
50.0
 43
0.0
 44
0.0
 50
0.0
 51
0.0
 71
     0
 72
   100
 73
     1
 74
     0
 75
     0
 76
     0
 77
     0
 78
     0
  0
ENDTAB
  0
TABLE
  2
LTYPE
 70
     3
  0
LTYPE
  2
CONTINUOUS
 70
     0
  3
Solid Line
 72
    65
 73
     0
 40
0.0
  0
LTYPE
  2
CENTER
 70
     0
  3
____ _ ____ _ ____ _ ____ _ ____ _ ____ _ ____
 72
    65
 73
     4
 40
2.0
 49
1.25
 49
-0.25
 49
0.25
 49
-0.25
  0
LTYPE
  2
PHANTOM2
 70
     0
  3
___ _ _ ___ _ _ ___ _ _ ___ _ _
 72
    65
 73
     6
 40
1.25
 49
0.625
 49
-0.125
 49
0.125
 49
-0.125
 49
0.125
 49
-0.125
  0
ENDTAB
  0
TABLE
  2
LAYER
 70
     3
  0
LAYER
  2
0
 70
     0
 62
     7
  6
CONTINUOUS
  0
LAYER
  2
1
 70
     0
 62
     1
  6
CENTER
  0
LAYER
  2
EAIT50
 70
     0
 62
     7
  6
CONTINUOUS
  0
ENDTAB
  0
TABLE
  2
STYLE
 70
     2
  0
STYLE
  2
STANDARD
 70
     0
 40
0.0
 41
1.0
 50
0.0
 71
     0
 42
0.2
  3
SIMPLEX
  4
BIGFONT
  0
STYLE
  2
STANDARD1
 70
     0
 40
0.0
 41
1.0
 50
0.0
 71
     0
 42
3.0
  3
txt
  4

  0
ENDTAB
  0
TABLE
  2
VIEW
 70
     0
  0
ENDTAB
  0
TABLE
  2
UCS
 70
     0
  0
ENDTAB
  0
TABLE
  2
APPID
 70
     5
  0
APPID
  2
ACAD
 70
     0
  0
APPID
  2
GENIUS_GENODEF_13
 70
     0
  0
APPID
  2
GENIUS_GENOBJ-N-FIL_13
 70
     0
  0
APPID
  2
ACAD_MLEADERVER
 70
     0
  0
APPID
  2
ACAD_NAV_VCDISPLAY
 70
     0
  0
ENDTAB
  0
TABLE
  2
DIMSTYLE
 70
     1
  0
DIMSTYLE
  2
STANDARD
 70
     0
  3

  4

  5

  6

  7

 40
1.0
 41
0.18
 42
0.0625
 43
0.38
 44
0.18
 45
0.0
 46
0.0
 47
0.0
 48
0.0
140
0.18
141
0.09
142
0.0
143
25.399999999999999
144
1.0
145
0.0
146
1.0
147
0.09
 71
     0
 72
     0
 73
     1
 74
     1
 75
     0
 76
     0
 77
     0
 78
     0
170
     0
171
     2
172
     0
173
     0
174
     0
175
     0
176
     0
177
     0
178
     0
  0
ENDTAB
  0
ENDSEC
  0
SECTION
  2
BLOCKS
  0
BLOCK
  8
0
  2
$MODEL_SPACE
 70
     0
 10
0.0
 20
0.0
 30
0.0
  3
$MODEL_SPACE
  1

  0
ENDBLK
  5
2AF4
  8
0
  0
BLOCK
 67
     1
  8
0
  2
$PAPER_SPACE
 70
     0
 10
0.0
 20
0.0
 30
0.0
  3
$PAPER_SPACE
  1

  0
ENDBLK
  5
2AF2
 67
     1
  8
0
  0
ENDSEC
  0
SECTION
  2
ENTITIES
  0
LINE
  5
2A65
  8
0
  6
CENTER
 62
     1
 10
178.86343989685619
 20
225.16484563800401
 30
0.0
 11
178.86343989685631
 21
169.16484563800401
 31
0.0
  0
LINE
  5
2A52
  8
0
  6
CONTINUOUS
 62
     7
 10
198.8634398968594
 20
172.16484563800401
 30
0.0
 11
198.8634398968594
 21
222.16484563800401
 31
0.0
  0
LINE
  5
2A51
  8
0
  6
CONTINUOUS
 62
     7
 10
158.86343989685309
 20
172.16484563800401
 30
0.0
 11
158.86343989685309
 21
222.16484563800401
 31
0.0
  0
LINE
  5
2A5E
  8
0
  6
CENTER
 62
     1
 10
155.86343989685309
 20
126.89186057914969
 30
0.0
 11
201.86343989685949
 21
126.89186057914969
 31
0.0
  0
LINE
  5
2A53
  8
0
  6
CONTINUOUS
 62
     7
 10
158.86343989685309
 20
172.16484563800401
 30
0.0
 11
198.8634398968594
 21
172.16484563800401
 31
0.0
  0
LINE
  5
2A49
  8
0
  6
CONTINUOUS
 62
     7
 10
158.86343989685309
 20
32.558773852959369
 30
0.0
 11
198.8634398968594
 21
32.558773852959348
 31
0.0
  0
LINE
  5
2A44
  8
0
  6
CONTINUOUS
 62
     7
 10
158.86343989685309
 20
82.558773852959376
 30
0.0
 11
198.8634398968594
 21
82.558773852959348
 31
0.0
  0
LINE
  5
2A19
  8
EAIT50
 10
175.30582805227951
 20
119.1418605791458
 30
0.0
 11
182.4210517414466
 21
119.1418605791459
 31
0.0
  0
LINE
  5
29F6
  8
EAIT50
 10
194.86343989685599
 20
146.89186057913469
 30
0.0
 11
162.8634398968322
 21
146.89186057913469
 31
0.0
  0
CIRCLE
  5
29F3
  8
EAIT50
 10
178.86343989685631
 20
126.89186057914969
 30
0.0
 40
3.399999999999999
  0
LINE
  5
2A4A
  8
0
  6
CENTER
 62
     1
 10
178.86343989685631
 20
85.558773852959376
 30
0.0
 11
178.86343989685631
 21
29.558773852959359
 31
0.0
  0
LINE
  5
2A47
  8
0
  6
CONTINUOUS
 62
     7
 10
174.86343989685921
 20
82.558773852959348
 30
0.0
 11
174.86343989685921
 21
32.558773852959362
 31
0.0
  0
LINE
  5
2A45
  8
0
  6
CONTINUOUS
 62
     7
 10
158.86343989685309
 20
82.558773852959348
 30
0.0
 11
158.86343989685309
 21
32.558773852959369
 31
0.0
  0
LINE
  5
2A62
  8
0
  6
CONTINUOUS
 62
     7
 10
113.08364786820169
 20
106.89217402265859
 30
0.0
 11
63.083647868201751
 21
106.89217402265869
 31
0.0
  0
LINE
  5
2A61
  8
0
  6
CONTINUOUS
 62
     7
 10
113.08364786820169
 20
146.89186057913469
 30
0.0
 11
63.083647868201751
 21
146.89186057913469
 31
0.0
  0
LINE
  5
2A60
  8
0
  6
CONTINUOUS
 62
     7
 10
113.08364786820169
 20
141.89186057915589
 30
0.0
 11
63.083647868201858
 21
141.89186057915589
 31
0.0
  0
LINE
  5
2A5F
  8
0
  6
CONTINUOUS
 62
     7
 10
113.08364786820169
 20
132.89186057915279
 30
0.0
 11
63.083647868201858
 21
132.89186057915279
 31
0.0
  0
LINE
  5
2A64
  8
0
  6
CONTINUOUS
 62
     7
 10
63.083647868201751
 20
146.89186057913469
 30
0.0
 11
63.083647868201751
 21
106.89217402265859
 31
0.0
  0
LINE
  5
2A63
  8
0
  6
CONTINUOUS
 62
     7
 10
113.08364786820169
 20
146.89186057913469
 30
0.0
 11
113.08364786820169
 21
106.89217402265859
 31
0.0
  0
LINE
  5
2A5C
  8
0
  6
CENTER
 62
     1
 10
178.86343989684411
 20
149.89186057913469
 30
0.0
 11
178.86343989684411
 21
103.89217402265869
 31
0.0
  0
LINE
  5
2A17
  8
EAIT50
 10
170.3279059909336
 20
116.2350063296652
 30
0.0
 11
171.77029414634691
 21
117.67739448507859
 31
0.0
  0
LINE
  5
2A0B
  8
EAIT50
 10
158.86343989685309
 20
131.89186057915279
 30
0.0
 11
158.86343989685309
 21
110.89186057914969
 31
0.0
  0
LINE
  5
2A07
  8
EAIT50
 10
161.36343989684991
 20
114.391860579156
 30
0.0
 11
161.36343989684991
 21
132.39186057915279
 31
0.0
  0
LINE
  5
2A03
  8
EAIT50
 10
164.46343989684661
 20
125.89186057914969
 30
0.0
 11
164.46343989684661
 21
114.391860579156
 31
0.0
  0
ARC
  5
2A0C
  8
EAIT50
 10
162.86343989685309
 20
110.89186057914959
 30
0.0
 40
3.9999999999999711
 50
179.9999999999992
 51
270.7172822946759
  0
LINE
  5
2A05
  8
EAIT50
 10
163.96343989684661
 20
113.8918605791559
 30
0.0
 11
161.86343989684991
 21
113.8918605791559
 31
0.0
  0
ARC
  5
2A06
  8
EAIT50
 10
161.86343989684991
 20
114.391860579156
 30
0.0
 40
0.5
 50
180.0
 51
270.0
  0
ARC
  5
2A3B
  8
EAIT50
 10
173.36343989685881
 20
108.39217402265869
 30
0.0
 40
1.5
 50
270.0
 51
359.99999999978388
1001
GENIUS_GENODEF_13
1002
{
1000
HIER
1070
     0
1002
}
1002
{
1000
MANEDIT
1070
     0
1002
}
1002
{
1000
NOSEL
1070
     0
1002
}
1002
{
1000
BEHIND
1070
     0
1002
}
1002
{
1000
REACTOR
1002
}
1001
GENIUS_GENOBJ-N-FIL_13
1002
{
1000
OWNER
1000
GEN
1002
}
  0
LINE
  5
29F4
  8
EAIT50
 10
162.91351433968649
 20
106.89217402265869
 30
0.0
 11
173.36343989685881
 21
106.89217402265869
 31
0.0
  0
ARC
  5
2A12
  8
EAIT50
 10
171.36343989686799
 20
109.39186057914431
 30
0.0
 40
0.5000000000015703
 50
269.99999999981509
 51
359.99999999981998
  0
ARC
  5
2A16
  8
EAIT50
 10
173.8634398968662
 20
112.6994724237326
 30
0.0
 40
4.9999999999998828
 50
134.99999999999989
 51
179.99999999999989
  0
LINE
  5
2A15
  8
EAIT50
 10
168.86343989686631
 20
111.3918605791428
 30
0.0
 11
168.86343989686631
 21
112.6994724237326
 31
0.0
  0
ARC
  5
2A14
  8
EAIT50
 10
171.36343989686631
 20
111.3918605791428
 30
0.0
 40
2.5
 50
180.0
 51
270.0
  0
LINE
  5
2A13
  8
EAIT50
 10
171.36343989686631
 20
108.8918605791428
 30
0.0
 11
171.36343989686631
 21
108.8918605791428
 31
0.0
  0
ARC
  5
2A04
  8
EAIT50
 10
163.96343989684661
 20
114.391860579156
 30
0.0
 40
0.5
 50
270.0
 51
0.0
  0
LINE
  5
2A11
  8
EAIT50
 10
171.86343989686949
 20
110.8918605791396
 30
0.0
 11
171.86343989686949
 21
109.3918605791428
 31
0.0
  0
ARC
  5
2A10
  8
EAIT50
 10
172.36343989686941
 20
110.8918605791396
 30
0.0
 40
0.5
 50
90.0
 51
180.0
  0
LINE
  5
2A0F
  8
EAIT50
 10
173.8634398968662
 20
111.3918605791396
 30
0.0
 11
172.36343989686941
 21
111.3918605791396
 31
0.0
  0
ARC
  5
2A0E
  8
EAIT50
 10
173.8634398968662
 20
110.3918605791396
 30
0.0
 40
1.0
 50
0.0
 51
90.0
  0
LINE
  5
2A0D
  8
EAIT50
 10
174.86343989685921
 20
108.52312037502701
 30
0.0
 11
174.86343989686631
 21
110.3918605791396
 31
0.0
  0
ARC
  5
29FC
  8
EAIT50
 10
174.86343989685631
 20
133.89186057915279
 30
0.0
 40
1.0
 50
270.0
 51
0.0
  0
LINE
  5
2A41
  8
EAIT50
 10
161.36343989685011
 20
132.89186057915279
 30
0.0
 11
172.96343989684681
 21
132.89186057915279
 31
0.0
  0
LINE
  5
2A42
  8
EAIT50
 10
161.36343989685011
 20
132.3918605791529
 30
0.0
 11
161.36343989685011
 21
132.89186057915279
 31
0.0
  0
ARC
  5
2A0A
  8
EAIT50
 10
159.86343989685309
 20
131.89186057915279
 30
0.0
 40
1.0
 50
90.0
 51
180.0
  0
LINE
  5
2A09
  8
EAIT50
 10
160.86343989684991
 20
132.89186057915279
 30
0.0
 11
159.86343989685309
 21
132.89186057915279
 31
0.0
  0
ARC
  5
2A08
  8
EAIT50
 10
160.86343989684991
 20
132.39186057915279
 30
0.0
 40
0.5
 50
0.0
 51
90.0
  0
ARC
  5
2A18
  8
EAIT50
 10
175.30582805227951
 20
114.1418605791459
 30
0.0
 40
4.9999999999998863
 50
90.000000000000114
 51
135.00000000000011
  0
LINE
  5
2A01
  8
EAIT50
 10
172.46343989684661
 20
126.89186057914969
 30
0.0
 11
165.46343989684661
 21
126.89186057914969
 31
0.0
  0
ARC
  5
2A02
  8
EAIT50
 10
165.46343989684661
 20
125.89186057914969
 30
0.0
 40
1.0
 50
90.0
 51
180.0
  0
LINE
  5
2A43
  8
EAIT50
 10
172.96343989684681
 20
132.89186057915279
 30
0.0
 11
172.96343989684681
 21
132.39186057915279
 31
0.0
  0
ARC
  5
2A00
  8
EAIT50
 10
172.46343989684661
 20
127.39186057914969
 30
0.0
 40
0.5
 50
270.0
 51
0.0
  0
LINE
  5
29FF
  8
EAIT50
 10
172.96343989684661
 20
132.39186057915279
 30
0.0
 11
172.96343989684661
 21
127.39186057914969
 31
0.0
  0
ARC
  5
29FE
  8
EAIT50
 10
173.46343989684661
 20
132.39186057915279
 30
0.0
 40
0.5
 50
90.0
 51
180.0
  0
LINE
  5
29FD
  8
EAIT50
 10
174.86343989685631
 20
132.89186057915279
 30
0.0
 11
173.46343989684661
 21
132.89186057915279
 31
0.0
  0
LINE
  5
29F9
  8
EAIT50
 10
159.86343989685309
 20
141.89186057915589
 30
0.0
 11
174.86343989685631
 21
141.89186057915609
 31
0.0
  0
ARC
  5
29F7
  8
EAIT50
 10
162.8634398968322
 20
142.89186057915569
 30
0.0
 40
3.9999999999789391
 50
89.999999999999588
 51
179.9999999999971
  0
ARC
  5
29F8
  8
EAIT50
 10
159.86343989685309
 20
142.89186057915589
 30
0.0
 40
1.0
 50
180.0
 51
270.0
  0
LINE
  5
29FB
  8
EAIT50
 10
175.86343989685631
 20
140.891860579156
 30
0.0
 11
175.86343989685631
 21
133.89186057915279
 31
0.0
  0
ARC
  5
29FA
  8
EAIT50
 10
174.86343989685631
 20
140.891860579156
 30
0.0
 40
1.0
 50
0.0
 51
90.0
  0
LINE
  5
2A48
  8
0
  6
CONTINUOUS
 62
     7
 10
182.86343989685989
 20
82.558773852959348
 30
0.0
 11
182.86343989685989
 21
32.558773852959362
 31
0.0
  0
LINE
  5
2A46
  8
0
  6
CONTINUOUS
 62
     7
 10
198.8634398968594
 20
82.558773852959348
 30
0.0
 11
198.8634398968594
 21
32.558773852959348
 31
0.0
  0
LINE
  5
2A50
  8
0
  6
CONTINUOUS
 62
     7
 10
244.6432319254865
 20
132.89186057915279
 30
0.0
 11
294.64323192548642
 21
132.89186057915279
 31
0.0
  0
LINE
  5
2A4F
  8
0
  6
CONTINUOUS
 62
     7
 10
244.6432319254865
 20
141.89186057915589
 30
0.0
 11
294.64323192548642
 21
141.89186057915589
 31
0.0
  0
LINE
  5
2A4B
  8
0
  6
CONTINUOUS
 62
     7
 10
244.6432319254865
 20
146.89186057913469
 30
0.0
 11
294.64323192548648
 21
146.89186057913469
 31
0.0
  0
LINE
  5
2A4C
  8
0
  6
CONTINUOUS
 62
     7
 10
244.6432319254865
 20
106.89217402265859
 30
0.0
 11
294.64323192548648
 21
106.89217402265869
 31
0.0
  0
LINE
  5
2A4D
  8
0
  6
CONTINUOUS
 62
     7
 10
244.6432319254865
 20
146.89186057913469
 30
0.0
 11
244.6432319254865
 21
106.89217402265859
 31
0.0
  0
LINE
  5
2A2F
  8
EAIT50
 10
193.26343989686569
 20
114.3918605791561
 30
0.0
 11
193.26343989686569
 21
125.89186057914969
 31
0.0
  0
LINE
  5
2A2B
  8
EAIT50
 10
196.36343989686239
 20
132.3918605791529
 30
0.0
 11
196.36343989686259
 21
114.3918605791561
 31
0.0
  0
LINE
  5
2A27
  8
EAIT50
 10
198.8634398968594
 20
110.89186057914959
 30
0.0
 11
198.8634398968594
 21
131.89186057915279
 31
0.0
  0
LINE
  5
2A1B
  8
EAIT50
 10
185.95658564737951
 20
117.67739448507849
 30
0.0
 11
187.3989738027928
 21
116.2350063296653
 31
0.0
  0
ARC
  5
2A3C
  8
EAIT50
 10
184.36343989685989
 20
108.39217402265869
 30
0.0
 40
1.5
 50
180.0
 51
270.0
1001
GENIUS_GENODEF_13
1002
{
1000
HIER
1070
     0
1002
}
1002
{
1000
MANEDIT
1070
     0
1002
}
1002
{
1000
NOSEL
1070
     0
1002
}
1002
{
1000
BEHIND
1070
     0
1002
}
1002
{
1000
REACTOR
1002
}
1001
GENIUS_GENOBJ-N-FIL_13
1002
{
1000
OWNER
1000
GEN
1002
}
  0
ARC
  5
2A26
  8
EAIT50
 10
194.8634398968594
 20
110.89186057914959
 30
0.0
 40
3.9999999999999161
 50
269.28271770532319
 51
0.0
  0
LINE
  5
2A3D
  8
EAIT50
 10
184.36343989685989
 20
106.89217402265869
 30
0.0
 11
194.81336545402601
 21
106.89217402265869
 31
0.0
  0
LINE
  5
2A25
  8
EAIT50
 10
182.86343989685989
 20
110.3918605791396
 30
0.0
 11
182.86343989685989
 21
108.52312037502701
 31
0.0
  0
ARC
  5
2A24
  8
EAIT50
 10
183.86343989685989
 20
110.3918605791396
 30
0.0
 40
1.0
 50
90.0
 51
180.0
  0
LINE
  5
2A23
  8
EAIT50
 10
185.3634398968569
 20
111.3918605791396
 30
0.0
 11
183.86343989685989
 21
111.3918605791396
 31
0.0
  0
ARC
  5
2A22
  8
EAIT50
 10
185.3634398968569
 20
110.8918605791396
 30
0.0
 40
0.5
 50
0.0
 51
90.0
  0
LINE
  5
2A21
  8
EAIT50
 10
185.8634398968569
 20
109.3918605791428
 30
0.0
 11
185.8634398968569
 21
110.8918605791396
 31
0.0
  0
ARC
  5
2A20
  8
EAIT50
 10
186.36343989685849
 20
109.39186057914431
 30
0.0
 40
0.5000000000015064
 50
180.00000000017261
 51
270.00000000017911
  0
LINE
  5
2A1F
  8
EAIT50
 10
186.36343989686009
 20
108.8918605791428
 30
0.0
 11
186.36343989686009
 21
108.8918605791428
 31
0.0
  0
ARC
  5
2A1E
  8
EAIT50
 10
186.36343989686009
 20
111.3918605791428
 30
0.0
 40
2.5
 50
270.0
 51
0.0
  0
LINE
  5
2A1D
  8
EAIT50
 10
188.86343989686009
 20
112.6994724237326
 30
0.0
 11
188.86343989686009
 21
111.3918605791428
 31
0.0
  0
ARC
  5
2A1C
  8
EAIT50
 10
183.86343989686009
 20
112.6994724237326
 30
0.0
 40
5.0000000000000249
 50
359.99999999999949
 51
44.999999999999417
  0
ARC
  5
2A2E
  8
EAIT50
 10
193.76343989686569
 20
114.3918605791561
 30
0.0
 40
0.5
 50
180.0
 51
270.0
  0
LINE
  5
2A2D
  8
EAIT50
 10
195.86343989686259
 20
113.8918605791561
 30
0.0
 11
193.76343989686569
 21
113.8918605791561
 31
0.0
  0
ARC
  5
2A2C
  8
EAIT50
 10
195.86343989686259
 20
114.3918605791561
 30
0.0
 40
0.5
 50
270.0
 51
0.0
  0
ARC
  5
2A36
  8
EAIT50
 10
182.86343989685619
 20
133.89186057915279
 30
0.0
 40
1.0
 50
180.0
 51
270.0
  0
ARC
  5
2A1A
  8
EAIT50
 10
182.42105174144641
 20
114.1418605791458
 30
0.0
 40
5.000000000000135
 50
44.999999999997421
 51
89.999999999997399
  0
LINE
  5
2A3F
  8
EAIT50
 10
196.36343989686239
 20
132.89186057915279
 30
0.0
 11
184.76343989686569
 21
132.89186057915279
 31
0.0
  0
LINE
  5
2A31
  8
EAIT50
 10
192.26343989686569
 20
126.89186057914969
 30
0.0
 11
185.26343989686569
 21
126.89186057914969
 31
0.0
  0
LINE
  5
2A40
  8
EAIT50
 10
184.76343989686569
 20
132.89186057915279
 30
0.0
 11
184.76343989686569
 21
132.39186057915279
 31
0.0
  0
LINE
  5
2A35
  8
EAIT50
 10
184.26343989686569
 20
132.89186057915279
 30
0.0
 11
182.86343989685619
 21
132.89186057915279
 31
0.0
  0
ARC
  5
2A34
  8
EAIT50
 10
184.26343989686569
 20
132.39186057915279
 30
0.0
 40
0.5
 50
0.0
 51
90.0
  0
LINE
  5
2A33
  8
EAIT50
 10
184.76343989686569
 20
127.39186057914969
 30
0.0
 11
184.76343989686569
 21
132.39186057915279
 31
0.0
  0
ARC
  5
2A32
  8
EAIT50
 10
185.26343989686569
 20
127.39186057914969
 30
0.0
 40
0.5
 50
180.0
 51
270.0
  0
LINE
  5
2A3E
  8
EAIT50
 10
196.36343989686239
 20
132.3918605791529
 30
0.0
 11
196.36343989686239
 21
132.89186057915279
 31
0.0
  0
ARC
  5
2A30
  8
EAIT50
 10
192.26343989686569
 20
125.89186057914969
 30
0.0
 40
0.9999999999999928
 50
359.9999999999996
 51
90.000000000000398
  0
ARC
  5
2A2A
  8
EAIT50
 10
196.8634398968625
 20
132.39186057915271
 30
0.0
 40
0.500000000000057
 50
89.99999999998046
 51
179.99999999998039
  0
LINE
  5
2A29
  8
EAIT50
 10
197.8634398968594
 20
132.89186057915279
 30
0.0
 11
196.86343989686259
 21
132.89186057915279
 31
0.0
  0
ARC
  5
2A28
  8
EAIT50
 10
197.8634398968594
 20
131.89186057915279
 30
0.0
 40
1.0
 50
0.0
 51
90.0
  0
ARC
  5
2A3A
  8
EAIT50
 10
197.8634398968594
 20
142.89186057915589
 30
0.0
 40
1.0
 50
270.0
 51
0.0
  0
LINE
  5
2A39
  8
EAIT50
 10
182.86343989685619
 20
141.89186057915609
 30
0.0
 11
197.8634398968594
 21
141.89186057915589
 31
0.0
  0
ARC
  5
2A38
  8
EAIT50
 10
182.86343989685619
 20
140.891860579156
 30
0.0
 40
1.0
 50
90.0
 51
180.0
  0
LINE
  5
2A37
  8
EAIT50
 10
181.86343989685619
 20
133.89186057915279
 30
0.0
 11
181.86343989685619
 21
140.891860579156
 31
0.0
  0
ARC
  5
29F5
  8
EAIT50
 10
194.86343989685599
 20
142.89186057913469
 30
0.0
 40
3.9999999999999738
 50
359.2827177053224
 51
89.999999999999204
  0
LINE
  5
2A4E
  8
0
  6
CONTINUOUS
 62
     7
 10
294.64323192548648
 20
146.89186057913469
 30
0.0
 11
294.64323192548648
 21
106.89217402265859
 31
0.0
  0
LINE
  5
2A54
  8
0
  6
CONTINUOUS
 62
     7
 10
158.86343989685309
 20
222.16484563800401
 30
0.0
 11
198.8634398968594
 21
222.16484563800401
 31
0.0
  0
TEXT
  5
2BA5
  8
0
 62
     3
 10
0.0
 20
0.0
 30
0.0
 40
10.0
  1
CPL4040N2
  7
STANDARD1
  0
ENDSEC
  0
EOF
