  0
SECTION
  2
HEADER
  9
$ACADVER
  1
AC1009
  9
$INSBASE
 10
0.0
 20
0.0
 30
0.0
  9
$EXTMIN
 10
0.0
 20
-2.960436562073669
 30
0.0
  9
$EXTMAX
 10
164.82291022245491
 20
112.82291022245489
 30
0.0
  9
$LIMMIN
 10
0.0
 20
0.0
  9
$LIMMAX
 10
187.5
 20
135.0
  9
$ORTHOMODE
 70
     1
  9
$REGENMODE
 70
     1
  9
$FILLMODE
 70
     1
  9
$QTEXTMODE
 70
     0
  9
$MIRRTEXT
 70
     0
  9
$DRAGMODE
 70
     2
  9
$LTSCALE
 40
5.0
  9
$OSMODE
 70
    37
  9
$ATTMODE
 70
     1
  9
$TEXTSIZE
 40
3.0
  9
$TRACEWID
 40
0.05
  9
$TEXTSTYLE
  7
STANDARD
  9
$CLAYER
  8
0
  9
$CELTYPE
  6
BYLAYER
  9
$CECOLOR
 62
   256
  9
$DIMSCALE
 40
0.5
  9
$DIMASZ
 40
3.0
  9
$DIMEXO
 40
2.0
  9
$DIMDLI
 40
0.38
  9
$DIMRND
 40
0.0
  9
$DIMDLE
 40
0.0
  9
$DIMEXE
 40
2.0
  9
$DIMTP
 40
0.0
  9
$DIMTM
 40
0.0
  9
$DIMTXT
 40
3.0
  9
$DIMCEN
 40
0.0
  9
$DIMTSZ
 40
0.0
  9
$DIMTOL
 70
     0
  9
$DIMLIM
 70
     0
  9
$DIMTIH
 70
     0
  9
$DIMTOH
 70
     0
  9
$DIMSE1
 70
     0
  9
$DIMSE2
 70
     0
  9
$DIMTAD
 70
     1
  9
$DIMZIN
 70
     0
  9
$DIMBLK
  1

  9
$DIMASO
 70
     0
  9
$DIMSHO
 70
     0
  9
$DIMPOST
  1

  9
$DIMAPOST
  1

  9
$DIMALT
 70
     0
  9
$DIMALTD
 70
     2
  9
$DIMALTF
 40
25.399999999999999
  9
$DIMLFAC
 40
1.0
  9
$DIMTOFL
 70
     1
  9
$DIMTVP
 40
1.6000000000000001
  9
$DIMTIX
 70
     1
  9
$DIMSOXD
 70
     0
  9
$DIMSAH
 70
     0
  9
$DIMBLK1
  1

  9
$DIMBLK2
  1

  9
$DIMSTYLE
  2
STANDARD
  9
$DIMCLRD
 70
     0
  9
$DIMCLRE
 70
     0
  9
$DIMCLRT
 70
     0
  9
$DIMTFAC
 40
1.0
  9
$DIMGAP
 40
0.09
  9
$LUNITS
 70
     2
  9
$LUPREC
 70
     1
  9
$SKETCHINC
 40
0.1
  9
$FILLETRAD
 40
0.0
  9
$AUNITS
 70
     0
  9
$AUPREC
 70
     1
  9
$MENU
  1
E:\r13\win\SUPPORT\ACAD
  9
$ELEVATION
 40
0.0
  9
$PELEVATION
 40
0.0
  9
$THICKNESS
 40
0.0
  9
$LIMCHECK
 70
     0
  9
$BLIPMODE
 70
     0
  9
$CHAMFERA
 40
0.0
  9
$CHAMFERB
 40
0.0
  9
$SKPOLY
 70
     0
  9
$TDCREATE
 40
2449840.6523611108
  9
$TDUPDATE
 40
2458836.656501933
  9
$TDINDWG
 40
0.3227544444
  9
$TDUSRTIMER
 40
0.3227544444
  9
$USRTIMER
 70
     1
  9
$ANGBASE
 50
0.0
  9
$ANGDIR
 70
     0
  9
$PDMODE
 70
     0
  9
$PDSIZE
 40
0.0
  9
$PLINEWID
 40
0.0
  9
$COORDS
 70
     1
  9
$SPLFRAME
 70
     0
  9
$SPLINETYPE
 70
     6
  9
$SPLINESEGS
 70
     8
  9
$ATTDIA
 70
     0
  9
$ATTREQ
 70
     1
  9
$HANDLING
 70
     1
  9
$HANDSEED
  5
C5E
  9
$SURFTAB1
 70
     6
  9
$SURFTAB2
 70
     6
  9
$SURFTYPE
 70
     6
  9
$SURFU
 70
     6
  9
$SURFV
 70
     6
  9
$UCSNAME
  2

  9
$UCSORG
 10
0.0
 20
0.0
 30
0.0
  9
$UCSXDIR
 10
1.0
 20
0.0
 30
0.0
  9
$UCSYDIR
 10
0.0
 20
1.0
 30
0.0
  9
$PUCSNAME
  2

  9
$PUCSORG
 10
0.0
 20
0.0
 30
0.0
  9
$PUCSXDIR
 10
1.0
 20
0.0
 30
0.0
  9
$PUCSYDIR
 10
0.0
 20
1.0
 30
0.0
  9
$USERI1
 70
     0
  9
$USERI2
 70
     1
  9
$USERI3
 70
     1
  9
$USERI4
 70
     0
  9
$USERI5
 70
     0
  9
$USERR1
 40
0.0
  9
$USERR2
 40
0.0
  9
$USERR3
 40
0.0
  9
$USERR4
 40
0.0
  9
$USERR5
 40
0.0
  9
$WORLDVIEW
 70
     1
  9
$SHADEDGE
 70
     3
  9
$SHADEDIF
 70
    70
  9
$TILEMODE
 70
     1
  9
$MAXACTVP
 70
    16
  9
$PLIMCHECK
 70
     0
  9
$PEXTMIN
 10
1.0000000000000000E+020
 20
1.0000000000000000E+020
 30
1.0000000000000000E+020
  9
$PEXTMAX
 10
-1.0000000000000000E+020
 20
-1.0000000000000000E+020
 30
-1.0000000000000000E+020
  9
$PLIMMIN
 10
0.0
 20
0.0
  9
$PLIMMAX
 10
12.0
 20
9.0
  9
$UNITMODE
 70
     0
  9
$VISRETAIN
 70
     0
  9
$PLINEGEN
 70
     0
  9
$PSLTSCALE
 70
     0
  0
ENDSEC
  0
SECTION
  2
TABLES
  0
TABLE
  2
VPORT
 70
     1
  0
VPORT
  2
*ACTIVE
 70
     0
 10
0.0
 20
0.0
 11
1.0
 21
1.0
 12
241.56441717791409
 22
100.0
 13
0.0
 23
0.0
 14
5.0
 24
5.0
 15
5.0
 25
5.0
 16
0.0
 26
0.0
 36
1.0
 17
0.0
 27
0.0
 37
0.0
 40
200.0
 41
2.415644171779141
 42
50.0
 43
0.0
 44
0.0
 50
0.0
 51
0.0
 71
     0
 72
   500
 73
     1
 74
     0
 75
     0
 76
     0
 77
     0
 78
     2
  0
ENDTAB
  0
TABLE
  2
LTYPE
 70
     3
  0
LTYPE
  2
CONTINUOUS
 70
     0
  3
Solid Line
 72
    65
 73
     0
 40
0.0
  0
LTYPE
  2
CENTER
 70
     0
  3
____ _ ____ _ ____ _ ____ _ ____ _ ____ _ ____
 72
    65
 73
     4
 40
2.0
 49
1.25
 49
-0.25
 49
0.25
 49
-0.25
  0
LTYPE
  2
PHANTOM2
 70
     0
  3
___ _ _ ___ _ _ ___ _ _ ___ _ _
 72
    65
 73
     6
 40
1.25
 49
0.625
 49
-0.125
 49
0.125
 49
-0.125
 49
0.125
 49
-0.125
  0
ENDTAB
  0
TABLE
  2
LAYER
 70
     3
  0
LAYER
  2
0
 70
     0
 62
     7
  6
CONTINUOUS
  0
LAYER
  2
1
 70
     0
 62
     1
  6
CENTER
  0
LAYER
  2
DEFPOINTS
 70
     0
 62
     7
  6
CONTINUOUS
  0
ENDTAB
  0
TABLE
  2
STYLE
 70
     2
  0
STYLE
  2
STANDARD
 70
     0
 40
0.0
 41
1.0
 50
0.0
 71
     0
 42
3.0
  3
TXT
  4
BIGFONT
  0
STYLE
  2
STANDARD1
 70
     0
 40
0.0
 41
1.0
 50
0.0
 71
     0
 42
3.0
  3
txt
  4

  0
ENDTAB
  0
TABLE
  2
VIEW
 70
     0
  0
ENDTAB
  0
TABLE
  2
UCS
 70
     0
  0
ENDTAB
  0
TABLE
  2
APPID
 70
     6
  0
APPID
  2
ACAD
 70
     0
  0
APPID
  2
ACAD_MLEADERVER
 70
     0
  0
APPID
  2
ACAD_EXEMPT_FROM_CAD_STANDARDS
 70
     0
  0
APPID
  2
ACAD_NAV_VCDISPLAY
 70
     0
  0
APPID
  2
ACAD_DSTYLE_DIMJAG
 70
     0
  0
APPID
  2
ACAD_DSTYLE_DIMTALN
 70
     0
  0
ENDTAB
  0
TABLE
  2
DIMSTYLE
 70
     1
  0
DIMSTYLE
  2
STANDARD
 70
     0
  3

  4

  5

  6

  7

 40
1.0
 41
0.18
 42
0.0625
 43
0.38
 44
0.18
 45
0.0
 46
0.0
 47
0.0
 48
0.0
140
0.18
141
0.09
142
0.0
143
25.399999999999999
144
1.0
145
0.0
146
1.0
147
0.09
 71
     0
 72
     0
 73
     1
 74
     1
 75
     0
 76
     0
 77
     0
 78
     0
170
     0
171
     2
172
     0
173
     0
174
     0
175
     0
176
     0
177
     0
178
     0
  0
ENDTAB
  0
ENDSEC
  0
SECTION
  2
BLOCKS
  0
BLOCK
  8
0
  2
$MODEL_SPACE
 70
     0
 10
0.0
 20
0.0
 30
0.0
  3
$MODEL_SPACE
  1

  0
ENDBLK
  5
5CB
  8
0
  0
BLOCK
 67
     1
  8
0
  2
$PAPER_SPACE
 70
     0
 10
0.0
 20
0.0
 30
0.0
  3
$PAPER_SPACE
  1

  0
ENDBLK
  5
5C9
 67
     1
  8
0
  0
ENDSEC
  0
SECTION
  2
ENTITIES
  0
TEXT
  5
6F8
  8
0
 62
     3
 10
0.0
 20
0.0
 30
0.0
 40
10.0
  1
CRC-10-PET
  7
STANDARD1
  0
LINE
  5
B4A
  8
1
 10
35.322910222454993
 20
112.82291022245489
 30
0.0
 11
35.322910222454972
 21
93.822910222454965
 31
0.0
  0
LINE
  5
B4B
  8
1
 10
25.82291022245499
 20
103.32291022245499
 30
0.0
 11
44.822910222454993
 21
103.32291022245489
 31
0.0
  0
LINE
  5
B50
  8
1
 10
35.022910222454982
 20
112.8181721988303
 30
0.0
 11
35.022910222454982
 21
93.827648246079576
 31
0.0
  0
LINE
  5
B54
  8
0
 10
30.97034358295079
 20
106.63324003907
 30
0.0
 11
30.178606195156728
 21
107.29758658915731
 31
0.0
  0
ARC
  5
B55
  8
0
 10
31.291737387794061
 20
107.0162622606295
 30
0.0
 40
0.5
 50
230.00000000000239
 51
315.2918642351068
  0
LINE
  5
B56
  8
0
 10
30.178606195156728
 20
99.348233855752625
 30
0.0
 11
30.97034358295079
 21
100.0125804058398
 31
0.0
  0
ARC
  5
B57
  8
0
 10
30.5
 20
98.965211634193125
 30
0.0
 40
0.4999999999999992
 50
129.99999999999761
 51
222.0991157124659
  0
ARC
  5
B58
  8
0
 10
35.022910222454982
 20
103.32291022245489
 30
0.0
 40
4.75
 50
224.70813576489331
 51
135.29186423510669
  0
ARC
  5
B59
  8
0
 10
31.291737387794061
 20
99.629558184280384
 30
0.0
 40
0.5
 50
44.708135764893271
 51
129.99999999999761
  0
ARC
  5
B5A
  8
0
 10
35.322910222454993
 20
103.32291022245489
 30
0.0
 40
7.0
 50
222.0991157124659
 51
137.9008842875341
  0
ARC
  5
B5B
  8
0
 10
30.5
 20
107.68060881071681
 30
0.0
 40
0.4999999999999984
 50
137.9008842875341
 51
230.00000000000239
  0
LINE
  5
B5E
  8
0
 10
62.322910222454993
 20
110.32291022245489
 30
0.0
 11
162.32291022245491
 21
110.32291022245489
 31
0.0
  0
LINE
  5
B5F
  8
1
 10
59.822910222454993
 20
103.32291022245489
 30
0.0
 11
164.82291022245491
 21
103.32291022245489
 31
0.0
  0
LINE
  5
B60
  8
0
 10
62.322910222454993
 20
96.322910222454965
 30
0.0
 11
162.32291022245491
 21
96.322910222454965
 31
0.0
  0
LINE
  5
B61
  8
0
 10
62.322910222454993
 20
110.32291022245489
 30
0.0
 11
62.322910222454993
 21
96.322910222454965
 31
0.0
  0
LINE
  5
B63
  8
0
 10
162.32291022245491
 20
110.32291022245489
 30
0.0
 11
162.32291022245491
 21
96.322910222454965
 31
0.0
  0
LINE
  5
B77
  8
0
 10
162.32291022245491
 20
76.322910222454979
 30
0.0
 11
62.322910222454993
 21
76.322910222454979
 31
0.0
  0
LINE
  5
B78
  8
1
 10
164.82291022245491
 20
69.322910222454965
 30
0.0
 11
59.822910222454993
 21
69.322910222454965
 31
0.0
  0
LINE
  5
B79
  8
1
 10
164.82291022245491
 20
69.022910222454954
 30
0.0
 11
59.822910222454993
 21
69.022910222454954
 31
0.0
  0
LINE
  5
B7A
  8
0
 10
162.32291022245491
 20
63.999999999999979
 30
0.0
 11
62.322910222454993
 21
63.999999999999979
 31
0.0
  0
LINE
  5
B7B
  8
0
 10
62.322910222454993
 20
76.322910222454979
 30
0.0
 11
62.322910222454993
 21
63.999999999999979
 31
0.0
  0
LINE
  5
B7C
  8
0
 10
162.32291022245491
 20
63.999999999999979
 30
0.0
 11
162.32291022245491
 21
76.322910222454979
 31
0.0
  0
LINE
  5
B99
  8
0
 10
62.322910222454993
 20
43.999999999999979
 30
0.0
 11
162.32291022245491
 21
43.999999999999979
 31
0.0
  0
LINE
  5
B9A
  8
0
 10
62.322910222454993
 20
29.999999999999989
 30
0.0
 11
162.32291022245491
 21
29.999999999999989
 31
0.0
  0
LINE
  5
B9B
  8
0
 10
62.322910222454993
 20
29.999999999999989
 30
0.0
 11
62.322910222454993
 21
43.999999999999979
 31
0.0
  0
LINE
  5
B9C
  8
0
 10
162.32291022245491
 20
29.999999999999989
 30
0.0
 11
162.32291022245491
 21
43.999999999999979
 31
0.0
  0
LINE
  5
B9D
  8
1
 10
164.82291022245491
 20
36.999999999999957
 30
0.0
 11
59.822910222454993
 21
36.999999999999957
 31
0.0
  0
LINE
  5
BA9
  8
0
 10
162.32291022245491
 20
40.193352038174567
 30
0.0
 11
62.322910222454993
 21
40.193352038174567
 31
0.0
  0
LINE
  5
BAA
  8
0
 10
162.32291022245491
 20
33.806647961825391
 30
0.0
 11
62.322910222454993
 21
33.806647961825391
 31
0.0
  0
LINE
  5
BAB
  8
0
 10
62.322910222454993
 20
41.35769858826184
 30
0.0
 11
162.32291022245491
 21
41.35769858826184
 31
0.0
  0
LINE
  5
BAC
  8
0
 10
62.322910222454993
 20
32.676748215221082
 30
0.0
 11
162.32291022245491
 21
32.676748215221082
 31
0.0
  0
ENDSEC
  0
EOF
