  0
SECTION
  2
HEADER
  9
$ACADVER
  1
AC1009
  9
$INSBASE
 10
0.0
 20
0.0
 30
0.0
  9
$EXTMIN
 10
0.0
 20
-2.960436562073669
 30
0.0
  9
$EXTMAX
 10
359.00325147455072
 20
229.51888489208631
 30
0.0
  9
$LIMMIN
 10
0.0
 20
0.0
  9
$LIMMAX
 10
375.0
 20
270.0
  9
$ORTHOMODE
 70
     1
  9
$REGENMODE
 70
     1
  9
$FILLMODE
 70
     1
  9
$QTEXTMODE
 70
     0
  9
$MIRRTEXT
 70
     0
  9
$DRAGMODE
 70
     2
  9
$LTSCALE
 40
10.0
  9
$OSMODE
 70
  3071
  9
$ATTMODE
 70
     1
  9
$TEXTSIZE
 40
0.2
  9
$TRACEWID
 40
0.05
  9
$TEXTSTYLE
  7
K50
  9
$CLAYER
  8
3
  9
$CELTYPE
  6
BYLAYER
  9
$CECOLOR
 62
   256
  9
$DIMSCALE
 40
1.0
  9
$DIMASZ
 40
3.0
  9
$DIMEXO
 40
2.0
  9
$DIMDLI
 40
0.38
  9
$DIMRND
 40
0.0
  9
$DIMDLE
 40
0.0
  9
$DIMEXE
 40
2.0
  9
$DIMTP
 40
0.0
  9
$DIMTM
 40
0.0
  9
$DIMTXT
 40
3.2000000000000002
  9
$DIMCEN
 40
0.0
  9
$DIMTSZ
 40
0.0
  9
$DIMTOL
 70
     0
  9
$DIMLIM
 70
     0
  9
$DIMTIH
 70
     0
  9
$DIMTOH
 70
     0
  9
$DIMSE1
 70
     0
  9
$DIMSE2
 70
     0
  9
$DIMTAD
 70
     1
  9
$DIMZIN
 70
     0
  9
$DIMBLK
  1

  9
$DIMASO
 70
     0
  9
$DIMSHO
 70
     0
  9
$DIMPOST
  1

  9
$DIMAPOST
  1

  9
$DIMALT
 70
     0
  9
$DIMALTD
 70
     2
  9
$DIMALTF
 40
25.399999999999999
  9
$DIMLFAC
 40
1.0
  9
$DIMTOFL
 70
     1
  9
$DIMTVP
 40
1.6000000000000001
  9
$DIMTIX
 70
     1
  9
$DIMSOXD
 70
     0
  9
$DIMSAH
 70
     0
  9
$DIMBLK1
  1

  9
$DIMBLK2
  1

  9
$DIMSTYLE
  2
STANDARD
  9
$DIMCLRD
 70
     0
  9
$DIMCLRE
 70
     0
  9
$DIMCLRT
 70
     0
  9
$DIMTFAC
 40
1.0
  9
$DIMGAP
 40
0.09
  9
$LUNITS
 70
     2
  9
$LUPREC
 70
     4
  9
$SKETCHINC
 40
0.1
  9
$FILLETRAD
 40
0.0
  9
$AUNITS
 70
     0
  9
$AUPREC
 70
     4
  9
$MENU
  1
E:\r13\win\SUPPORT\ACAD
  9
$ELEVATION
 40
0.0
  9
$PELEVATION
 40
0.0
  9
$THICKNESS
 40
0.0
  9
$LIMCHECK
 70
     0
  9
$BLIPMODE
 70
     0
  9
$CHAMFERA
 40
0.0
  9
$CHAMFERB
 40
0.0
  9
$SKPOLY
 70
     0
  9
$TDCREATE
 40
2449839.7766435179
  9
$TDUPDATE
 40
2456598.500518403
  9
$TDINDWG
 40
0.0021845833
  9
$TDUSRTIMER
 40
0.0021845833
  9
$USRTIMER
 70
     1
  9
$ANGBASE
 50
0.0
  9
$ANGDIR
 70
     0
  9
$PDMODE
 70
     0
  9
$PDSIZE
 40
0.0
  9
$PLINEWID
 40
0.0
  9
$COORDS
 70
     1
  9
$SPLFRAME
 70
     0
  9
$SPLINETYPE
 70
     6
  9
$SPLINESEGS
 70
     8
  9
$ATTDIA
 70
     0
  9
$ATTREQ
 70
     1
  9
$HANDLING
 70
     1
  9
$HANDSEED
  5
28E
  9
$SURFTAB1
 70
     6
  9
$SURFTAB2
 70
     6
  9
$SURFTYPE
 70
     6
  9
$SURFU
 70
     6
  9
$SURFV
 70
     6
  9
$UCSNAME
  2

  9
$UCSORG
 10
0.0
 20
0.0
 30
0.0
  9
$UCSXDIR
 10
1.0
 20
0.0
 30
0.0
  9
$UCSYDIR
 10
0.0
 20
1.0
 30
0.0
  9
$PUCSNAME
  2

  9
$PUCSORG
 10
0.0
 20
0.0
 30
0.0
  9
$PUCSXDIR
 10
1.0
 20
0.0
 30
0.0
  9
$PUCSYDIR
 10
0.0
 20
1.0
 30
0.0
  9
$USERI1
 70
     0
  9
$USERI2
 70
     1
  9
$USERI3
 70
     0
  9
$USERI4
 70
     0
  9
$USERI5
 70
     0
  9
$USERR1
 40
0.0
  9
$USERR2
 40
0.0
  9
$USERR3
 40
0.0
  9
$USERR4
 40
0.0
  9
$USERR5
 40
0.0
  9
$WORLDVIEW
 70
     1
  9
$SHADEDGE
 70
     3
  9
$SHADEDIF
 70
    70
  9
$TILEMODE
 70
     1
  9
$MAXACTVP
 70
    16
  9
$PLIMCHECK
 70
     0
  9
$PEXTMIN
 10
1.0000000000000000E+020
 20
1.0000000000000000E+020
 30
1.0000000000000000E+020
  9
$PEXTMAX
 10
-1.0000000000000000E+020
 20
-1.0000000000000000E+020
 30
-1.0000000000000000E+020
  9
$PLIMMIN
 10
0.0
 20
0.0
  9
$PLIMMAX
 10
12.0
 20
9.0
  9
$UNITMODE
 70
     0
  9
$VISRETAIN
 70
     0
  9
$PLINEGEN
 70
     0
  9
$PSLTSCALE
 70
     0
  0
ENDSEC
  0
SECTION
  2
TABLES
  0
TABLE
  2
VPORT
 70
     1
  0
VPORT
  2
*ACTIVE
 70
     0
 10
0.0
 20
0.0
 11
1.0
 21
1.0
 12
195.0581083320873
 22
133.5127261426681
 13
0.0
 23
0.0
 14
10.0
 24
10.0
 15
10.0
 25
10.0
 16
0.0
 26
0.0
 36
1.0
 17
0.0
 27
0.0
 37
0.0
 40
275.42274993631997
 41
1.831871345029239
 42
50.0
 43
0.0
 44
0.0
 50
0.0
 51
0.0
 71
     0
 72
   500
 73
     1
 74
     0
 75
     0
 76
     0
 77
     0
 78
     2
  0
ENDTAB
  0
TABLE
  2
LTYPE
 70
     4
  0
LTYPE
  2
CONTINUOUS
 70
     0
  3
Solid Line
 72
    65
 73
     0
 40
0.0
  0
LTYPE
  2
CENTER
 70
     0
  3
____ _ ____ _ ____ _ ____ _ ____ _ ____ _ ____
 72
    65
 73
     4
 40
2.0
 49
1.25
 49
-0.25
 49
0.25
 49
-0.25
  0
LTYPE
  2
HIDDEN
 70
     0
  3
_ _ _ _ _ _ _ _ _ _ _ _ _ _ _ _ _ _ _ _ _ _ _
 72
    65
 73
     2
 40
0.375
 49
0.25
 49
-0.125
  0
LTYPE
  2
PHANTOM2
 70
     0
  3
___ _ _ ___ _ _ ___ _ _ ___ _ _
 72
    65
 73
     6
 40
1.25
 49
0.625
 49
-0.125
 49
0.125
 49
-0.125
 49
0.125
 49
-0.125
  0
ENDTAB
  0
TABLE
  2
LAYER
 70
     5
  0
LAYER
  2
0
 70
     0
 62
     7
  6
CONTINUOUS
  0
LAYER
  2
1
 70
     0
 62
     1
  6
CENTER
  0
LAYER
  2
2
 70
     0
 62
     2
  6
HIDDEN
  0
LAYER
  2
3
 70
     0
 62
     3
  6
CONTINUOUS
  0
LAYER
  2
4
 70
     0
 62
     4
  6
CONTINUOUS
  0
ENDTAB
  0
TABLE
  2
STYLE
 70
     5
  0
STYLE
  2
STANDARD
 70
     0
 40
0.0
 41
1.0
 50
0.0
 71
     0
 42
0.2
  3
romans.shx
  4

  0
STYLE
  2
K80
 70
     0
 40
0.0
 41
1.0
 50
0.0
 71
     0
 42
0.2
  3
romans.shx
  4

  0
STYLE
  2
08000
 70
     0
 40
0.0
 41
1.0
 50
0.0
 71
     0
 42
4.5
  3
romans.shx
  4

  0
STYLE
  2
K50
 70
     0
 40
0.0
 41
1.0
 50
0.0
 71
     0
 42
0.2
  3
romans.shx
  4

  0
STYLE
  2
STANDARD1
 70
     0
 40
0.0
 41
1.0
 50
0.0
 71
     0
 42
3.0
  3
txt
  4

  0
ENDTAB
  0
TABLE
  2
VIEW
 70
     1
  0
VIEW
  2
ALL
 70
     0
 40
270.0
 10
220.99159663865549
 20
135.0
 41
0.0
 11
0.0
 21
0.0
 31
1.0
 12
0.0
 22
0.0
 32
0.0
 42
0.0
 43
0.0
 44
0.0
 50
0.0
 71
     0
  0
ENDTAB
  0
TABLE
  2
UCS
 70
     0
  0
ENDTAB
  0
TABLE
  2
APPID
 70
     3
  0
APPID
  2
ACAD
 70
     0
  0
APPID
  2
ACAD_MLEADERVER
 70
     0
  0
APPID
  2
ACAD_NAV_VCDISPLAY
 70
     0
  0
ENDTAB
  0
TABLE
  2
DIMSTYLE
 70
     1
  0
DIMSTYLE
  2
STANDARD
 70
     0
  3

  4

  5

  6

  7

 40
1.0
 41
0.18
 42
0.0625
 43
0.38
 44
0.18
 45
0.0
 46
0.0
 47
0.0
 48
0.0
140
0.18
141
0.09
142
0.0
143
25.399999999999999
144
1.0
145
0.0
146
1.0
147
0.09
 71
     0
 72
     0
 73
     1
 74
     1
 75
     0
 76
     0
 77
     0
 78
     0
170
     0
171
     2
172
     0
173
     0
174
     0
175
     0
176
     0
177
     0
178
     0
  0
ENDTAB
  0
ENDSEC
  0
SECTION
  2
BLOCKS
  0
BLOCK
  8
0
  2
$MODEL_SPACE
 70
     0
 10
0.0
 20
0.0
 30
0.0
  3
$MODEL_SPACE
  1

  0
ENDBLK
  5
11D
  8
0
  0
BLOCK
 67
     1
  8
0
  2
$PAPER_SPACE
 70
     0
 10
0.0
 20
0.0
 30
0.0
  3
$PAPER_SPACE
  1

  0
ENDBLK
  5
11B
 67
     1
  8
0
  0
ENDSEC
  0
SECTION
  2
ENTITIES
  0
LINE
  5
5F
  8
0
 10
131.6181760425084
 20
229.51888489208631
 30
0.0
 11
131.6181760425084
 21
189.51888489208631
 31
0.0
  0
LINE
  5
60
  8
0
 10
166.0
 20
229.51888489208631
 30
0.0
 11
166.0
 21
189.51888489208631
 31
0.0
  0
CIRCLE
  5
61
  8
0
 10
102.0
 20
209.51888489208631
 30
0.0
 40
10.5
  0
ARC
  5
62
  8
0
 10
182.0
 20
209.51888489208631
 30
0.0
 40
6.5
 50
90.0
 51
270.0
  0
ARC
  5
63
  8
0
 10
272.0
 20
209.51888489208631
 30
0.0
 40
6.5
 50
270.0
 51
90.0
  0
ARC
  5
64
  8
0
 10
288.0
 20
225.51888489208631
 30
0.0
 40
4.0
 50
0.0
 51
90.0
  0
ARC
  5
65
  8
0
 10
288.0
 20
193.51888489208631
 30
0.0
 40
4.0
 50
270.0
 51
0.0
  0
ARC
  5
66
  8
0
 10
86.0
 20
193.51888489208631
 30
0.0
 40
4.0
 50
180.0
 51
269.99999999999989
  0
ARC
  5
67
  8
0
 10
86.0
 20
225.51888489208631
 30
0.0
 40
4.0
 50
90.0
 51
179.99999999999989
  0
LINE
  5
68
  8
0
 10
272.0
 20
203.01888489208631
 30
0.0
 11
182.0
 21
203.01888489208631
 31
0.0
  0
LINE
  5
69
  8
0
 10
272.0
 20
216.01888489208639
 30
0.0
 11
182.0
 21
216.01888489208639
 31
0.0
  0
LINE
  5
6A
  8
1
 10
102.0
 20
225.01888489208631
 30
0.0
 11
102.0
 21
194.01888489208631
 31
0.0
  0
LINE
  5
6B
  8
0
 10
82.0
 20
225.51888489208631
 30
0.0
 11
82.0
 21
193.51888489208631
 31
0.0
  0
LINE
  5
6C
  8
0
 10
292.0
 20
225.51888489208631
 30
0.0
 11
292.0
 21
193.51888489208631
 31
0.0
  0
LINE
  5
6D
  8
1
 10
272.0
 20
221.01888489208631
 30
0.0
 11
272.0
 21
197.51888489208631
 31
0.0
  0
LINE
  5
6E
  8
0
 10
86.0
 20
189.51888489208631
 30
0.0
 11
288.0
 21
189.51888489208631
 31
0.0
  0
LINE
  5
6F
  8
0
 10
86.0
 20
229.51888489208631
 30
0.0
 11
288.0
 21
229.51888489208631
 31
0.0
  0
LINE
  5
70
  8
1
 10
182.0
 20
221.01888489208631
 30
0.0
 11
182.0
 21
197.51888489208631
 31
0.0
  0
LINE
  5
71
  8
1
 10
72.0
 20
209.51888489208631
 30
0.0
 11
302.0
 21
209.51888489208631
 31
0.0
  0
ARC
  5
72
  8
0
 10
128.38182395749149
 20
142.03956834532369
 30
0.0
 40
6.0
 50
59.813320336253682
 51
89.999999999999986
  0
ARC
  5
73
  8
0
 10
128.3818239574916
 20
142.03956834532369
 30
0.0
 40
12.0
 50
59.813320336253682
 51
89.999999999999986
  0
ARC
  5
74
  8
0
 10
167.61817604250831
 20
140.03956834532369
 30
0.0
 40
12.0
 50
239.8133203362537
 51
269.99999999999989
  0
ARC
  5
75
  8
0
 10
167.6181760425084
 20
140.03956834532369
 30
0.0
 40
6.0
 50
239.8133203362537
 51
269.99999999999989
  0
LINE
  5
76
  8
0
 10
131.3987379767683
 20
147.22591868060681
 30
0.0
 11
161.5843480039548
 21
129.6668676747575
 31
0.0
  0
LINE
  5
77
  8
0
 10
164.60126202323161
 20
134.85321801004059
 30
0.0
 11
134.41565199604511
 21
152.4122690158899
 31
0.0
  0
LINE
  5
78
  8
0
 10
167.61817604250831
 20
128.03956834532369
 30
0.0
 11
292.0
 21
128.03956834532369
 31
0.0
  0
LINE
  5
79
  8
0
 10
167.6181760425084
 20
134.03956834532369
 30
0.0
 11
292.0
 21
134.03956834532369
 31
0.0
  0
LINE
  5
7A
  8
2
 10
278.5
 20
134.03956834532369
 30
0.0
 11
278.5
 21
128.03956834532369
 31
0.0
  0
LINE
  5
7B
  8
2
 10
175.5
 20
134.03956834532369
 30
0.0
 11
175.5
 21
128.03956834532369
 31
0.0
  0
LINE
  5
7C
  8
2
 10
91.5
 20
154.03956834532369
 30
0.0
 11
91.5
 21
148.03956834532369
 31
0.0
  0
LINE
  5
7D
  8
2
 10
112.5
 20
154.03956834532369
 30
0.0
 11
112.5
 21
148.03956834532369
 31
0.0
  0
LINE
  5
7E
  8
1
 10
102.0
 20
159.03956834532369
 30
0.0
 11
102.0
 21
143.03956834532369
 31
0.0
  0
LINE
  5
7F
  8
1
 10
272.0
 20
139.03956834532369
 30
0.0
 11
272.0
 21
123.0395683453237
 31
0.0
  0
LINE
  5
80
  8
1
 10
182.0
 20
139.03956834532369
 30
0.0
 11
182.0
 21
123.0395683453237
 31
0.0
  0
LINE
  5
81
  8
0
 10
292.0
 20
134.03956834532369
 30
0.0
 11
292.0
 21
128.03956834532369
 31
0.0
  0
LINE
  5
82
  8
0
 10
82.0
 20
154.03956834532369
 30
0.0
 11
128.3818239574916
 21
154.03956834532369
 31
0.0
  0
LINE
  5
83
  8
0
 10
82.0
 20
154.03956834532369
 30
0.0
 11
82.0
 21
148.03956834532369
 31
0.0
  0
LINE
  5
84
  8
0
 10
82.0
 20
148.03956834532369
 30
0.0
 11
128.38182395749149
 21
148.03956834532369
 31
0.0
  0
LINE
  5
85
  8
1
 10
72.0
 20
56.164568345323751
 30
0.0
 11
302.0
 21
56.164568345323751
 31
0.0
  0
LINE
  5
86
  8
1
 10
182.0
 20
77.664568345323744
 30
0.0
 11
182.0
 21
54.164568345323737
 31
0.0
  0
LINE
  5
87
  8
0
 10
86.0
 20
86.164568345323744
 30
0.0
 11
288.0
 21
86.164568345323744
 31
0.0
  0
LINE
  5
88
  8
0
 10
86.0
 20
46.164568345323737
 30
0.0
 11
288.0
 21
46.164568345323737
 31
0.0
  0
LINE
  5
89
  8
1
 10
272.0
 20
77.664568345323744
 30
0.0
 11
272.0
 21
54.164568345323737
 31
0.0
  0
LINE
  5
8A
  8
0
 10
292.0
 20
82.164568345323744
 30
0.0
 11
292.0
 21
50.164568345323737
 31
0.0
  0
LINE
  5
8B
  8
0
 10
82.0
 20
82.164568345323744
 30
0.0
 11
82.0
 21
50.164568345323737
 31
0.0
  0
LINE
  5
8C
  8
1
 10
102.0
 20
81.664568345323744
 30
0.0
 11
102.0
 21
50.664568345323737
 31
0.0
  0
LINE
  5
8D
  8
0
 10
272.0
 20
72.664568345323744
 30
0.0
 11
182.0
 21
72.664568345323744
 31
0.0
  0
LINE
  5
8E
  8
0
 10
272.0
 20
59.664568345323737
 30
0.0
 11
182.0
 21
59.664568345323737
 31
0.0
  0
ARC
  5
8F
  8
0
 10
86.0
 20
82.164568345323744
 30
0.0
 40
4.0
 50
90.0
 51
179.99999999999989
  0
ARC
  5
90
  8
0
 10
86.0
 20
50.164568345323737
 30
0.0
 40
4.0
 50
180.0
 51
269.99999999999989
  0
ARC
  5
91
  8
0
 10
288.0
 20
50.164568345323737
 30
0.0
 40
4.0
 50
270.0
 51
0.0
  0
ARC
  5
92
  8
0
 10
288.0
 20
82.164568345323744
 30
0.0
 40
4.0
 50
0.0
 51
90.0
  0
ARC
  5
93
  8
0
 10
272.0
 20
66.164568345323744
 30
0.0
 40
6.5
 50
270.0
 51
90.0
  0
ARC
  5
94
  8
0
 10
182.0
 20
66.164568345323744
 30
0.0
 40
6.5
 50
90.0
 51
270.0
  0
CIRCLE
  5
95
  8
0
 10
102.0
 20
66.164568345323744
 30
0.0
 40
10.5
  0
LINE
  5
96
  8
0
 10
166.0
 20
86.164568345323715
 30
0.0
 11
166.0
 21
46.164568345323737
 31
0.0
  0
LINE
  5
97
  8
0
 10
131.6181760425084
 20
86.164568345323687
 30
0.0
 11
131.6181760425084
 21
46.164568345323708
 31
0.0
  0
LINE
  5
98
  8
0
 10
319.00325147455072
 20
128.03956834532369
 30
0.0
 11
359.00325147455061
 21
128.03956834532369
 31
0.0
  0
LINE
  5
99
  8
0
 10
319.00325147455072
 20
134.0395683453236
 30
0.0
 11
359.00325147455072
 21
134.0395683453236
 31
0.0
  0
LINE
  5
9A
  8
0
 10
319.00325147455072
 20
154.03956834532369
 30
0.0
 11
359.00325147455072
 21
154.03956834532369
 31
0.0
  0
LINE
  5
9B
  8
0
 10
319.00325147455072
 20
128.03956834532369
 30
0.0
 11
319.00325147455072
 21
154.03956834532369
 31
0.0
  0
LINE
  5
9C
  8
0
 10
359.00325147455061
 20
128.03956834532369
 30
0.0
 11
359.00325147455061
 21
154.03956834532369
 31
0.0
  0
LINE
  5
9D
  8
1
 10
339.00325147455072
 20
118.0395683453237
 30
0.0
 11
339.00325147455072
 21
164.03956834532369
 31
0.0
  0
LINE
  5
9E
  8
2
 10
345.50325147455072
 20
128.03956834532369
 30
0.0
 11
345.50325147455072
 21
134.0395683453236
 31
0.0
  0
LINE
  5
9F
  8
2
 10
332.50325147455072
 20
128.03956834532369
 30
0.0
 11
332.50325147455072
 21
134.0395683453236
 31
0.0
  0
LINE
  5
A0
  8
1
 10
37.684183799870432
 20
118.0395683453237
 30
0.0
 11
37.684183799870432
 21
164.03956834532369
 31
0.0
  0
LINE
  5
A1
  8
0
 10
57.684183799870432
 20
128.03956834532369
 30
0.0
 11
57.684183799870432
 21
154.03956834532369
 31
0.0
  0
LINE
  5
A2
  8
0
 10
17.684183799870429
 20
128.03956834532369
 30
0.0
 11
17.684183799870429
 21
154.03956834532369
 31
0.0
  0
LINE
  5
A3
  8
0
 10
17.684183799870429
 20
154.03956834532369
 30
0.0
 11
57.684183799870489
 21
154.03956834532369
 31
0.0
  0
LINE
  5
A4
  8
0
 10
17.684183799870429
 20
128.03956834532369
 30
0.0
 11
57.684183799870432
 21
128.03956834532369
 31
0.0
  0
LINE
  5
A5
  8
0
 10
57.684183799870432
 20
148.03956834532369
 30
0.0
 11
17.684183799870429
 21
148.03956834532369
 31
0.0
  0
LINE
  5
A6
  8
2
 10
48.184183799870432
 20
148.03956834532369
 30
0.0
 11
48.184183799870432
 21
154.03956834532369
 31
0.0
  0
LINE
  5
A7
  8
2
 10
27.184183799870429
 20
148.03956834532369
 30
0.0
 11
27.184183799870439
 21
154.03956834532369
 31
0.0
  0
TEXT
  5
14A
  8
0
 10
152.81802416179221
 20
196.71888489208629
 30
0.0
 40
3.8897999999999788
  1
C
 50
90.0
 41
0.925497454882017
  7
08000
 72
     4
 11
150.87312416179219
 21
198.51888489208631
 31
0.0
  0
TEXT
  5
14B
  8
0
 10
152.81802416179221
 20
200.633170606372
 30
0.0
 40
3.8897999999999788
  1
R
 50
90.0
 41
0.925497454882017
  7
08000
 72
     4
 11
150.87312416179219
 21
202.51888489208631
 31
0.0
  0
TEXT
  5
14C
  8
0
 10
152.81802416179221
 20
205.1474563206578
 30
0.0
 40
3.8897999999999788
  1
T
 50
90.0
 41
0.925497454882017
  7
08000
 72
     4
 11
150.87312416179219
 21
206.51888489208631
 31
0.0
  0
TEXT
  5
14D
  8
0
 10
152.81802416179221
 20
210.80459917780061
 30
0.0
 40
3.8898000000000081
  1
2
 50
90.0
 41
0.9254974548820102
  7
08000
 72
     4
 11
150.87312416179219
 21
212.51888489208631
 31
0.0
  0
TEXT
  5
14E
  8
0
 10
152.81802416179221
 20
215.06174203494339
 30
0.0
 40
3.8898000000000081
  1
1
 50
90.0
 41
0.9254974548820102
  7
08000
 72
     4
 11
150.87312416179219
 21
216.51888489208631
 31
0.0
  0
TEXT
  5
14F
  8
0
 10
152.81802416179221
 20
218.80459917780061
 30
0.0
 40
3.8898000000000081
  1
0
 50
90.0
 41
0.9254974548820102
  7
08000
 72
     4
 11
150.87312416179219
 21
220.51888489208631
 31
0.0
  0
TEXT
  5
227
  8
0
 62
     3
 10
0.0
 20
0.0
 30
0.0
 40
10.0
  1
CRT210
  7
STANDARD1
  0
ENDSEC
  0
EOF
