  0
SECTION
  2
HEADER
  9
$ACADVER
  1
AC1009
  9
$INSBASE
 10
0.0
 20
0.0
 30
0.0
  9
$EXTMIN
 10
0.0
 20
-1.4802182810368341
 30
0.0
  9
$EXTMAX
 10
146.94648100000001
 20
100.72499999999999
 30
0.0
  9
$LIMMIN
 10
0.0
 20
0.0
  9
$LIMMAX
 10
187.5
 20
135.0
  9
$ORTHOMODE
 70
     1
  9
$REGENMODE
 70
     1
  9
$FILLMODE
 70
     1
  9
$QTEXTMODE
 70
     0
  9
$MIRRTEXT
 70
     0
  9
$DRAGMODE
 70
     2
  9
$LTSCALE
 40
5.0
  9
$OSMODE
 70
  3071
  9
$ATTMODE
 70
     1
  9
$TEXTSIZE
 40
1.6000000000000001
  9
$TRACEWID
 40
0.05
  9
$TEXTSTYLE
  7
STANDARD
  9
$CLAYER
  8
0
  9
$CELTYPE
  6
BYLAYER
  9
$CECOLOR
 62
   256
  9
$DIMSCALE
 40
0.5
  9
$DIMASZ
 40
3.0
  9
$DIMEXO
 40
2.0
  9
$DIMDLI
 40
10.0
  9
$DIMRND
 40
0.0
  9
$DIMDLE
 40
0.0
  9
$DIMEXE
 40
2.0
  9
$DIMTP
 40
0.0
  9
$DIMTM
 40
0.0
  9
$DIMTXT
 40
3.2000000000000002
  9
$DIMCEN
 40
0.09
  9
$DIMTSZ
 40
0.0
  9
$DIMTOL
 70
     0
  9
$DIMLIM
 70
     0
  9
$DIMTIH
 70
     0
  9
$DIMTOH
 70
     0
  9
$DIMSE1
 70
     0
  9
$DIMSE2
 70
     0
  9
$DIMTAD
 70
     1
  9
$DIMZIN
 70
     0
  9
$DIMBLK
  1

  9
$DIMASO
 70
     0
  9
$DIMSHO
 70
     0
  9
$DIMPOST
  1

  9
$DIMAPOST
  1

  9
$DIMALT
 70
     0
  9
$DIMALTD
 70
     2
  9
$DIMALTF
 40
25.399999999999999
  9
$DIMLFAC
 40
1.0
  9
$DIMTOFL
 70
     1
  9
$DIMTVP
 40
1.6000000000000001
  9
$DIMTIX
 70
     1
  9
$DIMSOXD
 70
     0
  9
$DIMSAH
 70
     0
  9
$DIMBLK1
  1

  9
$DIMBLK2
  1

  9
$DIMSTYLE
  2
STANDARD
  9
$DIMCLRD
 70
     0
  9
$DIMCLRE
 70
     0
  9
$DIMCLRT
 70
     0
  9
$DIMTFAC
 40
1.0
  9
$DIMGAP
 40
0.09
  9
$LUNITS
 70
     2
  9
$LUPREC
 70
     4
  9
$SKETCHINC
 40
0.1
  9
$FILLETRAD
 40
0.5
  9
$AUNITS
 70
     0
  9
$AUPREC
 70
     0
  9
$MENU
  1
E:\r13\win\SUPPORT\ACAD
  9
$ELEVATION
 40
0.0
  9
$PELEVATION
 40
0.0
  9
$THICKNESS
 40
0.0
  9
$LIMCHECK
 70
     0
  9
$BLIPMODE
 70
     0
  9
$CHAMFERA
 40
0.0
  9
$CHAMFERB
 40
0.0
  9
$SKPOLY
 70
     0
  9
$TDCREATE
 40
2449840.5948842601
  9
$TDUPDATE
 40
2456598.5012743981
  9
$TDINDWG
 40
0.0047100231
  9
$TDUSRTIMER
 40
0.0047100231
  9
$USRTIMER
 70
     1
  9
$ANGBASE
 50
0.0
  9
$ANGDIR
 70
     0
  9
$PDMODE
 70
     0
  9
$PDSIZE
 40
0.0
  9
$PLINEWID
 40
0.0
  9
$COORDS
 70
     1
  9
$SPLFRAME
 70
     0
  9
$SPLINETYPE
 70
     6
  9
$SPLINESEGS
 70
     8
  9
$ATTDIA
 70
     0
  9
$ATTREQ
 70
     1
  9
$HANDLING
 70
     1
  9
$HANDSEED
  5
2BB
  9
$SURFTAB1
 70
     6
  9
$SURFTAB2
 70
     6
  9
$SURFTYPE
 70
     6
  9
$SURFU
 70
     6
  9
$SURFV
 70
     6
  9
$UCSNAME
  2

  9
$UCSORG
 10
0.0
 20
0.0
 30
0.0
  9
$UCSXDIR
 10
1.0
 20
0.0
 30
0.0
  9
$UCSYDIR
 10
0.0
 20
1.0
 30
0.0
  9
$PUCSNAME
  2

  9
$PUCSORG
 10
0.0
 20
0.0
 30
0.0
  9
$PUCSXDIR
 10
1.0
 20
0.0
 30
0.0
  9
$PUCSYDIR
 10
0.0
 20
1.0
 30
0.0
  9
$USERI1
 70
     0
  9
$USERI2
 70
     1
  9
$USERI3
 70
     0
  9
$USERI4
 70
     0
  9
$USERI5
 70
     0
  9
$USERR1
 40
0.0
  9
$USERR2
 40
0.0
  9
$USERR3
 40
0.0
  9
$USERR4
 40
0.0
  9
$USERR5
 40
0.0
  9
$WORLDVIEW
 70
     1
  9
$SHADEDGE
 70
     3
  9
$SHADEDIF
 70
    70
  9
$TILEMODE
 70
     1
  9
$MAXACTVP
 70
    16
  9
$PLIMCHECK
 70
     0
  9
$PEXTMIN
 10
1.0000000000000000E+020
 20
1.0000000000000000E+020
 30
1.0000000000000000E+020
  9
$PEXTMAX
 10
-1.0000000000000000E+020
 20
-1.0000000000000000E+020
 30
-1.0000000000000000E+020
  9
$PLIMMIN
 10
0.0
 20
0.0
  9
$PLIMMAX
 10
12.0
 20
9.0
  9
$UNITMODE
 70
     0
  9
$VISRETAIN
 70
     0
  9
$PLINEGEN
 70
     0
  9
$PSLTSCALE
 70
     0
  0
ENDSEC
  0
SECTION
  2
TABLES
  0
TABLE
  2
VPORT
 70
     1
  0
VPORT
  2
*ACTIVE
 70
     0
 10
0.0
 20
0.0
 11
1.0
 21
1.0
 12
97.52905416604365
 22
66.75636307133405
 13
0.0
 23
0.0
 14
5.0
 24
5.0
 15
5.0
 25
5.0
 16
0.0
 26
0.0
 36
1.0
 17
0.0
 27
0.0
 37
0.0
 40
137.71137496815999
 41
1.831871345029239
 42
50.0
 43
0.0
 44
0.0
 50
0.0
 51
0.0
 71
     0
 72
   100
 73
     1
 74
     0
 75
     0
 76
     0
 77
     0
 78
     0
  0
ENDTAB
  0
TABLE
  2
LTYPE
 70
     4
  0
LTYPE
  2
CONTINUOUS
 70
     0
  3
Solid Line
 72
    65
 73
     0
 40
0.0
  0
LTYPE
  2
CENTER
 70
     0
  3
____ _ ____ _ ____ _ ____ _ ____ _ ____ _ ____
 72
    65
 73
     4
 40
2.0
 49
1.25
 49
-0.25
 49
0.25
 49
-0.25
  0
LTYPE
  2
HIDDEN
 70
     0
  3
_ _ _ _ _ _ _ _ _ _ _ _ _ _ _ _ _ _ _ _ _ _ _
 72
    65
 73
     2
 40
0.375
 49
0.25
 49
-0.125
  0
LTYPE
  2
PHANTOM2
 70
     0
  3
___ _ _ ___ _ _ ___ _ _ ___ _ _
 72
    65
 73
     6
 40
1.25
 49
0.625
 49
-0.125
 49
0.125
 49
-0.125
 49
0.125
 49
-0.125
  0
ENDTAB
  0
TABLE
  2
LAYER
 70
     4
  0
LAYER
  2
0
 70
     0
 62
     7
  6
CONTINUOUS
  0
LAYER
  2
1
 70
     0
 62
     1
  6
CENTER
  0
LAYER
  2
2
 70
     0
 62
     2
  6
HIDDEN
  0
LAYER
  2
3
 70
     0
 62
     3
  6
CONTINUOUS
  0
ENDTAB
  0
TABLE
  2
STYLE
 70
     2
  0
STYLE
  2
STANDARD
 70
     0
 40
0.0
 41
1.0
 50
0.0
 71
     0
 42
1.6000000000000001
  3
TXT
  4
BIGFONT
  0
STYLE
  2
STANDARD1
 70
     0
 40
0.0
 41
1.0
 50
0.0
 71
     0
 42
3.0
  3
txt
  4

  0
ENDTAB
  0
TABLE
  2
VIEW
 70
     1
  0
VIEW
  2
ALL
 70
     0
 40
135.0
 10
110.49579799999999
 20
67.5
 41
0.0
 11
0.0
 21
0.0
 31
1.0
 12
0.0
 22
0.0
 32
0.0
 42
0.0
 43
0.0
 44
0.0
 50
0.0
 71
     0
  0
ENDTAB
  0
TABLE
  2
UCS
 70
     0
  0
ENDTAB
  0
TABLE
  2
APPID
 70
     3
  0
APPID
  2
ACAD
 70
     0
  0
APPID
  2
ACAD_MLEADERVER
 70
     0
  0
APPID
  2
ACAD_NAV_VCDISPLAY
 70
     0
  0
ENDTAB
  0
TABLE
  2
DIMSTYLE
 70
     1
  0
DIMSTYLE
  2
STANDARD
 70
     0
  3

  4

  5

  6

  7

 40
1.0
 41
0.18
 42
0.0625
 43
0.38
 44
0.18
 45
0.0
 46
0.0
 47
0.0
 48
0.0
140
0.18
141
0.09
142
0.0
143
25.399999999999999
144
1.0
145
0.0
146
1.0
147
0.09
 71
     0
 72
     0
 73
     1
 74
     1
 75
     0
 76
     0
 77
     0
 78
     0
170
     0
171
     2
172
     0
173
     0
174
     0
175
     0
176
     0
177
     0
178
     0
  0
ENDTAB
  0
ENDSEC
  0
SECTION
  2
BLOCKS
  0
BLOCK
  8
0
  2
$MODEL_SPACE
 70
     0
 10
0.0
 20
0.0
 30
0.0
  3
$MODEL_SPACE
  1

  0
ENDBLK
  5
16F
  8
0
  0
BLOCK
 67
     1
  8
0
  2
$PAPER_SPACE
 70
     0
 10
0.0
 20
0.0
 30
0.0
  3
$PAPER_SPACE
  1

  0
ENDBLK
  5
16D
 67
     1
  8
0
  0
ENDSEC
  0
SECTION
  2
ENTITIES
  0
LINE
  5
36
  8
1
 10
86.970714000000001
 20
68.599032999999991
 30
0.0
 11
108.970714
 21
68.599032999999991
 31
0.0
  0
LINE
  5
37
  8
1
 10
138.672979
 20
76.872534999999999
 30
0.0
 11
138.672979
 21
60.325530000000001
 31
0.0
  0
LINE
  5
38
  8
0
 10
133.672979
 20
71.485783999999995
 30
0.0
 11
133.672979
 21
65.712281000000004
 31
0.0
  0
LINE
  5
39
  8
0
 10
138.672979
 20
74.372534999999999
 30
0.0
 11
133.672979
 21
71.485783999999995
 31
0.0
  0
LINE
  5
3A
  8
0
 10
143.672979
 20
71.485783999999995
 30
0.0
 11
138.672979
 21
74.372534999999999
 31
0.0
  0
LINE
  5
3B
  8
0
 10
143.672979
 20
65.712281000000004
 30
0.0
 11
143.672979
 21
71.485783999999995
 31
0.0
  0
LINE
  5
3C
  8
0
 10
138.672979
 20
62.825530000000001
 30
0.0
 11
143.672979
 21
65.712281000000004
 31
0.0
  0
LINE
  5
3D
  8
0
 10
133.672979
 20
65.712281000000004
 30
0.0
 11
138.672979
 21
62.825530000000001
 31
0.0
  0
LINE
  5
3E
  8
0
 10
101.470714
 20
74.372534999999999
 30
0.0
 11
101.470714
 21
62.825530000000001
 31
0.0
  0
LINE
  5
3F
  8
0
 10
89.470714000000001
 20
70.599032999999991
 30
0.0
 11
89.470714000000001
 21
66.599032999999991
 31
0.0
  0
LINE
  5
40
  8
0
 10
104.88113199999999
 20
74.372534999999999
 30
0.0
 11
101.470714
 21
74.372534999999999
 31
0.0
  0
LINE
  5
41
  8
0
 10
104.88113199999999
 20
71.485783999999995
 30
0.0
 11
101.470714
 21
71.485783999999995
 31
0.0
  0
LINE
  5
42
  8
0
 10
106.470714
 20
66.31303299999999
 30
0.0
 11
105.327714
 21
67.456032999999991
 31
0.0
  0
LINE
  5
43
  8
0
 10
105.327714
 20
67.456032999999991
 30
0.0
 11
106.470714
 21
68.599032999999991
 31
0.0
  0
LINE
  5
44
  8
0
 10
105.327714
 20
69.742032999999992
 30
0.0
 11
106.470714
 21
70.885032999999993
 31
0.0
  0
LINE
  5
45
  8
0
 10
106.470714
 20
68.599032999999991
 30
0.0
 11
105.327714
 21
69.742032999999992
 31
0.0
  0
LINE
  5
46
  8
0
 10
106.470714
 20
70.885032999999993
 30
0.0
 11
105.327714
 21
72.028032999999994
 31
0.0
  0
CIRCLE
  5
47
  8
0
 10
138.672979
 20
68.599032999999991
 30
0.0
 40
3.96875
  0
LINE
  5
48
  8
2
 10
105.327714
 20
72.567782999999991
 30
0.0
 11
103.295714
 21
72.567782999999991
 31
0.0
  0
LINE
  5
49
  8
0
 10
105.327714
 20
73.599032999999991
 30
0.0
 11
105.327714
 21
63.599032999999999
 31
0.0
  0
LINE
  5
4A
  8
2
 10
103.295714
 20
72.567782999999991
 30
0.0
 11
103.295714
 21
64.630282999999991
 31
0.0
  0
LINE
  5
4B
  8
3
 10
134.87238300000001
 20
69.742032999999992
 30
0.0
 11
142.47357400000001
 21
69.742032999999992
 31
0.0
  0
LINE
  5
4C
  8
3
 10
134.87238300000001
 20
67.456032999999991
 30
0.0
 11
142.47357400000001
 21
67.456032999999991
 31
0.0
  0
LINE
  5
4D
  8
3
 10
136.674746
 20
72.028032999999994
 30
0.0
 11
140.671212
 21
72.028032999999994
 31
0.0
  0
LINE
  5
4E
  8
3
 10
136.674746
 20
65.170032999999975
 30
0.0
 11
140.671212
 21
65.170032999999975
 31
0.0
  0
LINE
  5
4F
  8
3
 10
135.243979
 20
66.600800000000007
 30
0.0
 11
135.243979
 21
70.597266000000005
 31
0.0
  0
LINE
  5
50
  8
3
 10
137.529979
 20
64.798436999999993
 30
0.0
 11
137.529979
 21
72.399628000000007
 31
0.0
  0
LINE
  5
51
  8
3
 10
139.815979
 20
64.798436999999993
 30
0.0
 11
139.815979
 21
72.399628000000007
 31
0.0
  0
LINE
  5
52
  8
3
 10
142.101979
 20
66.600800000000007
 30
0.0
 11
142.101979
 21
70.597266000000005
 31
0.0
  0
LINE
  5
53
  8
3
 10
138.0147659999999
 20
72.512819999999991
 30
0.0
 11
134.75919099999999
 21
69.257244999999998
 31
0.0
  0
LINE
  5
54
  8
3
 10
140.09299300000001
 20
72.30504599999999
 30
0.0
 11
134.96696499999999
 21
67.179018999999997
 31
0.0
  0
LINE
  5
55
  8
3
 10
141.479309
 20
71.405362999999994
 30
0.0
 11
135.866649
 21
65.792703000000003
 31
0.0
  0
LINE
  5
56
  8
3
 10
142.37899300000001
 20
70.019046000000003
 30
0.0
 11
137.25296499999999
 21
64.893018999999995
 31
0.0
  0
LINE
  5
57
  8
3
 10
142.5867659999999
 20
67.940820000000002
 30
0.0
 11
139.33119099999999
 21
64.685244999999995
 31
0.0
  0
LINE
  5
58
  8
3
 10
139.33119099999999
 20
72.512819999999991
 30
0.0
 11
142.5867659999999
 21
69.257244999999998
 31
0.0
  0
LINE
  5
59
  8
3
 10
137.25296499999999
 20
72.30504599999999
 30
0.0
 11
142.37899300000001
 21
67.179018999999997
 31
0.0
  0
LINE
  5
5A
  8
3
 10
135.866649
 20
71.405362999999994
 30
0.0
 11
141.479309
 21
65.792703000000003
 31
0.0
  0
LINE
  5
5B
  8
3
 10
134.96696499999999
 20
70.019046000000003
 30
0.0
 11
140.09299300000001
 21
64.893018999999995
 31
0.0
  0
LINE
  5
5C
  8
3
 10
134.75919099999999
 20
67.940820000000002
 30
0.0
 11
138.0147659999999
 21
64.685244999999995
 31
0.0
  0
CIRCLE
  5
5D
  8
0
 10
138.672979
 20
68.599032999999991
 30
0.0
 40
5.0
  0
LINE
  5
5E
  8
0
 10
105.327714
 20
73.599032999999991
 30
0.0
 11
104.88113199999999
 21
74.372534999999999
 31
0.0
  0
ARC
  5
5F
  8
0
 10
102.771891
 20
72.929159999999996
 30
0.0
 40
2.5558230000000002
 50
325.61575299999998
 51
25.615753000000002
  0
ARC
  5
60
  8
0
 10
102.771891
 20
64.268906000000001
 30
0.0
 40
2.5558230000000002
 50
334.38424700000002
 51
34.384247000000002
  0
LINE
  5
61
  8
0
 10
105.327714
 20
63.599032999999999
 30
0.0
 11
104.88113199999999
 21
62.825530000000001
 31
0.0
  0
LINE
  5
62
  8
2
 10
105.327714
 20
64.630282999999991
 30
0.0
 11
103.295714
 21
64.630282999999991
 31
0.0
  0
LINE
  5
63
  8
0
 10
106.470714
 20
66.31303299999999
 30
0.0
 11
105.327714
 21
65.170032999999975
 31
0.0
  0
LINE
  5
64
  8
0
 10
104.88113199999999
 20
65.712281000000004
 30
0.0
 11
101.470714
 21
65.712281000000004
 31
0.0
  0
LINE
  5
65
  8
0
 10
104.88113199999999
 20
62.825530000000001
 30
0.0
 11
101.470714
 21
62.825530000000001
 31
0.0
  0
ARC
  5
66
  8
0
 10
95.774296000000007
 20
68.599032999999991
 30
0.0
 40
9.5534179999999989
 50
342.41204599999998
 51
17.587954
  0
LINE
  5
67
  8
0
 10
100.970714
 20
71.599032999999991
 30
0.0
 11
90.470714000000001
 21
71.599032999999991
 31
0.0
  0
LINE
  5
68
  8
3
 10
99.470714000000001
 20
71.057532999999992
 30
0.0
 11
89.929214000000002
 21
71.057532999999992
 31
0.0
  0
LINE
  5
69
  8
3
 10
99.470714000000001
 20
66.140532999999991
 30
0.0
 11
89.929214000000002
 21
66.140532999999991
 31
0.0
  0
LINE
  5
6A
  8
0
 10
100.970714
 20
65.599032999999991
 30
0.0
 11
90.470714000000001
 21
65.599032999999991
 31
0.0
  0
LINE
  5
6B
  8
0
 10
90.470714000000001
 20
71.599032999999991
 30
0.0
 11
89.470714000000001
 21
70.599032999999991
 31
0.0
  0
LINE
  5
6C
  8
0
 10
89.470714000000001
 20
66.599032999999991
 30
0.0
 11
90.470714000000001
 21
65.599032999999991
 31
0.0
  0
LINE
  5
6D
  8
0
 10
90.470714000000001
 20
71.599032999999991
 30
0.0
 11
90.470714000000001
 21
65.599032999999991
 31
0.0
  0
LINE
  5
6E
  8
0
 10
99.470714000000001
 20
71.599032999999991
 30
0.0
 11
99.470714000000001
 21
65.599032999999991
 31
0.0
  0
LINE
  5
6F
  8
3
 10
99.470714000000001
 20
71.057532999999992
 30
0.0
 11
100.408619
 21
71.599032999999991
 31
0.0
  0
LINE
  5
70
  8
3
 10
99.470714000000001
 20
66.140532999999991
 30
0.0
 11
100.408619
 21
65.599032999999991
 31
0.0
  0
LINE
  5
71
  8
1
 10
130.39947599999999
 20
68.599032999999991
 30
0.0
 11
146.94648100000001
 21
68.599032999999991
 31
0.0
  0
ARC
  5
72
  8
0
 10
100.970714
 20
65.099032999999991
 30
0.0
 40
0.5
 50
0.0
 51
90.0
  0
ARC
  5
73
  8
0
 10
100.970714
 20
72.099032999999991
 30
0.0
 40
0.5
 50
270.0
 51
0.0
  0
LINE
  5
74
  8
1
 10
50.990652679412086
 20
68.599032999999991
 30
0.0
 11
67.537657679412092
 21
68.599032999999991
 31
0.0
  0
LINE
  5
75
  8
0
 10
54.264155679412092
 20
65.712281000000004
 30
0.0
 11
59.264155679412092
 21
62.825530000000001
 31
0.0
  0
LINE
  5
76
  8
0
 10
59.264155679412092
 20
62.825530000000001
 30
0.0
 11
64.264155679412085
 21
65.712281000000004
 31
0.0
  0
LINE
  5
77
  8
0
 10
64.264155679412085
 20
65.712281000000004
 30
0.0
 11
64.264155679412085
 21
71.485783999999995
 31
0.0
  0
LINE
  5
78
  8
0
 10
64.264155679412085
 20
71.485783999999995
 30
0.0
 11
59.264155679412092
 21
74.372534999999999
 31
0.0
  0
LINE
  5
79
  8
0
 10
59.264155679412092
 20
74.372534999999999
 30
0.0
 11
54.264155679412092
 21
71.485783999999995
 31
0.0
  0
LINE
  5
7A
  8
0
 10
54.264155679412092
 20
71.485783999999995
 30
0.0
 11
54.264155679412092
 21
65.712281000000004
 31
0.0
  0
LINE
  5
7B
  8
1
 10
59.264155679412092
 20
76.872534999999999
 30
0.0
 11
59.264155679412092
 21
60.325530000000001
 31
0.0
  0
CIRCLE
  5
7C
  8
0
 10
59.264155679412092
 20
68.599032999999991
 30
0.0
 40
2.0
  0
CIRCLE
  5
7D
  8
0
 10
59.264155679412092
 20
68.599032999999991
 30
0.0
 40
3.0
  0
CIRCLE
  5
7E
  8
3
 10
59.264155679412092
 20
68.599032999999991
 30
0.0
 40
2.458499999999999
  0
LINE
  5
7F
  8
0
 10
101.470714
 20
62.825530000000001
 30
0.0
 11
101.470714
 21
65.141944999999993
 31
0.0
  0
ARC
  5
81
  8
0
 10
100.970714
 20
48.936863000000002
 30
0.0
 40
0.5
 50
270.0
 51
0.0
  0
ARC
  5
82
  8
0
 10
100.970714
 20
41.936863000000002
 30
0.0
 40
0.5
 50
0.0
 51
90.0
  0
LINE
  5
83
  8
3
 10
99.470714000000001
 20
42.978363000000002
 30
0.0
 11
100.408619
 21
42.436863000000002
 31
0.0
  0
LINE
  5
84
  8
3
 10
99.470714000000001
 20
47.895363000000003
 30
0.0
 11
100.408619
 21
48.436863000000002
 31
0.0
  0
LINE
  5
85
  8
0
 10
99.470714000000001
 20
48.436863000000002
 30
0.0
 11
99.470714000000001
 21
42.436863000000002
 31
0.0
  0
LINE
  5
86
  8
0
 10
90.470714000000001
 20
48.436863000000002
 30
0.0
 11
90.470714000000001
 21
42.436863000000002
 31
0.0
  0
LINE
  5
87
  8
0
 10
89.470714000000001
 20
43.436863000000002
 30
0.0
 11
90.470714000000001
 21
42.436863000000002
 31
0.0
  0
LINE
  5
88
  8
0
 10
90.470714000000001
 20
48.436863000000002
 30
0.0
 11
89.470714000000001
 21
47.436863000000002
 31
0.0
  0
LINE
  5
89
  8
0
 10
100.970714
 20
42.436863000000002
 30
0.0
 11
90.470714000000001
 21
42.436863000000002
 31
0.0
  0
LINE
  5
8A
  8
3
 10
99.470714000000001
 20
42.978363000000002
 30
0.0
 11
89.929214000000002
 21
42.978363000000002
 31
0.0
  0
LINE
  5
8B
  8
3
 10
99.470714000000001
 20
47.895363000000003
 30
0.0
 11
89.929214000000002
 21
47.895363000000003
 31
0.0
  0
LINE
  5
8C
  8
0
 10
100.970714
 20
48.436863000000002
 30
0.0
 11
90.470714000000001
 21
48.436863000000002
 31
0.0
  0
LINE
  5
8D
  8
0
 10
106.470714
 20
43.150862999999987
 30
0.0
 11
105.327714
 21
42.007862999999993
 31
0.0
  0
LINE
  5
8E
  8
2
 10
105.327714
 20
41.468113000000002
 30
0.0
 11
103.295714
 21
41.468113000000002
 31
0.0
  0
LINE
  5
8F
  8
2
 10
103.295714
 20
49.405613000000002
 30
0.0
 11
103.295714
 21
41.468113000000002
 31
0.0
  0
LINE
  5
90
  8
2
 10
105.327714
 20
49.405613000000002
 30
0.0
 11
103.295714
 21
49.405613000000002
 31
0.0
  0
LINE
  5
91
  8
0
 10
106.470714
 20
47.722862999999997
 30
0.0
 11
105.327714
 21
48.865862999999997
 31
0.0
  0
LINE
  5
92
  8
0
 10
106.470714
 20
45.436863000000002
 30
0.0
 11
105.327714
 21
46.579863000000003
 31
0.0
  0
LINE
  5
93
  8
0
 10
105.327714
 20
46.579863000000003
 30
0.0
 11
106.470714
 21
47.722862999999997
 31
0.0
  0
LINE
  5
94
  8
0
 10
105.327714
 20
44.293862999999988
 30
0.0
 11
106.470714
 21
45.436863000000002
 31
0.0
  0
LINE
  5
95
  8
0
 10
106.470714
 20
43.150862999999987
 30
0.0
 11
105.327714
 21
44.293862999999988
 31
0.0
  0
LINE
  5
96
  8
0
 10
89.470714000000001
 20
47.436863000000002
 30
0.0
 11
89.470714000000001
 21
43.436863000000002
 31
0.0
  0
LINE
  5
97
  8
1
 10
86.970714000000001
 20
45.436863000000002
 30
0.0
 11
108.970714
 21
45.436863000000002
 31
0.0
  0
LINE
  5
98
  8
0
 10
104.88113199999999
 20
50.436863000000002
 30
0.0
 11
101.470714
 21
50.436863000000002
 31
0.0
  0
LINE
  5
99
  8
0
 10
104.88113199999999
 20
40.436863000000002
 30
0.0
 11
101.470714
 21
40.436863000000002
 31
0.0
  0
LINE
  5
9A
  8
0
 10
101.470714
 20
50.436863000000002
 30
0.0
 11
101.470714
 21
40.436863000000002
 31
0.0
  0
LINE
  5
9B
  8
0
 10
105.327714
 20
49.663359999999997
 30
0.0
 11
105.327714
 21
41.210366
 31
0.0
  0
LINE
  5
9C
  8
0
 10
104.88113199999999
 20
45.436863000000002
 30
0.0
 11
101.470714
 21
45.436863000000002
 31
0.0
  0
ARC
  5
9D
  8
0
 10
98.106828000000021
 20
47.936863000000002
 30
0.0
 40
7.2208860000000001
 50
339.74384199999997
 51
20.256157999999999
  0
ARC
  5
9E
  8
0
 10
98.106828000000021
 20
42.936863000000002
 30
0.0
 40
7.2208860000000001
 50
339.74384199999997
 51
20.256157999999999
  0
LINE
  5
9F
  8
0
 10
105.327714
 20
49.663359999999997
 30
0.0
 11
104.88113199999999
 21
50.436863000000002
 31
0.0
  0
LINE
  5
A0
  8
0
 10
105.327714
 20
41.210366
 30
0.0
 11
104.88113199999999
 21
40.436863000000002
 31
0.0
  0
LINE
  5
A1
  8
0
 10
105.327714
 20
91.498502999999999
 30
0.0
 11
104.88113199999999
 21
90.724999999999994
 31
0.0
  0
LINE
  5
A2
  8
0
 10
105.327714
 20
99.951498000000001
 30
0.0
 11
104.88113199999999
 21
100.72499999999999
 31
0.0
  0
ARC
  5
A3
  8
0
 10
98.106828000000021
 20
93.224999999999994
 30
0.0
 40
7.2208860000000001
 50
339.74384199999997
 51
20.256157999999999
  0
ARC
  5
A4
  8
0
 10
98.106828000000021
 20
98.224999999999994
 30
0.0
 40
7.2208860000000001
 50
339.74384199999997
 51
20.256157999999999
  0
LINE
  5
A5
  8
0
 10
104.88113199999999
 20
95.724999999999994
 30
0.0
 11
101.470714
 21
95.724999999999994
 31
0.0
  0
LINE
  5
A6
  8
0
 10
105.327714
 20
99.951498000000001
 30
0.0
 11
105.327714
 21
91.498502999999999
 31
0.0
  0
LINE
  5
A7
  8
0
 10
101.470714
 20
100.72499999999999
 30
0.0
 11
101.470714
 21
90.724999999999994
 31
0.0
  0
LINE
  5
A8
  8
0
 10
104.88113199999999
 20
90.724999999999994
 30
0.0
 11
101.470714
 21
90.724999999999994
 31
0.0
  0
LINE
  5
A9
  8
0
 10
104.88113199999999
 20
100.72499999999999
 30
0.0
 11
101.470714
 21
100.72499999999999
 31
0.0
  0
LINE
  5
AA
  8
1
 10
86.970714000000001
 20
95.724999999999994
 30
0.0
 11
108.970714
 21
95.724999999999994
 31
0.0
  0
LINE
  5
AB
  8
0
 10
89.470714000000001
 20
97.724999999999994
 30
0.0
 11
89.470714000000001
 21
93.724999999999994
 31
0.0
  0
LINE
  5
AC
  8
0
 10
106.470714
 20
93.438999999999993
 30
0.0
 11
105.327714
 21
94.582000000000008
 31
0.0
  0
LINE
  5
AD
  8
0
 10
105.327714
 20
94.582000000000008
 30
0.0
 11
106.470714
 21
95.724999999999994
 31
0.0
  0
LINE
  5
AE
  8
0
 10
105.327714
 20
96.867999999999995
 30
0.0
 11
106.470714
 21
98.01100000000001
 31
0.0
  0
LINE
  5
AF
  8
0
 10
106.470714
 20
95.724999999999994
 30
0.0
 11
105.327714
 21
96.867999999999995
 31
0.0
  0
LINE
  5
B0
  8
0
 10
106.470714
 20
98.01100000000001
 30
0.0
 11
105.327714
 21
99.153999999999996
 31
0.0
  0
LINE
  5
B1
  8
2
 10
105.327714
 20
99.693749999999994
 30
0.0
 11
103.295714
 21
99.693749999999994
 31
0.0
  0
LINE
  5
B2
  8
2
 10
103.295714
 20
99.693749999999994
 30
0.0
 11
103.295714
 21
91.756249999999994
 31
0.0
  0
LINE
  5
B3
  8
2
 10
105.327714
 20
91.756249999999994
 30
0.0
 11
103.295714
 21
91.756249999999994
 31
0.0
  0
LINE
  5
B4
  8
0
 10
106.470714
 20
93.438999999999993
 30
0.0
 11
105.327714
 21
92.296000000000006
 31
0.0
  0
LINE
  5
B5
  8
0
 10
100.970714
 20
98.724999999999994
 30
0.0
 11
90.470714000000001
 21
98.724999999999994
 31
0.0
  0
LINE
  5
B6
  8
3
 10
99.470714000000001
 20
98.183499999999995
 30
0.0
 11
89.929214000000002
 21
98.183499999999995
 31
0.0
  0
LINE
  5
B7
  8
3
 10
99.470714000000001
 20
93.266499999999979
 30
0.0
 11
89.929214000000002
 21
93.266499999999979
 31
0.0
  0
LINE
  5
B8
  8
0
 10
100.970714
 20
92.724999999999994
 30
0.0
 11
90.470714000000001
 21
92.724999999999994
 31
0.0
  0
LINE
  5
B9
  8
0
 10
90.470714000000001
 20
98.724999999999994
 30
0.0
 11
89.470714000000001
 21
97.724999999999994
 31
0.0
  0
LINE
  5
BA
  8
0
 10
89.470714000000001
 20
93.724999999999994
 30
0.0
 11
90.470714000000001
 21
92.724999999999994
 31
0.0
  0
LINE
  5
BB
  8
0
 10
90.470714000000001
 20
98.724999999999994
 30
0.0
 11
90.470714000000001
 21
92.724999999999994
 31
0.0
  0
LINE
  5
BC
  8
0
 10
99.470714000000001
 20
98.724999999999994
 30
0.0
 11
99.470714000000001
 21
92.724999999999994
 31
0.0
  0
LINE
  5
BD
  8
3
 10
99.470714000000001
 20
98.183499999999995
 30
0.0
 11
100.408619
 21
98.724999999999994
 31
0.0
  0
LINE
  5
BE
  8
3
 10
99.470714000000001
 20
93.266499999999979
 30
0.0
 11
100.408619
 21
92.724999999999994
 31
0.0
  0
ARC
  5
BF
  8
0
 10
100.970714
 20
92.224999999999994
 30
0.0
 40
0.5
 50
0.0
 51
90.0
  0
ARC
  5
C0
  8
0
 10
100.970714
 20
99.224999999999994
 30
0.0
 40
0.5
 50
270.0
 51
0.0
  0
TEXT
  5
22A
  8
0
 62
     3
 10
0.0
 20
0.0
 30
0.0
 40
5.0
  1
CT-06102
  7
STANDARD1
  0
ENDSEC
  0
EOF
