  0
SECTION
  2
HEADER
  9
$ACADVER
  1
AC1009
  9
$INSBASE
 10
0.0
 20
0.0
 30
0.0
  9
$EXTMIN
 10
0.0
 20
-1.4802182810368341
 30
0.0
  9
$EXTMAX
 10
159.41730899999999
 20
74.673679000000007
 30
0.0
  9
$LIMMIN
 10
0.0
 20
0.0
  9
$LIMMAX
 10
187.5
 20
135.0
  9
$ORTHOMODE
 70
     1
  9
$REGENMODE
 70
     1
  9
$FILLMODE
 70
     1
  9
$QTEXTMODE
 70
     0
  9
$MIRRTEXT
 70
     0
  9
$DRAGMODE
 70
     2
  9
$LTSCALE
 40
5.0
  9
$OSMODE
 70
    37
  9
$ATTMODE
 70
     1
  9
$TEXTSIZE
 40
1.6000000000000001
  9
$TRACEWID
 40
0.05
  9
$TEXTSTYLE
  7
STANDARD
  9
$CLAYER
  8
0
  9
$CELTYPE
  6
BYLAYER
  9
$CECOLOR
 62
   256
  9
$DIMSCALE
 40
0.5
  9
$DIMASZ
 40
3.0
  9
$DIMEXO
 40
2.0
  9
$DIMDLI
 40
10.0
  9
$DIMRND
 40
0.0
  9
$DIMDLE
 40
0.0
  9
$DIMEXE
 40
2.0
  9
$DIMTP
 40
0.0
  9
$DIMTM
 40
0.0
  9
$DIMTXT
 40
3.2000000000000002
  9
$DIMCEN
 40
0.09
  9
$DIMTSZ
 40
0.0
  9
$DIMTOL
 70
     0
  9
$DIMLIM
 70
     0
  9
$DIMTIH
 70
     0
  9
$DIMTOH
 70
     0
  9
$DIMSE1
 70
     0
  9
$DIMSE2
 70
     0
  9
$DIMTAD
 70
     1
  9
$DIMZIN
 70
     8
  9
$DIMBLK
  1

  9
$DIMASO
 70
     0
  9
$DIMSHO
 70
     0
  9
$DIMPOST
  1

  9
$DIMAPOST
  1

  9
$DIMALT
 70
     0
  9
$DIMALTD
 70
     2
  9
$DIMALTF
 40
25.399999999999999
  9
$DIMLFAC
 40
1.0
  9
$DIMTOFL
 70
     1
  9
$DIMTVP
 40
1.6000000000000001
  9
$DIMTIX
 70
     1
  9
$DIMSOXD
 70
     0
  9
$DIMSAH
 70
     0
  9
$DIMBLK1
  1

  9
$DIMBLK2
  1

  9
$DIMSTYLE
  2
STANDARD
  9
$DIMCLRD
 70
     0
  9
$DIMCLRE
 70
     0
  9
$DIMCLRT
 70
     0
  9
$DIMTFAC
 40
1.0
  9
$DIMGAP
 40
0.09
  9
$LUNITS
 70
     2
  9
$LUPREC
 70
     1
  9
$SKETCHINC
 40
0.1
  9
$FILLETRAD
 40
0.0
  9
$AUNITS
 70
     0
  9
$AUPREC
 70
     1
  9
$MENU
  1
E:\r13\win\SUPPORT\ACAD
  9
$ELEVATION
 40
0.0
  9
$PELEVATION
 40
0.0
  9
$THICKNESS
 40
0.0
  9
$LIMCHECK
 70
     0
  9
$BLIPMODE
 70
     0
  9
$CHAMFERA
 40
0.0
  9
$CHAMFERB
 40
0.0
  9
$SKPOLY
 70
     0
  9
$TDCREATE
 40
2449840.5948958332
  9
$TDUPDATE
 40
2457711.4314136459
  9
$TDINDWG
 40
0.0082874769
  9
$TDUSRTIMER
 40
0.0082874769
  9
$USRTIMER
 70
     1
  9
$ANGBASE
 50
0.0
  9
$ANGDIR
 70
     0
  9
$PDMODE
 70
     0
  9
$PDSIZE
 40
0.0
  9
$PLINEWID
 40
0.0
  9
$COORDS
 70
     1
  9
$SPLFRAME
 70
     0
  9
$SPLINETYPE
 70
     6
  9
$SPLINESEGS
 70
     8
  9
$ATTDIA
 70
     0
  9
$ATTREQ
 70
     1
  9
$HANDLING
 70
     1
  9
$HANDSEED
  5
429
  9
$SURFTAB1
 70
     6
  9
$SURFTAB2
 70
     6
  9
$SURFTYPE
 70
     6
  9
$SURFU
 70
     6
  9
$SURFV
 70
     6
  9
$UCSNAME
  2

  9
$UCSORG
 10
0.0
 20
0.0
 30
0.0
  9
$UCSXDIR
 10
1.0
 20
0.0
 30
0.0
  9
$UCSYDIR
 10
0.0
 20
1.0
 30
0.0
  9
$PUCSNAME
  2

  9
$PUCSORG
 10
0.0
 20
0.0
 30
0.0
  9
$PUCSXDIR
 10
1.0
 20
0.0
 30
0.0
  9
$PUCSYDIR
 10
0.0
 20
1.0
 30
0.0
  9
$USERI1
 70
     0
  9
$USERI2
 70
     1
  9
$USERI3
 70
     0
  9
$USERI4
 70
     0
  9
$USERI5
 70
     0
  9
$USERR1
 40
0.0
  9
$USERR2
 40
0.0
  9
$USERR3
 40
0.0
  9
$USERR4
 40
0.0
  9
$USERR5
 40
0.0
  9
$WORLDVIEW
 70
     1
  9
$SHADEDGE
 70
     3
  9
$SHADEDIF
 70
    70
  9
$TILEMODE
 70
     1
  9
$MAXACTVP
 70
    16
  9
$PLIMCHECK
 70
     0
  9
$PEXTMIN
 10
1.0000000000000000E+020
 20
1.0000000000000000E+020
 30
1.0000000000000000E+020
  9
$PEXTMAX
 10
-1.0000000000000000E+020
 20
-1.0000000000000000E+020
 30
-1.0000000000000000E+020
  9
$PLIMMIN
 10
0.0
 20
0.0
  9
$PLIMMAX
 10
12.0
 20
9.0
  9
$UNITMODE
 70
     0
  9
$VISRETAIN
 70
     0
  9
$PLINEGEN
 70
     0
  9
$PSLTSCALE
 70
     0
  0
ENDSEC
  0
SECTION
  2
TABLES
  0
TABLE
  2
VPORT
 70
     1
  0
VPORT
  2
*ACTIVE
 70
     0
 10
0.0
 20
0.0
 11
1.0
 21
1.0
 12
214.85923869944489
 22
118.29896907216489
 13
0.0
 23
0.0
 14
5.0
 24
5.0
 15
5.0
 25
5.0
 16
0.0
 26
0.0
 36
1.0
 17
0.0
 27
0.0
 37
0.0
 40
236.5979381443299
 41
1.816239316239316
 42
50.0
 43
0.0
 44
0.0
 50
0.0
 51
0.0
 71
     0
 72
   100
 73
     1
 74
     0
 75
     0
 76
     0
 77
     0
 78
     0
  0
ENDTAB
  0
TABLE
  2
LTYPE
 70
     4
  0
LTYPE
  2
CONTINUOUS
 70
     0
  3
Solid Line
 72
    65
 73
     0
 40
0.0
  0
LTYPE
  2
CENTER
 70
     0
  3
____ _ ____ _ ____ _ ____ _ ____ _ ____ _ ____
 72
    65
 73
     4
 40
2.0
 49
1.25
 49
-0.25
 49
0.25
 49
-0.25
  0
LTYPE
  2
HIDDEN
 70
     0
  3
_ _ _ _ _ _ _ _ _ _ _ _ _ _ _ _ _ _ _ _ _ _ _
 72
    65
 73
     2
 40
0.375
 49
0.25
 49
-0.125
  0
LTYPE
  2
PHANTOM2
 70
     0
  3
___ _ _ ___ _ _ ___ _ _ ___ _ _
 72
    65
 73
     6
 40
1.25
 49
0.625
 49
-0.125
 49
0.125
 49
-0.125
 49
0.125
 49
-0.125
  0
ENDTAB
  0
TABLE
  2
LAYER
 70
     4
  0
LAYER
  2
0
 70
     0
 62
     7
  6
CONTINUOUS
  0
LAYER
  2
1
 70
     0
 62
     1
  6
CENTER
  0
LAYER
  2
2
 70
     0
 62
     2
  6
HIDDEN
  0
LAYER
  2
3
 70
     0
 62
     3
  6
CONTINUOUS
  0
ENDTAB
  0
TABLE
  2
STYLE
 70
     2
  0
STYLE
  2
STANDARD
 70
     0
 40
0.0
 41
1.0
 50
0.0
 71
     0
 42
1.6000000000000001
  3
TXT
  4
BIGFONT
  0
STYLE
  2
STANDARD1
 70
     0
 40
0.0
 41
1.0
 50
0.0
 71
     0
 42
3.0
  3
txt
  4

  0
ENDTAB
  0
TABLE
  2
VIEW
 70
     1
  0
VIEW
  2
ALL
 70
     0
 40
135.0
 10
110.49579799999999
 20
67.5
 41
0.0
 11
0.0
 21
0.0
 31
1.0
 12
0.0
 22
0.0
 32
0.0
 42
0.0
 43
0.0
 44
0.0
 50
0.0
 71
     0
  0
ENDTAB
  0
TABLE
  2
UCS
 70
     0
  0
ENDTAB
  0
TABLE
  2
APPID
 70
     6
  0
APPID
  2
ACAD
 70
     0
  0
APPID
  2
ACAD_MLEADERVER
 70
     0
  0
APPID
  2
ACAD_EXEMPT_FROM_CAD_STANDARDS
 70
     0
  0
APPID
  2
ACAD_NAV_VCDISPLAY
 70
     0
  0
APPID
  2
ACAD_DSTYLE_DIMJAG
 70
     0
  0
APPID
  2
ACAD_DSTYLE_DIMTALN
 70
     0
  0
ENDTAB
  0
TABLE
  2
DIMSTYLE
 70
     1
  0
DIMSTYLE
  2
STANDARD
 70
     0
  3

  4

  5

  6

  7

 40
1.0
 41
0.18
 42
0.0625
 43
0.38
 44
0.18
 45
0.0
 46
0.0
 47
0.0
 48
0.0
140
0.18
141
0.09
142
0.0
143
25.399999999999999
144
1.0
145
0.0
146
1.0
147
0.09
 71
     0
 72
     0
 73
     1
 74
     1
 75
     0
 76
     0
 77
     0
 78
     0
170
     0
171
     2
172
     0
173
     0
174
     0
175
     0
176
     0
177
     0
178
     0
  0
ENDTAB
  0
ENDSEC
  0
SECTION
  2
BLOCKS
  0
BLOCK
  8
0
  2
$MODEL_SPACE
 70
     0
 10
0.0
 20
0.0
 30
0.0
  3
$MODEL_SPACE
  1

  0
ENDBLK
  5
16B
  8
0
  0
BLOCK
 67
     1
  8
0
  2
$PAPER_SPACE
 70
     0
 10
0.0
 20
0.0
 30
0.0
  3
$PAPER_SPACE
  1

  0
ENDBLK
  5
169
 67
     1
  8
0
  0
ENDSEC
  0
SECTION
  2
ENTITIES
  0
LINE
  5
36
  8
1
 10
149.411756
 20
74.673679000000007
 30
0.0
 11
149.411756
 21
54.662571999999997
 31
0.0
  0
LINE
  5
37
  8
1
 10
81.318889999999996
 20
64.668126000000001
 30
0.0
 11
113.31889
 21
64.668126000000001
 31
0.0
  0
LINE
  5
38
  8
0
 10
142.911756
 20
68.420901999999998
 30
0.0
 11
142.911756
 21
60.915348999999999
 31
0.0
  0
LINE
  5
39
  8
0
 10
149.411756
 20
72.173679000000007
 30
0.0
 11
142.911756
 21
68.420901999999998
 31
0.0
  0
LINE
  5
3A
  8
0
 10
155.911756
 20
68.420901999999998
 30
0.0
 11
149.411756
 21
72.173679000000007
 31
0.0
  0
LINE
  5
3B
  8
0
 10
155.911756
 20
60.915348999999999
 30
0.0
 11
155.911756
 21
68.420901999999998
 31
0.0
  0
LINE
  5
3C
  8
0
 10
149.411756
 20
57.162571999999997
 30
0.0
 11
155.911756
 21
60.915348999999999
 31
0.0
  0
LINE
  5
3D
  8
0
 10
142.911756
 20
60.915348999999999
 30
0.0
 11
149.411756
 21
57.162571999999997
 31
0.0
  0
CIRCLE
  5
3E
  8
0
 10
149.411756
 20
64.668126000000001
 30
0.0
 40
4.7625000000000002
  0
CIRCLE
  5
3F
  8
0
 10
149.411756
 20
64.668126000000001
 30
0.0
 40
6.5
  0
LINE
  5
40
  8
1
 10
139.40620200000001
 20
64.668126000000001
 30
0.0
 11
159.41730899999999
 21
64.668126000000001
 31
0.0
  0
LINE
  5
41
  8
3
 10
148.07825600000001
 20
69.240126000000004
 30
0.0
 11
150.74525600000001
 21
69.240126000000004
 31
0.0
  0
LINE
  5
42
  8
3
 10
144.89967999999999
 20
66.192126000000002
 30
0.0
 11
153.923832
 21
66.192126000000002
 31
0.0
  0
LINE
  5
43
  8
3
 10
144.89967999999999
 20
63.144126
 30
0.0
 11
153.923832
 21
63.144126
 31
0.0
  0
LINE
  5
44
  8
3
 10
148.07825600000001
 20
60.096125999999998
 30
0.0
 11
150.74525600000001
 21
60.096125999999998
 31
0.0
  0
LINE
  5
45
  8
3
 10
144.83975599999999
 20
63.334626
 30
0.0
 11
144.83975599999999
 21
66.001626000000002
 31
0.0
  0
LINE
  5
46
  8
3
 10
147.887756
 20
60.15605
 30
0.0
 11
147.887756
 21
69.180201999999994
 31
0.0
  0
LINE
  5
47
  8
3
 10
150.935756
 20
60.15605
 30
0.0
 11
150.935756
 21
69.180201999999994
 31
0.0
  0
LINE
  5
48
  8
3
 10
153.983756
 20
63.334626
 30
0.0
 11
153.983756
 21
66.001626000000002
 31
0.0
  0
LINE
  5
49
  8
3
 10
152.77935199999999
 20
68.035721999999993
 30
0.0
 11
146.04416000000001
 21
61.300530000000002
 31
0.0
  0
LINE
  5
4A
  8
3
 10
150.89077499999999
 20
69.195144999999997
 30
0.0
 11
144.884736
 21
63.189106000000002
 31
0.0
  0
LINE
  5
4B
  8
3
 10
153.93877499999999
 20
66.147144999999995
 30
0.0
 11
147.93273600000001
 21
60.141106000000008
 31
0.0
  0
LINE
  5
4C
  8
3
 10
153.89167699999999
 20
63.052046999999988
 30
0.0
 11
151.02783400000001
 21
60.188203999999999
 31
0.0
  0
LINE
  5
4D
  8
3
 10
147.79567700000001
 20
69.148046999999991
 30
0.0
 11
144.93183400000001
 21
66.284204000000003
 31
0.0
  0
LINE
  5
4E
  8
3
 10
151.02783400000001
 20
69.148046999999991
 30
0.0
 11
153.89167699999999
 21
66.284204000000003
 31
0.0
  0
LINE
  5
4F
  8
3
 10
147.93273600000001
 20
69.195144999999997
 30
0.0
 11
153.93877499999999
 21
63.189106000000002
 31
0.0
  0
LINE
  5
50
  8
3
 10
146.04416000000001
 20
68.035721999999993
 30
0.0
 11
152.77935199999999
 21
61.300530000000002
 31
0.0
  0
LINE
  5
51
  8
3
 10
144.884736
 20
66.147144999999995
 30
0.0
 11
150.89077499999999
 21
60.141106000000008
 31
0.0
  0
LINE
  5
52
  8
3
 10
144.93183400000001
 20
63.052046999999988
 30
0.0
 11
147.79567700000001
 21
60.188203999999999
 31
0.0
  0
LINE
  5
53
  8
1
 10
41.057115318993361
 20
64.668126000000001
 30
0.0
 11
61.068222318993357
 21
64.668126000000001
 31
0.0
  0
LINE
  5
54
  8
0
 10
44.56266931899335
 20
60.915348999999999
 30
0.0
 11
51.062669318993358
 21
57.162571999999997
 31
0.0
  0
LINE
  5
55
  8
0
 10
51.062669318993358
 20
57.162571999999997
 30
0.0
 11
57.562669318993358
 21
60.915348999999999
 31
0.0
  0
LINE
  5
56
  8
0
 10
57.562669318993358
 20
60.915348999999999
 30
0.0
 11
57.562669318993358
 21
68.420901999999998
 31
0.0
  0
LINE
  5
57
  8
0
 10
57.562669318993358
 20
68.420901999999998
 30
0.0
 11
51.062669318993358
 21
72.173679000000007
 31
0.0
  0
LINE
  5
58
  8
0
 10
51.062669318993358
 20
72.173679000000007
 30
0.0
 11
44.56266931899335
 21
68.420901999999998
 31
0.0
  0
LINE
  5
59
  8
0
 10
44.56266931899335
 20
68.420901999999998
 30
0.0
 11
44.56266931899335
 21
60.915348999999999
 31
0.0
  0
LINE
  5
5A
  8
1
 10
51.062669318993358
 20
74.673679000000007
 30
0.0
 11
51.062669318993358
 21
54.662571999999997
 31
0.0
  0
CIRCLE
  5
5B
  8
0
 10
51.062669318993358
 20
64.668126000000001
 30
0.0
 40
4.0
  0
CIRCLE
  5
5C
  8
3
 10
51.062669318993358
 20
64.668126000000001
 30
0.0
 40
3.3235000000000001
  0
LINE
  5
7D
  8
3
 10
99.818889999999996
 20
61.344625999999991
 30
0.0
 11
100.990623
 21
60.668126000000001
 31
0.0
  0
LINE
  5
7E
  8
3
 10
99.818889999999996
 20
67.991625999999997
 30
0.0
 11
100.990623
 21
68.668126000000001
 31
0.0
  0
LINE
  5
7F
  8
0
 10
87.518889999999999
 20
68.668126000000001
 30
0.0
 11
87.518889999999999
 21
60.668126000000001
 31
0.0
  0
LINE
  5
80
  8
0
 10
86.318889999999996
 20
61.868125999999997
 30
0.0
 11
87.518889999999999
 21
60.668126000000001
 31
0.0
  0
LINE
  5
81
  8
0
 10
86.318889999999996
 20
67.468125999999998
 30
0.0
 11
87.518889999999999
 21
68.668126000000001
 31
0.0
  0
LINE
  5
82
  8
0
 10
99.818889999999996
 20
68.668126000000001
 30
0.0
 11
99.818889999999996
 21
60.668126000000001
 31
0.0
  0
ARC
  5
83
  8
0
 10
101.71889
 20
60.068125999999992
 30
0.0
 40
0.6
 50
0.0
 51
90.0
  0
ARC
  5
84
  8
0
 10
101.71889
 20
69.268125999999995
 30
0.0
 40
0.6
 50
270.0
 51
0.0
  0
LINE
  5
85
  8
0
 10
106.614334
 20
57.162571999999997
 30
0.0
 11
102.31889
 21
57.162571999999997
 31
0.0
  0
LINE
  5
86
  8
0
 10
106.614334
 20
60.915348999999999
 30
0.0
 11
102.31889
 21
60.915348999999999
 31
0.0
  0
LINE
  5
87
  8
2
 10
107.19489
 20
59.905625999999998
 30
0.0
 11
105.54389
 21
59.905625999999998
 31
0.0
  0
LINE
  5
88
  8
0
 10
107.19489
 20
58.168126000000001
 30
0.0
 11
106.614334
 21
57.162571999999997
 31
0.0
  0
ARC
  5
89
  8
0
 10
103.872321
 20
59.038959999999989
 30
0.0
 40
3.3225699999999989
 50
334.38424700000002
 51
34.384247000000002
  0
LINE
  5
8A
  8
2
 10
105.54389
 20
69.430626000000004
 30
0.0
 11
105.54389
 21
59.905625999999998
 31
0.0
  0
ARC
  5
8B
  8
0
 10
94.775447000000014
 20
64.668126000000001
 30
0.0
 40
12.419442999999999
 50
342.41204599999998
 51
17.587954
  0
ARC
  5
8C
  8
0
 10
103.872321
 20
70.297291000000001
 30
0.0
 40
3.3225699999999989
 50
325.61575299999998
 51
25.615753000000002
  0
LINE
  5
8D
  8
0
 10
107.19489
 20
71.168126000000001
 30
0.0
 11
106.614334
 21
72.173679000000007
 31
0.0
  0
LINE
  5
8E
  8
0
 10
107.19489
 20
71.192126000000002
 30
0.0
 11
107.19489
 21
58.168126000000001
 31
0.0
  0
LINE
  5
8F
  8
0
 10
107.19489
 20
60.096125999999998
 30
0.0
 11
108.71889
 21
61.620125999999999
 31
0.0
  0
LINE
  5
90
  8
0
 10
108.71889
 20
67.716126000000003
 30
0.0
 11
107.19489
 21
69.240126000000004
 31
0.0
  0
LINE
  5
91
  8
0
 10
108.71889
 20
64.668126000000001
 30
0.0
 11
107.19489
 21
66.192126000000002
 31
0.0
  0
LINE
  5
92
  8
0
 10
107.19489
 20
66.192126000000002
 30
0.0
 11
108.71889
 21
67.716126000000003
 31
0.0
  0
LINE
  5
93
  8
0
 10
107.19489
 20
63.144126
 30
0.0
 11
108.71889
 21
64.668126000000001
 31
0.0
  0
LINE
  5
94
  8
0
 10
108.71889
 20
61.620125999999999
 30
0.0
 11
107.19489
 21
63.144126
 31
0.0
  0
LINE
  5
95
  8
2
 10
107.19489
 20
69.430626000000004
 30
0.0
 11
105.54389
 21
69.430626000000004
 31
0.0
  0
LINE
  5
96
  8
0
 10
106.614334
 20
68.420901999999998
 30
0.0
 11
102.31889
 21
68.420901999999998
 31
0.0
  0
LINE
  5
97
  8
0
 10
106.614334
 20
72.173679000000007
 30
0.0
 11
102.31889
 21
72.173679000000007
 31
0.0
  0
LINE
  5
98
  8
0
 10
87.518889999999999
 20
68.668126000000001
 30
0.0
 11
101.71889
 21
68.668126000000001
 31
0.0
  0
LINE
  5
99
  8
3
 10
86.842390000000009
 20
67.991625999999997
 30
0.0
 11
99.818889999999996
 21
67.991625999999997
 31
0.0
  0
LINE
  5
9A
  8
3
 10
86.842390000000009
 20
61.344625999999991
 30
0.0
 11
99.818889999999996
 21
61.344625999999991
 31
0.0
  0
LINE
  5
9B
  8
0
 10
87.518889999999999
 20
60.668126000000001
 30
0.0
 11
101.71889
 21
60.668126000000001
 31
0.0
  0
LINE
  5
9C
  8
0
 10
86.318889999999996
 20
67.468125999999998
 30
0.0
 11
86.318889999999996
 21
61.868125999999997
 31
0.0
  0
LINE
  5
9D
  8
0
 10
102.31889
 20
72.173679000000007
 30
0.0
 11
102.31889
 21
57.162571999999997
 31
0.0
  0
LINE
  5
9E
  8
1
 10
83.818889999999996
 20
64.668126000000001
 30
0.0
 11
111.21889
 21
64.668126000000001
 31
0.0
  0
LINE
  5
9F
  8
0
 10
106.614334
 20
29.679846000000001
 30
0.0
 11
102.31889
 21
29.679846000000001
 31
0.0
  0
LINE
  5
A0
  8
0
 10
106.614334
 20
42.679846000000012
 30
0.0
 11
102.31889
 21
42.679846000000012
 31
0.0
  0
LINE
  5
A1
  8
0
 10
102.31889
 20
42.679846000000012
 30
0.0
 11
102.31889
 21
29.679846000000001
 31
0.0
  0
LINE
  5
A2
  8
0
 10
107.19489
 20
41.674291999999987
 30
0.0
 11
107.19489
 21
30.685399
 31
0.0
  0
LINE
  5
A3
  8
0
 10
106.614334
 20
36.179846000000012
 30
0.0
 11
102.31889
 21
36.179846000000012
 31
0.0
  0
ARC
  5
A4
  8
0
 10
97.807738000000001
 20
32.929845999999998
 30
0.0
 40
9.3871520000000004
 50
339.74384199999997
 51
20.256157999999999
  0
ARC
  5
A5
  8
0
 10
97.807738000000001
 20
39.429846000000012
 30
0.0
 40
9.3871520000000004
 50
339.74384199999997
 51
20.256157999999999
  0
LINE
  5
A6
  8
0
 10
107.19489
 20
41.674291999999987
 30
0.0
 11
106.614334
 21
42.679846000000012
 31
0.0
  0
LINE
  5
A7
  8
0
 10
107.19489
 20
30.685399
 30
0.0
 11
106.614334
 21
29.679846000000001
 31
0.0
  0
LINE
  5
A8
  8
3
 10
99.818889999999996
 20
39.503346000000001
 30
0.0
 11
100.990623
 21
40.179846000000012
 31
0.0
  0
LINE
  5
A9
  8
3
 10
99.818889999999996
 20
32.856346000000002
 30
0.0
 11
100.990623
 21
32.179846000000012
 31
0.0
  0
LINE
  5
AA
  8
0
 10
87.518889999999999
 20
32.179846000000012
 30
0.0
 11
87.518889999999999
 21
40.179846000000012
 31
0.0
  0
LINE
  5
AB
  8
0
 10
86.318889999999996
 20
38.979846000000002
 30
0.0
 11
87.518889999999999
 21
40.179846000000012
 31
0.0
  0
LINE
  5
AC
  8
0
 10
86.318889999999996
 20
33.379846000000001
 30
0.0
 11
87.518889999999999
 21
32.179846000000012
 31
0.0
  0
LINE
  5
AD
  8
0
 10
99.818889999999996
 20
32.179846000000012
 30
0.0
 11
99.818889999999996
 21
40.179846000000012
 31
0.0
  0
ARC
  5
AE
  8
0
 10
101.71889
 20
40.779845999999992
 30
0.0
 40
0.6
 50
270.0
 51
360.0
  0
ARC
  5
AF
  8
0
 10
101.71889
 20
31.579846000000011
 30
0.0
 40
0.6
 50
360.0
 51
90.0
  0
LINE
  5
B0
  8
0
 10
87.518889999999999
 20
32.179846000000012
 30
0.0
 11
101.71889
 21
32.179846000000012
 31
0.0
  0
LINE
  5
B1
  8
3
 10
86.842390000000009
 20
32.856346000000002
 30
0.0
 11
99.818889999999996
 21
32.856346000000002
 31
0.0
  0
LINE
  5
B2
  8
3
 10
86.842390000000009
 20
39.503346000000001
 30
0.0
 11
99.818889999999996
 21
39.503346000000001
 31
0.0
  0
LINE
  5
B3
  8
0
 10
87.518889999999999
 20
40.179846000000012
 30
0.0
 11
101.71889
 21
40.179846000000012
 31
0.0
  0
LINE
  5
B4
  8
0
 10
86.318889999999996
 20
33.379846000000001
 30
0.0
 11
86.318889999999996
 21
38.979846000000002
 31
0.0
  0
LINE
  5
B5
  8
1
 10
83.818889999999996
 20
36.179846000000012
 30
0.0
 11
111.21889
 21
36.179846000000012
 31
0.0
  0
LINE
  5
B6
  8
0
 10
107.19489
 20
40.751846
 30
0.0
 11
108.71889
 21
39.227846
 31
0.0
  0
LINE
  5
B7
  8
0
 10
108.71889
 20
39.227846
 30
0.0
 11
107.19489
 21
37.703845999999999
 31
0.0
  0
LINE
  5
B8
  8
0
 10
107.19489
 20
37.703845999999999
 30
0.0
 11
108.71889
 21
36.179846000000012
 31
0.0
  0
LINE
  5
B9
  8
0
 10
108.71889
 20
36.179846000000012
 30
0.0
 11
107.19489
 21
34.655846000000011
 31
0.0
  0
LINE
  5
BA
  8
0
 10
107.19489
 20
34.655846000000011
 30
0.0
 11
108.71889
 21
33.131846000000003
 31
0.0
  0
LINE
  5
BB
  8
0
 10
108.71889
 20
33.131846000000003
 30
0.0
 11
107.19489
 21
31.607845999999999
 31
0.0
  0
LINE
  5
BC
  8
2
 10
105.54389
 20
31.417345999999998
 30
0.0
 11
105.54389
 21
40.942346000000001
 31
0.0
  0
LINE
  5
BD
  8
2
 10
107.19489
 20
31.417345999999998
 30
0.0
 11
105.54389
 21
31.417345999999998
 31
0.0
  0
LINE
  5
BE
  8
2
 10
107.19489
 20
40.942346000000001
 30
0.0
 11
105.54389
 21
40.942346000000001
 31
0.0
  0
CIRCLE
  5
E2
  8
0
 10
51.062669318993358
 20
64.668126000000001
 30
0.0
 40
2.7999999999999901
  0
TEXT
  5
226
  8
0
 62
     3
 10
0.0
 20
0.0
 30
0.0
 40
5.0
  1
CT-08125X16
  7
STANDARD1
  0
ENDSEC
  0
EOF
