  0
SECTION
  2
HEADER
  9
$ACADVER
  1
AC1009
  9
$INSBASE
 10
0.0
 20
0.0
 30
0.0
  9
$EXTMIN
 10
0.0
 20
-1.4802182810368341
 30
0.0
  9
$EXTMAX
 10
162.461116
 20
102.8581101251076
 30
0.0
  9
$LIMMIN
 10
0.0
 20
0.0
  9
$LIMMAX
 10
187.5
 20
135.0
  9
$ORTHOMODE
 70
     1
  9
$REGENMODE
 70
     1
  9
$FILLMODE
 70
     1
  9
$QTEXTMODE
 70
     0
  9
$MIRRTEXT
 70
     0
  9
$DRAGMODE
 70
     2
  9
$LTSCALE
 40
5.0
  9
$OSMODE
 70
  3071
  9
$ATTMODE
 70
     1
  9
$TEXTSIZE
 40
1.6000000000000001
  9
$TRACEWID
 40
0.05
  9
$TEXTSTYLE
  7
STANDARD
  9
$CLAYER
  8
0
  9
$CELTYPE
  6
BYLAYER
  9
$CECOLOR
 62
   256
  9
$DIMSCALE
 40
0.5
  9
$DIMASZ
 40
3.0
  9
$DIMEXO
 40
2.0
  9
$DIMDLI
 40
10.0
  9
$DIMRND
 40
0.0
  9
$DIMDLE
 40
0.0
  9
$DIMEXE
 40
2.0
  9
$DIMTP
 40
0.0
  9
$DIMTM
 40
0.0
  9
$DIMTXT
 40
3.2000000000000002
  9
$DIMCEN
 40
0.09
  9
$DIMTSZ
 40
0.0
  9
$DIMTOL
 70
     0
  9
$DIMLIM
 70
     0
  9
$DIMTIH
 70
     0
  9
$DIMTOH
 70
     0
  9
$DIMSE1
 70
     0
  9
$DIMSE2
 70
     0
  9
$DIMTAD
 70
     1
  9
$DIMZIN
 70
     0
  9
$DIMBLK
  1

  9
$DIMASO
 70
     0
  9
$DIMSHO
 70
     0
  9
$DIMPOST
  1

  9
$DIMAPOST
  1

  9
$DIMALT
 70
     0
  9
$DIMALTD
 70
     2
  9
$DIMALTF
 40
25.399999999999999
  9
$DIMLFAC
 40
1.0
  9
$DIMTOFL
 70
     1
  9
$DIMTVP
 40
1.6000000000000001
  9
$DIMTIX
 70
     1
  9
$DIMSOXD
 70
     0
  9
$DIMSAH
 70
     0
  9
$DIMBLK1
  1

  9
$DIMBLK2
  1

  9
$DIMSTYLE
  2
STANDARD
  9
$DIMCLRD
 70
     0
  9
$DIMCLRE
 70
     0
  9
$DIMCLRT
 70
     0
  9
$DIMTFAC
 40
1.0
  9
$DIMGAP
 40
0.09
  9
$LUNITS
 70
     2
  9
$LUPREC
 70
     4
  9
$SKETCHINC
 40
0.1
  9
$FILLETRAD
 40
0.8
  9
$AUNITS
 70
     0
  9
$AUPREC
 70
     0
  9
$MENU
  1
E:\r13\win\SUPPORT\ACAD
  9
$ELEVATION
 40
0.0
  9
$PELEVATION
 40
0.0
  9
$THICKNESS
 40
0.0
  9
$LIMCHECK
 70
     0
  9
$BLIPMODE
 70
     0
  9
$CHAMFERA
 40
0.0
  9
$CHAMFERB
 40
0.0
  9
$SKPOLY
 70
     0
  9
$TDCREATE
 40
2449840.5949189821
  9
$TDUPDATE
 40
2456598.5015037041
  9
$TDINDWG
 40
0.0636098958
  9
$TDUSRTIMER
 40
2455999.1456331019
  9
$USRTIMER
 70
     1
  9
$ANGBASE
 50
0.0
  9
$ANGDIR
 70
     0
  9
$PDMODE
 70
     0
  9
$PDSIZE
 40
0.0
  9
$PLINEWID
 40
0.0
  9
$COORDS
 70
     1
  9
$SPLFRAME
 70
     0
  9
$SPLINETYPE
 70
     6
  9
$SPLINESEGS
 70
     8
  9
$ATTDIA
 70
     0
  9
$ATTREQ
 70
     1
  9
$HANDLING
 70
     1
  9
$HANDSEED
  5
52D
  9
$SURFTAB1
 70
     6
  9
$SURFTAB2
 70
     6
  9
$SURFTYPE
 70
     6
  9
$SURFU
 70
     6
  9
$SURFV
 70
     6
  9
$UCSNAME
  2

  9
$UCSORG
 10
0.0
 20
0.0
 30
0.0
  9
$UCSXDIR
 10
1.0
 20
0.0
 30
0.0
  9
$UCSYDIR
 10
0.0
 20
1.0
 30
0.0
  9
$PUCSNAME
  2

  9
$PUCSORG
 10
0.0
 20
0.0
 30
0.0
  9
$PUCSXDIR
 10
1.0
 20
0.0
 30
0.0
  9
$PUCSYDIR
 10
0.0
 20
1.0
 30
0.0
  9
$USERI1
 70
     0
  9
$USERI2
 70
     1
  9
$USERI3
 70
     0
  9
$USERI4
 70
     0
  9
$USERI5
 70
     0
  9
$USERR1
 40
0.0
  9
$USERR2
 40
0.0
  9
$USERR3
 40
0.0
  9
$USERR4
 40
0.0
  9
$USERR5
 40
0.0
  9
$WORLDVIEW
 70
     1
  9
$SHADEDGE
 70
     3
  9
$SHADEDIF
 70
    70
  9
$TILEMODE
 70
     1
  9
$MAXACTVP
 70
    16
  9
$PLIMCHECK
 70
     0
  9
$PEXTMIN
 10
1.0000000000000000E+020
 20
1.0000000000000000E+020
 30
1.0000000000000000E+020
  9
$PEXTMAX
 10
-1.0000000000000000E+020
 20
-1.0000000000000000E+020
 30
-1.0000000000000000E+020
  9
$PLIMMIN
 10
0.0
 20
0.0
  9
$PLIMMAX
 10
12.0
 20
9.0
  9
$UNITMODE
 70
     0
  9
$VISRETAIN
 70
     0
  9
$PLINEGEN
 70
     0
  9
$PSLTSCALE
 70
     0
  0
ENDSEC
  0
SECTION
  2
TABLES
  0
TABLE
  2
VPORT
 70
     1
  0
VPORT
  2
*ACTIVE
 70
     0
 10
0.0
 20
0.0
 11
1.0
 21
1.0
 12
97.52905416604365
 22
66.75636307133405
 13
0.0
 23
0.0
 14
5.0
 24
5.0
 15
5.0
 25
5.0
 16
0.0
 26
0.0
 36
1.0
 17
0.0
 27
0.0
 37
0.0
 40
137.71137496815999
 41
1.831871345029239
 42
50.0
 43
0.0
 44
0.0
 50
0.0
 51
0.0
 71
    16
 72
   100
 73
     1
 74
     0
 75
     0
 76
     0
 77
     0
 78
     0
  0
ENDTAB
  0
TABLE
  2
LTYPE
 70
     4
  0
LTYPE
  2
CONTINUOUS
 70
     0
  3
Solid Line
 72
    65
 73
     0
 40
0.0
  0
LTYPE
  2
CENTER
 70
     0
  3
____ _ ____ _ ____ _ ____ _ ____ _ ____ _ ____
 72
    65
 73
     4
 40
2.0
 49
1.25
 49
-0.25
 49
0.25
 49
-0.25
  0
LTYPE
  2
HIDDEN
 70
     0
  3
_ _ _ _ _ _ _ _ _ _ _ _ _ _ _ _ _ _ _ _ _ _ _
 72
    65
 73
     2
 40
0.375
 49
0.25
 49
-0.125
  0
LTYPE
  2
PHANTOM2
 70
     0
  3
___ _ _ ___ _ _ ___ _ _ ___ _ _
 72
    65
 73
     6
 40
1.25
 49
0.625
 49
-0.125
 49
0.125
 49
-0.125
 49
0.125
 49
-0.125
  0
ENDTAB
  0
TABLE
  2
LAYER
 70
     4
  0
LAYER
  2
0
 70
     0
 62
     7
  6
CONTINUOUS
  0
LAYER
  2
1
 70
     0
 62
     1
  6
CENTER
  0
LAYER
  2
2
 70
     0
 62
     2
  6
HIDDEN
  0
LAYER
  2
3
 70
     0
 62
     3
  6
CONTINUOUS
  0
ENDTAB
  0
TABLE
  2
STYLE
 70
     2
  0
STYLE
  2
STANDARD
 70
     0
 40
0.0
 41
1.0
 50
0.0
 71
     0
 42
1.6000000000000001
  3
TXT
  4
BIGFONT
  0
STYLE
  2
STANDARD1
 70
     0
 40
0.0
 41
1.0
 50
0.0
 71
     0
 42
3.0
  3
txt
  4

  0
ENDTAB
  0
TABLE
  2
VIEW
 70
     1
  0
VIEW
  2
ALL
 70
     0
 40
135.0
 10
110.49579799999999
 20
67.5
 41
0.0
 11
0.0
 21
0.0
 31
1.0
 12
0.0
 22
0.0
 32
0.0
 42
0.0
 43
0.0
 44
0.0
 50
0.0
 71
     0
  0
ENDTAB
  0
TABLE
  2
UCS
 70
     0
  0
ENDTAB
  0
TABLE
  2
APPID
 70
     4
  0
APPID
  2
ACAD
 70
     0
  0
APPID
  2
ACAD_EXEMPT_FROM_CAD_STANDARDS
 70
     0
  0
APPID
  2
ACAD_MLEADERVER
 70
     0
  0
APPID
  2
ACAD_NAV_VCDISPLAY
 70
     0
  0
ENDTAB
  0
TABLE
  2
DIMSTYLE
 70
     1
  0
DIMSTYLE
  2
STANDARD
 70
     0
  3

  4

  5

  6

  7

 40
1.0
 41
0.18
 42
0.0625
 43
0.38
 44
0.18
 45
0.0
 46
0.0
 47
0.0
 48
0.0
140
0.18
141
0.09
142
0.0
143
25.399999999999999
144
1.0
145
0.0
146
1.0
147
0.09
 71
     0
 72
     0
 73
     1
 74
     1
 75
     0
 76
     0
 77
     0
 78
     0
170
     0
171
     2
172
     0
173
     0
174
     0
175
     0
176
     0
177
     0
178
     0
  0
ENDTAB
  0
ENDSEC
  0
SECTION
  2
BLOCKS
  0
BLOCK
  8
0
  2
$MODEL_SPACE
 70
     0
 10
0.0
 20
0.0
 30
0.0
  3
$MODEL_SPACE
  1

  0
ENDBLK
  5
16E
  8
0
  0
BLOCK
 67
     1
  8
0
  2
$PAPER_SPACE
 70
     0
 10
0.0
 20
0.0
 30
0.0
  3
$PAPER_SPACE
  1

  0
ENDBLK
  5
16C
 67
     1
  8
0
  0
ENDSEC
  0
SECTION
  2
ENTITIES
  0
LINE
  5
36
  8
1
 10
150.14616100000001
 20
76.371522999999996
 30
0.0
 11
150.14616100000001
 21
51.741613999999998
 31
0.0
  0
LINE
  5
37
  8
1
 10
59.969988999999998
 20
64.056567999999999
 30
0.0
 11
112.469989
 21
64.056567999999999
 31
0.0
  0
LINE
  5
38
  8
0
 10
141.64616100000001
 20
59.149090999999999
 30
0.0
 11
150.14616100000001
 21
54.241613999999998
 31
0.0
  0
LINE
  5
39
  8
0
 10
150.14616100000001
 20
54.241613999999998
 30
0.0
 11
158.64616100000001
 21
59.149090999999999
 31
0.0
  0
LINE
  5
3A
  8
0
 10
158.64616100000001
 20
59.149090999999999
 30
0.0
 11
158.64616100000001
 21
68.964045999999996
 31
0.0
  0
LINE
  5
3B
  8
0
 10
158.64616100000001
 20
68.964045999999996
 30
0.0
 11
150.14616100000001
 21
73.871522999999996
 31
0.0
  0
LINE
  5
3C
  8
0
 10
150.14616100000001
 20
73.871522999999996
 30
0.0
 11
141.64616100000001
 21
68.964045999999996
 31
0.0
  0
LINE
  5
3D
  8
0
 10
141.64616100000001
 20
68.964045999999996
 30
0.0
 11
141.64616100000001
 21
59.149090999999999
 31
0.0
  0
CIRCLE
  5
3E
  8
0
 10
150.14616100000001
 20
64.056567999999999
 30
0.0
 40
6.3499999999999988
  0
CIRCLE
  5
3F
  8
0
 10
150.14616100000001
 20
64.056567999999999
 30
0.0
 40
8.5
  0
LINE
  5
40
  8
0
 10
102.469989
 20
73.871522999999996
 30
0.0
 11
102.469989
 21
54.241613999999998
 31
0.0
  0
LINE
  5
42
  8
0
 10
107.68680000000001
 20
73.871522999999996
 30
0.0
 11
102.469989
 21
73.871522999999996
 31
0.0
  0
LINE
  5
43
  8
0
 10
107.68680000000001
 20
68.964045999999996
 30
0.0
 11
102.469989
 21
68.964045999999996
 31
0.0
  0
LINE
  5
44
  8
2
 10
108.445989
 20
70.406567999999993
 30
0.0
 11
106.794989
 21
70.406567999999993
 31
0.0
  0
LINE
  5
45
  8
0
 10
109.969989
 20
62.532567999999998
 30
0.0
 11
108.445989
 21
64.056567999999999
 31
0.0
  0
LINE
  5
46
  8
0
 10
108.445989
 20
64.056567999999999
 30
0.0
 11
109.969989
 21
65.580568
 31
0.0
  0
LINE
  5
47
  8
0
 10
108.445989
 20
67.104568
 30
0.0
 11
109.969989
 21
68.628568000000001
 31
0.0
  0
LINE
  5
48
  8
0
 10
109.969989
 20
65.580568
 30
0.0
 11
108.445989
 21
67.104568
 31
0.0
  0
LINE
  5
49
  8
0
 10
109.969989
 20
68.628568000000001
 30
0.0
 11
108.445989
 21
70.152568000000002
 31
0.0
  0
LINE
  5
4A
  8
0
 10
109.969989
 20
59.484568000000003
 30
0.0
 11
108.445989
 21
61.008567999999997
 31
0.0
  0
LINE
  5
4B
  8
0
 10
108.445989
 20
61.008567999999997
 30
0.0
 11
109.969989
 21
62.532567999999998
 31
0.0
  0
LINE
  5
4C
  8
0
 10
108.445989
 20
57.960568000000002
 30
0.0
 11
109.969989
 21
59.484568000000003
 31
0.0
  0
LINE
  5
4D
  8
0
 10
108.445989
 20
72.556567999999999
 30
0.0
 11
108.445989
 21
55.580568000000007
 31
0.0
  0
LINE
  5
4E
  8
0
 10
108.445989
 20
72.556567999999999
 30
0.0
 11
107.68680000000001
 21
73.871522999999996
 31
0.0
  0
ARC
  5
4F
  8
0
 10
104.10109
 20
71.417783999999983
 30
0.0
 40
4.344898999999999
 50
325.61575299999993
 51
25.615752999999959
  0
LINE
  5
50
  8
2
 10
106.794989
 20
70.406567999999993
 30
0.0
 11
106.794989
 21
57.706568000000011
 31
0.0
  0
ARC
  5
51
  8
0
 10
92.205178000000004
 20
64.056567999999999
 30
0.0
 40
16.24081099999999
 50
342.41204599999998
 51
17.587954000000011
  0
LINE
  5
52
  8
3
 10
155.71681599999999
 20
67.104568
 30
0.0
 11
144.57550599999999
 21
67.104568
 31
0.0
  0
LINE
  5
53
  8
3
 10
156.496161
 20
64.056567999999999
 30
0.0
 11
143.79616100000001
 21
64.056567999999999
 31
0.0
  0
LINE
  5
54
  8
3
 10
155.71681599999999
 20
61.008567999999997
 30
0.0
 11
144.57550599999999
 21
61.008567999999997
 31
0.0
  0
LINE
  5
55
  8
3
 10
151.924161
 20
57.960568000000002
 30
0.0
 11
148.36816099999999
 21
57.960568000000002
 31
0.0
  0
LINE
  5
56
  8
3
 10
151.924161
 20
70.152568000000002
 30
0.0
 11
148.36816099999999
 21
70.152568000000002
 31
0.0
  0
ARC
  5
57
  8
0
 10
104.10109
 20
56.695352
 30
0.0
 40
4.344898999999999
 50
334.38424700000002
 51
34.384247000000023
  0
LINE
  5
58
  8
0
 10
108.445989
 20
55.556568000000013
 30
0.0
 11
107.68680000000001
 21
54.241613999999998
 31
0.0
  0
LINE
  5
59
  8
2
 10
108.445989
 20
57.706568000000011
 30
0.0
 11
106.794989
 21
57.706568000000011
 31
0.0
  0
LINE
  5
5A
  8
0
 10
107.68680000000001
 20
59.149090999999999
 30
0.0
 11
102.469989
 21
59.149090999999999
 31
0.0
  0
LINE
  5
5B
  8
0
 10
107.68680000000001
 20
54.241613999999998
 30
0.0
 11
102.469989
 21
54.241613999999998
 31
0.0
  0
LINE
  5
5C
  8
3
 10
156.24216100000001
 20
65.834568000000004
 30
0.0
 11
156.24216100000001
 21
62.278568000000007
 31
0.0
  0
LINE
  5
5D
  8
3
 10
153.19416100000001
 20
69.627223000000001
 30
0.0
 11
153.19416100000001
 21
58.485912999999996
 31
0.0
  0
LINE
  5
5E
  8
3
 10
150.14616100000001
 20
70.406567999999993
 30
0.0
 11
150.14616100000001
 21
57.706568000000011
 31
0.0
  0
LINE
  5
5F
  8
3
 10
147.098161
 20
69.627223000000001
 30
0.0
 11
147.098161
 21
58.485912999999996
 31
0.0
  0
LINE
  5
60
  8
3
 10
144.050161
 20
65.834568000000004
 30
0.0
 11
144.050161
 21
62.278568000000007
 31
0.0
  0
LINE
  5
61
  8
3
 10
152.84574699999999
 20
69.804153999999997
 30
0.0
 11
144.39857599999999
 21
61.356982999999993
 31
0.0
  0
LINE
  5
62
  8
3
 10
154.63628899999989
 20
68.546695999999997
 30
0.0
 11
145.65603300000001
 21
59.56644
 31
0.0
  0
LINE
  5
63
  8
3
 10
155.89374699999999
 20
66.756154000000009
 30
0.0
 11
147.44657599999999
 21
58.308982999999998
 31
0.0
  0
LINE
  5
64
  8
3
 10
150.395273
 20
70.401679999999999
 30
0.0
 11
143.80104900000001
 21
63.807456000000002
 31
0.0
  0
LINE
  5
65
  8
3
 10
156.49127300000001
 20
64.305679999999995
 30
0.0
 11
149.89704900000001
 21
57.711455999999998
 31
0.0
  0
LINE
  5
66
  8
3
 10
143.80104900000001
 20
64.305679999999995
 30
0.0
 11
150.395273
 21
57.711455999999998
 31
0.0
  0
LINE
  5
67
  8
3
 10
144.39857599999999
 20
66.756154000000009
 30
0.0
 11
152.84574699999999
 21
58.308982999999998
 31
0.0
  0
LINE
  5
68
  8
3
 10
145.65603300000001
 20
68.546695999999997
 30
0.0
 11
154.63628899999989
 21
59.56644
 31
0.0
  0
LINE
  5
69
  8
3
 10
147.44657599999999
 20
69.804153999999997
 30
0.0
 11
155.89374699999999
 21
61.356982999999993
 31
0.0
  0
LINE
  5
6A
  8
3
 10
149.89704900000001
 20
70.401679999999999
 30
0.0
 11
156.49127300000001
 21
63.807456000000002
 31
0.0
  0
LINE
  5
6B
  8
1
 10
137.83120700000001
 20
64.056567999999999
 30
0.0
 11
162.461116
 21
64.056567999999999
 31
0.0
  0
LINE
  5
78
  8
0
 10
28.702828
 20
54.241613999999998
 30
0.0
 11
37.202828000000011
 21
59.149090999999999
 31
0.0
  0
LINE
  5
79
  8
0
 10
20.202828
 20
68.964045999999996
 30
0.0
 11
20.202828
 21
59.149090999999999
 31
0.0
  0
LINE
  5
7A
  8
0
 10
20.202828
 20
59.149090999999999
 30
0.0
 11
28.702828
 21
54.241613999999998
 31
0.0
  0
LINE
  5
7B
  8
0
 10
28.702828
 20
73.871522999999996
 30
0.0
 11
20.202828
 21
68.964045999999996
 31
0.0
  0
LINE
  5
7C
  8
0
 10
37.202828000000011
 20
68.964045999999996
 30
0.0
 11
28.702828
 21
73.871522999999996
 31
0.0
  0
LINE
  5
7D
  8
1
 10
28.702828
 20
76.371522999999996
 30
0.0
 11
28.702828
 21
51.741613999999998
 31
0.0
  0
LINE
  5
7E
  8
1
 10
16.387872999999999
 20
64.056567999999999
 30
0.0
 11
41.017782999999987
 21
64.056567999999999
 31
0.0
  0
LINE
  5
7F
  8
0
 10
37.202828000000011
 20
59.149090999999999
 30
0.0
 11
37.202828000000011
 21
68.964045999999996
 31
0.0
  0
LINE
  5
82
  8
0
 10
108.445989
 20
101.543155
 30
0.0
 11
107.68680000000001
 21
102.85811
 31
0.0
  0
LINE
  5
83
  8
0
 10
108.445989
 20
87.173065000000008
 30
0.0
 11
107.68680000000001
 21
85.858109999999996
 31
0.0
  0
LINE
  5
84
  8
2
 10
108.445989
 20
100.70811
 30
0.0
 11
106.794989
 21
100.70811
 31
0.0
  0
LINE
  5
85
  8
2
 10
108.445989
 20
88.008110000000016
 30
0.0
 11
106.794989
 21
88.008110000000016
 31
0.0
  0
LINE
  5
86
  8
2
 10
106.794989
 20
100.70811
 30
0.0
 11
106.794989
 21
88.008110000000016
 31
0.0
  0
LINE
  5
87
  8
0
 10
108.445989
 20
88.262109999999979
 30
0.0
 11
109.969989
 21
89.786109999999994
 31
0.0
  0
LINE
  5
88
  8
0
 10
109.969989
 20
89.786109999999994
 30
0.0
 11
108.445989
 21
91.310109999999995
 31
0.0
  0
LINE
  5
89
  8
0
 10
109.969989
 20
92.834109999999995
 30
0.0
 11
108.445989
 21
94.358109999999996
 31
0.0
  0
LINE
  5
8A
  8
0
 10
108.445989
 20
91.310109999999995
 30
0.0
 11
109.969989
 21
92.834109999999995
 31
0.0
  0
LINE
  5
8B
  8
0
 10
108.445989
 20
94.358109999999996
 30
0.0
 11
109.969989
 21
95.882109999999983
 31
0.0
  0
LINE
  5
8C
  8
0
 10
109.969989
 20
95.882109999999983
 30
0.0
 11
108.445989
 21
97.406110000000012
 31
0.0
  0
LINE
  5
8D
  8
0
 10
108.445989
 20
97.406110000000012
 30
0.0
 11
109.969989
 21
98.930110000000013
 31
0.0
  0
LINE
  5
8E
  8
0
 10
109.969989
 20
98.930110000000013
 30
0.0
 11
108.445989
 21
100.45411
 31
0.0
  0
LINE
  5
8F
  8
1
 10
59.969988999999998
 20
94.358109999999996
 30
0.0
 11
112.469989
 21
94.358109999999996
 31
0.0
  0
ARC
  5
9D
  8
0
 10
96.170481999999993
 20
90.108109999999996
 30
0.0
 40
12.275506999999999
 50
339.74384199999992
 51
20.25615800000001
  0
ARC
  5
9E
  8
0
 10
96.170481999999993
 20
98.608109999999996
 30
0.0
 40
12.275506999999999
 50
339.74384199999992
 51
20.25615800000001
  0
LINE
  5
9F
  8
0
 10
107.68680000000001
 20
94.358109999999996
 30
0.0
 11
102.469989
 21
94.358109999999996
 31
0.0
  0
LINE
  5
A0
  8
0
 10
108.445989
 20
101.543155
 30
0.0
 11
108.445989
 21
87.173065000000008
 31
0.0
  0
LINE
  5
A1
  8
0
 10
102.469989
 20
102.85811
 30
0.0
 11
102.469989
 21
85.858109999999996
 31
0.0
  0
LINE
  5
A2
  8
0
 10
107.68680000000001
 20
85.858109999999996
 30
0.0
 11
102.469989
 21
85.858109999999996
 31
0.0
  0
LINE
  5
A3
  8
0
 10
107.68680000000001
 20
102.85811
 30
0.0
 11
102.469989
 21
102.85811
 31
0.0
  0
LINE
  5
A4
  8
0
 10
107.68680000000001
 20
25.255026999999998
 30
0.0
 11
102.469989
 21
25.255026999999998
 31
0.0
  0
LINE
  5
A5
  8
0
 10
107.68680000000001
 20
42.255026999999991
 30
0.0
 11
102.469989
 21
42.255026999999991
 31
0.0
  0
LINE
  5
A6
  8
0
 10
102.469989
 20
25.255026999999998
 30
0.0
 11
102.469989
 21
42.255026999999991
 31
0.0
  0
LINE
  5
A7
  8
0
 10
108.445989
 20
26.569980999999999
 30
0.0
 11
108.445989
 21
40.940072000000001
 31
0.0
  0
LINE
  5
A8
  8
0
 10
107.68680000000001
 20
33.755026999999998
 30
0.0
 11
102.469989
 21
33.755026999999998
 31
0.0
  0
ARC
  5
A9
  8
0
 10
96.170481999999993
 20
29.505026999999998
 30
0.0
 40
12.275506999999999
 50
339.74384199999997
 51
20.256157999999999
  0
ARC
  5
AA
  8
0
 10
96.170481999999993
 20
38.005026999999998
 30
0.0
 40
12.275506999999999
 50
339.74384199999997
 51
20.25615800000001
  0
LINE
  5
B8
  8
1
 10
59.969988999999998
 20
33.755026999999998
 30
0.0
 11
112.469989
 21
33.755026999999998
 31
0.0
  0
LINE
  5
B9
  8
0
 10
109.969989
 20
29.183026999999999
 30
0.0
 11
108.445989
 21
27.659026999999998
 31
0.0
  0
LINE
  5
BA
  8
0
 10
108.445989
 20
30.707027
 30
0.0
 11
109.969989
 21
29.183026999999999
 31
0.0
  0
LINE
  5
BB
  8
0
 10
109.969989
 20
32.231026999999997
 30
0.0
 11
108.445989
 21
30.707027
 31
0.0
  0
LINE
  5
BC
  8
0
 10
108.445989
 20
33.755026999999998
 30
0.0
 11
109.969989
 21
32.231026999999997
 31
0.0
  0
LINE
  5
BD
  8
0
 10
108.445989
 20
36.803027
 30
0.0
 11
109.969989
 21
35.279026999999999
 31
0.0
  0
LINE
  5
BE
  8
0
 10
109.969989
 20
35.279026999999999
 30
0.0
 11
108.445989
 21
33.755026999999998
 31
0.0
  0
LINE
  5
BF
  8
0
 10
109.969989
 20
38.327027000000001
 30
0.0
 11
108.445989
 21
36.803027
 31
0.0
  0
LINE
  5
C0
  8
0
 10
108.445989
 20
39.851027000000002
 30
0.0
 11
109.969989
 21
38.327027000000001
 31
0.0
  0
LINE
  5
C1
  8
2
 10
106.794989
 20
27.405027
 30
0.0
 11
106.794989
 21
40.105026999999993
 31
0.0
  0
LINE
  5
C2
  8
2
 10
108.445989
 20
40.105026999999993
 30
0.0
 11
106.794989
 21
40.105026999999993
 31
0.0
  0
LINE
  5
C3
  8
2
 10
108.445989
 20
27.405027
 30
0.0
 11
106.794989
 21
27.405027
 31
0.0
  0
LINE
  5
C4
  8
0
 10
108.445989
 20
40.940072000000001
 30
0.0
 11
107.68680000000001
 21
42.255026999999991
 31
0.0
  0
LINE
  5
C5
  8
0
 10
108.445989
 20
26.569980999999999
 30
0.0
 11
107.68680000000001
 21
25.255026999999998
 31
0.0
  0
CIRCLE
  5
339
  8
0
 10
28.702828000000011
 20
64.0565675
 30
0.0
 40
5.0
  0
CIRCLE
  5
33A
  8
3
 10
28.702828000000011
 20
64.0565675
 30
0.0
 40
4.1879999999999988
  0
CIRCLE
  5
37F
  8
0
 10
28.702828000000011
 20
64.0565675
 30
0.0
 40
3.5
  0
LINE
  5
388
  8
0
 10
62.469988999999998
 20
97.858109499999998
 30
0.0
 11
62.469988999999998
 21
90.858109499999998
 31
0.0
  0
LINE
  5
389
  8
0
 10
101.669989
 20
99.358109499999998
 30
0.0
 11
63.969988999999991
 21
99.358109499999998
 31
0.0
  0
LINE
  5
38A
  8
3
 10
99.469988999999998
 20
98.546109500000014
 30
0.0
 11
63.157988999999979
 21
98.546109500000014
 31
0.0
  0
LINE
  5
38B
  8
3
 10
99.469988999999998
 20
90.170109500000009
 30
0.0
 11
63.157988999999979
 21
90.170109500000009
 31
0.0
  0
LINE
  5
38C
  8
0
 10
101.669989
 20
89.358109499999998
 30
0.0
 11
63.969988999999991
 21
89.358109499999998
 31
0.0
  0
ARC
  5
38D
  8
0
 10
101.669989
 20
88.558109500000015
 30
0.0
 40
0.8
 50
0.0
 51
90.0
  0
ARC
  5
38E
  8
0
 10
101.669989
 20
100.15810949999999
 30
0.0
 40
0.8
 50
270.0
 51
0.0
  0
LINE
  5
38F
  8
0
 10
63.969988999999991
 20
99.358109499999998
 30
0.0
 11
62.469988999999998
 21
97.858109499999998
 31
0.0
  0
LINE
  5
390
  8
0
 10
62.469988999999998
 20
90.858109499999998
 30
0.0
 11
63.969988999999991
 21
89.358109499999998
 31
0.0
  0
LINE
  5
391
  8
0
 10
63.969988999999991
 20
99.358109499999998
 30
0.0
 11
63.969988999999991
 21
89.358109499999998
 31
0.0
  0
LINE
  5
392
  8
0
 10
99.469988999999998
 20
99.358109499999998
 30
0.0
 11
99.469988999999998
 21
89.358109499999998
 31
0.0
  0
LINE
  5
393
  8
3
 10
99.469988999999998
 20
98.546109500000014
 30
0.0
 11
100.876414
 21
99.358109499999998
 31
0.0
  0
LINE
  5
394
  8
3
 10
99.469988999999998
 20
90.170109500000009
 30
0.0
 11
100.876414
 21
89.358109499999998
 31
0.0
  0
LINE
  5
395
  8
0
 10
62.469988999999998
 20
67.556567999999999
 30
0.0
 11
62.469988999999998
 21
60.556567999999999
 31
0.0
  0
LINE
  5
396
  8
0
 10
101.669989
 20
69.056567999999999
 30
0.0
 11
63.969988999999991
 21
69.056567999999999
 31
0.0
  0
LINE
  5
397
  8
3
 10
99.469988999999998
 20
68.244568000000015
 30
0.0
 11
63.157988999999979
 21
68.244568000000015
 31
0.0
  0
LINE
  5
398
  8
3
 10
99.469988999999998
 20
59.86856800000001
 30
0.0
 11
63.157988999999979
 21
59.86856800000001
 31
0.0
  0
LINE
  5
399
  8
0
 10
101.669989
 20
59.056567999999999
 30
0.0
 11
63.969988999999991
 21
59.056567999999999
 31
0.0
  0
ARC
  5
39A
  8
0
 10
101.669989
 20
58.256568000000009
 30
0.0
 40
0.8
 50
0.0
 51
90.0
  0
ARC
  5
39B
  8
0
 10
101.669989
 20
69.856567999999996
 30
0.0
 40
0.8
 50
270.0
 51
0.0
  0
LINE
  5
39C
  8
0
 10
63.969988999999991
 20
69.056567999999999
 30
0.0
 11
62.469988999999998
 21
67.556567999999999
 31
0.0
  0
LINE
  5
39D
  8
0
 10
62.469988999999998
 20
60.556567999999999
 30
0.0
 11
63.969988999999991
 21
59.056567999999999
 31
0.0
  0
LINE
  5
39E
  8
0
 10
63.969988999999991
 20
69.056567999999999
 30
0.0
 11
63.969988999999991
 21
59.056567999999999
 31
0.0
  0
LINE
  5
39F
  8
0
 10
99.469988999999998
 20
69.056567999999999
 30
0.0
 11
99.469988999999998
 21
59.056567999999999
 31
0.0
  0
LINE
  5
3A0
  8
3
 10
99.469988999999998
 20
68.244568000000015
 30
0.0
 11
100.876414
 21
69.056567999999999
 31
0.0
  0
LINE
  5
3A1
  8
3
 10
99.469988999999998
 20
59.86856800000001
 30
0.0
 11
100.876414
 21
59.056567999999999
 31
0.0
  0
LINE
  5
3A2
  8
0
 10
62.469988999999998
 20
37.2550265
 30
0.0
 11
62.469988999999998
 21
30.2550265
 31
0.0
  0
LINE
  5
3A3
  8
0
 10
101.669989
 20
38.7550265
 30
0.0
 11
63.969988999999991
 21
38.7550265
 31
0.0
  0
LINE
  5
3A4
  8
3
 10
99.469988999999998
 20
37.943026500000023
 30
0.0
 11
63.157988999999979
 21
37.943026500000023
 31
0.0
  0
LINE
  5
3A5
  8
3
 10
99.469988999999998
 20
29.567026500000011
 30
0.0
 11
63.157988999999979
 21
29.567026500000011
 31
0.0
  0
LINE
  5
3A6
  8
0
 10
101.669989
 20
28.7550265
 30
0.0
 11
63.969988999999991
 21
28.7550265
 31
0.0
  0
ARC
  5
3A7
  8
0
 10
101.669989
 20
27.95502650000002
 30
0.0
 40
0.8
 50
0.0
 51
90.0
  0
ARC
  5
3A8
  8
0
 10
101.669989
 20
39.555026500000011
 30
0.0
 40
0.8
 50
270.0
 51
0.0
  0
LINE
  5
3A9
  8
0
 10
63.969988999999991
 20
38.7550265
 30
0.0
 11
62.469988999999998
 21
37.2550265
 31
0.0
  0
LINE
  5
3AA
  8
0
 10
62.469988999999998
 20
30.2550265
 30
0.0
 11
63.969988999999991
 21
28.7550265
 31
0.0
  0
LINE
  5
3AB
  8
0
 10
63.969988999999991
 20
38.7550265
 30
0.0
 11
63.969988999999991
 21
28.7550265
 31
0.0
  0
LINE
  5
3AC
  8
0
 10
99.469988999999998
 20
38.7550265
 30
0.0
 11
99.469988999999998
 21
28.7550265
 31
0.0
  0
LINE
  5
3AD
  8
3
 10
99.469988999999998
 20
37.943026500000023
 30
0.0
 11
100.876414
 21
38.7550265
 31
0.0
  0
LINE
  5
3AE
  8
3
 10
99.469988999999998
 20
29.567026500000011
 30
0.0
 11
100.876414
 21
28.7550265
 31
0.0
  0
TEXT
  5
4C8
  8
0
 62
     3
 10
0.0
 20
0.0
 30
0.0
 40
5.0
  1
CT-10150X40
  7
STANDARD1
  0
ENDSEC
  0
EOF
