  0
SECTION
  2
HEADER
  9
$ACADVER
  1
AC1009
  9
$INSBASE
 10
0.0
 20
0.0
 30
0.0
  9
$EXTMIN
 10
0.0
 20
-1.4802182810368341
 30
0.0
  9
$EXTMAX
 10
171.66127800000001
 20
112.485973
 30
0.0
  9
$LIMMIN
 10
0.0
 20
0.0
  9
$LIMMAX
 10
187.5
 20
135.0
  9
$ORTHOMODE
 70
     1
  9
$REGENMODE
 70
     1
  9
$FILLMODE
 70
     1
  9
$QTEXTMODE
 70
     0
  9
$MIRRTEXT
 70
     0
  9
$DRAGMODE
 70
     2
  9
$LTSCALE
 40
5.0
  9
$OSMODE
 70
  3071
  9
$ATTMODE
 70
     1
  9
$TEXTSIZE
 40
4.0
  9
$TRACEWID
 40
0.05
  9
$TEXTSTYLE
  7
STANDARD
  9
$CLAYER
  8
0
  9
$CELTYPE
  6
BYLAYER
  9
$CECOLOR
 62
   256
  9
$DIMSCALE
 40
0.5
  9
$DIMASZ
 40
3.0
  9
$DIMEXO
 40
2.0
  9
$DIMDLI
 40
10.0
  9
$DIMRND
 40
0.0
  9
$DIMDLE
 40
0.0
  9
$DIMEXE
 40
2.0
  9
$DIMTP
 40
0.0
  9
$DIMTM
 40
0.0
  9
$DIMTXT
 40
3.2000000000000002
  9
$DIMCEN
 40
0.09
  9
$DIMTSZ
 40
0.0
  9
$DIMTOL
 70
     0
  9
$DIMLIM
 70
     0
  9
$DIMTIH
 70
     0
  9
$DIMTOH
 70
     0
  9
$DIMSE1
 70
     0
  9
$DIMSE2
 70
     0
  9
$DIMTAD
 70
     1
  9
$DIMZIN
 70
     0
  9
$DIMBLK
  1

  9
$DIMASO
 70
     0
  9
$DIMSHO
 70
     0
  9
$DIMPOST
  1

  9
$DIMAPOST
  1

  9
$DIMALT
 70
     0
  9
$DIMALTD
 70
     2
  9
$DIMALTF
 40
25.399999999999999
  9
$DIMLFAC
 40
1.0
  9
$DIMTOFL
 70
     1
  9
$DIMTVP
 40
1.6000000000000001
  9
$DIMTIX
 70
     1
  9
$DIMSOXD
 70
     0
  9
$DIMSAH
 70
     0
  9
$DIMBLK1
  1

  9
$DIMBLK2
  1

  9
$DIMSTYLE
  2
STANDARD
  9
$DIMCLRD
 70
     0
  9
$DIMCLRE
 70
     0
  9
$DIMCLRT
 70
     0
  9
$DIMTFAC
 40
1.0
  9
$DIMGAP
 40
0.09
  9
$LUNITS
 70
     2
  9
$LUPREC
 70
     4
  9
$SKETCHINC
 40
0.1
  9
$FILLETRAD
 40
1.0
  9
$AUNITS
 70
     0
  9
$AUPREC
 70
     0
  9
$MENU
  1
E:\r13\win\SUPPORT\ACAD
  9
$ELEVATION
 40
0.0
  9
$PELEVATION
 40
0.0
  9
$THICKNESS
 40
0.0
  9
$LIMCHECK
 70
     0
  9
$BLIPMODE
 70
     0
  9
$CHAMFERA
 40
0.0
  9
$CHAMFERB
 40
0.0
  9
$SKPOLY
 70
     0
  9
$TDCREATE
 40
2449840.5950115751
  9
$TDUPDATE
 40
2456598.5017712852
  9
$TDINDWG
 40
0.0003717824
  9
$TDUSRTIMER
 40
0.0003717824
  9
$USRTIMER
 70
     1
  9
$ANGBASE
 50
0.0
  9
$ANGDIR
 70
     0
  9
$PDMODE
 70
     0
  9
$PDSIZE
 40
0.0
  9
$PLINEWID
 40
0.0
  9
$COORDS
 70
     1
  9
$SPLFRAME
 70
     0
  9
$SPLINETYPE
 70
     6
  9
$SPLINESEGS
 70
     8
  9
$ATTDIA
 70
     0
  9
$ATTREQ
 70
     1
  9
$HANDLING
 70
     1
  9
$HANDSEED
  5
293
  9
$SURFTAB1
 70
     6
  9
$SURFTAB2
 70
     6
  9
$SURFTYPE
 70
     6
  9
$SURFU
 70
     6
  9
$SURFV
 70
     6
  9
$UCSNAME
  2

  9
$UCSORG
 10
0.0
 20
0.0
 30
0.0
  9
$UCSXDIR
 10
1.0
 20
0.0
 30
0.0
  9
$UCSYDIR
 10
0.0
 20
1.0
 30
0.0
  9
$PUCSNAME
  2

  9
$PUCSORG
 10
0.0
 20
0.0
 30
0.0
  9
$PUCSXDIR
 10
1.0
 20
0.0
 30
0.0
  9
$PUCSYDIR
 10
0.0
 20
1.0
 30
0.0
  9
$USERI1
 70
     0
  9
$USERI2
 70
     1
  9
$USERI3
 70
     0
  9
$USERI4
 70
     0
  9
$USERI5
 70
     0
  9
$USERR1
 40
0.0
  9
$USERR2
 40
0.0
  9
$USERR3
 40
0.0
  9
$USERR4
 40
0.0
  9
$USERR5
 40
0.0
  9
$WORLDVIEW
 70
     1
  9
$SHADEDGE
 70
     3
  9
$SHADEDIF
 70
    70
  9
$TILEMODE
 70
     1
  9
$MAXACTVP
 70
    16
  9
$PLIMCHECK
 70
     0
  9
$PEXTMIN
 10
1.0000000000000000E+020
 20
1.0000000000000000E+020
 30
1.0000000000000000E+020
  9
$PEXTMAX
 10
-1.0000000000000000E+020
 20
-1.0000000000000000E+020
 30
-1.0000000000000000E+020
  9
$PLIMMIN
 10
0.0
 20
0.0
  9
$PLIMMAX
 10
12.0
 20
9.0
  9
$UNITMODE
 70
     0
  9
$VISRETAIN
 70
     0
  9
$PLINEGEN
 70
     0
  9
$PSLTSCALE
 70
     0
  0
ENDSEC
  0
SECTION
  2
TABLES
  0
TABLE
  2
VPORT
 70
     1
  0
VPORT
  2
*ACTIVE
 70
     0
 10
0.0
 20
0.0
 11
1.0
 21
1.0
 12
97.52905416604365
 22
66.75636307133405
 13
0.0
 23
0.0
 14
5.0
 24
5.0
 15
5.0
 25
5.0
 16
0.0
 26
0.0
 36
1.0
 17
0.0
 27
0.0
 37
0.0
 40
137.71137496815999
 41
1.831871345029239
 42
50.0
 43
0.0
 44
0.0
 50
0.0
 51
0.0
 71
     0
 72
   100
 73
     1
 74
     0
 75
     0
 76
     0
 77
     0
 78
     0
  0
ENDTAB
  0
TABLE
  2
LTYPE
 70
     4
  0
LTYPE
  2
CONTINUOUS
 70
     0
  3
Solid Line
 72
    65
 73
     0
 40
0.0
  0
LTYPE
  2
CENTER
 70
     0
  3
____ _ ____ _ ____ _ ____ _ ____ _ ____ _ ____
 72
    65
 73
     4
 40
2.0
 49
1.25
 49
-0.25
 49
0.25
 49
-0.25
  0
LTYPE
  2
HIDDEN
 70
     0
  3
_ _ _ _ _ _ _ _ _ _ _ _ _ _ _ _ _ _ _ _ _ _ _
 72
    65
 73
     2
 40
0.375
 49
0.25
 49
-0.125
  0
LTYPE
  2
PHANTOM2
 70
     0
  3
___ _ _ ___ _ _ ___ _ _ ___ _ _
 72
    65
 73
     6
 40
1.25
 49
0.625
 49
-0.125
 49
0.125
 49
-0.125
 49
0.125
 49
-0.125
  0
ENDTAB
  0
TABLE
  2
LAYER
 70
     4
  0
LAYER
  2
0
 70
     0
 62
     7
  6
CONTINUOUS
  0
LAYER
  2
1
 70
     0
 62
     1
  6
CENTER
  0
LAYER
  2
2
 70
     0
 62
     2
  6
HIDDEN
  0
LAYER
  2
3
 70
     0
 62
     3
  6
CONTINUOUS
  0
ENDTAB
  0
TABLE
  2
STYLE
 70
     2
  0
STYLE
  2
STANDARD
 70
     0
 40
0.0
 41
1.0
 50
0.0
 71
     0
 42
4.0
  3
TXT
  4
BIGFONT
  0
STYLE
  2
STANDARD1
 70
     0
 40
0.0
 41
1.0
 50
0.0
 71
     0
 42
3.0
  3
txt
  4

  0
ENDTAB
  0
TABLE
  2
VIEW
 70
     1
  0
VIEW
  2
ALL
 70
     0
 40
135.0
 10
110.49579799999999
 20
67.5
 41
0.0
 11
0.0
 21
0.0
 31
1.0
 12
0.0
 22
0.0
 32
0.0
 42
0.0
 43
0.0
 44
0.0
 50
0.0
 71
     0
  0
ENDTAB
  0
TABLE
  2
UCS
 70
     0
  0
ENDTAB
  0
TABLE
  2
APPID
 70
     3
  0
APPID
  2
ACAD
 70
     0
  0
APPID
  2
ACAD_MLEADERVER
 70
     0
  0
APPID
  2
ACAD_NAV_VCDISPLAY
 70
     0
  0
ENDTAB
  0
TABLE
  2
DIMSTYLE
 70
     1
  0
DIMSTYLE
  2
STANDARD
 70
     0
  3

  4

  5

  6

  7

 40
1.0
 41
0.18
 42
0.0625
 43
0.38
 44
0.18
 45
0.0
 46
0.0
 47
0.0
 48
0.0
140
0.18
141
0.09
142
0.0
143
25.399999999999999
144
1.0
145
0.0
146
1.0
147
0.09
 71
     0
 72
     0
 73
     1
 74
     1
 75
     0
 76
     0
 77
     0
 78
     0
170
     0
171
     2
172
     0
173
     0
174
     0
175
     0
176
     0
177
     0
178
     0
  0
ENDTAB
  0
ENDSEC
  0
SECTION
  2
BLOCKS
  0
BLOCK
  8
0
  2
$MODEL_SPACE
 70
     0
 10
0.0
 20
0.0
 30
0.0
  3
$MODEL_SPACE
  1

  0
ENDBLK
  5
147
  8
0
  0
BLOCK
 67
     1
  8
0
  2
$PAPER_SPACE
 70
     0
 10
0.0
 20
0.0
 30
0.0
  3
$PAPER_SPACE
  1

  0
ENDBLK
  5
145
 67
     1
  8
0
  0
ENDSEC
  0
SECTION
  2
ENTITIES
  0
LINE
  5
36
  8
1
 10
155.30487099999999
 20
80.683598000000003
 30
0.0
 11
155.30487099999999
 21
47.970784999999999
 31
0.0
  0
LINE
  5
37
  8
1
 10
66.804870999999991
 20
64.327190999999985
 30
0.0
 11
117.80487100000001
 21
64.327190999999985
 31
0.0
  0
LINE
  5
38
  8
0
 10
104.30487100000001
 20
78.183598000000003
 30
0.0
 11
104.30487100000001
 21
50.470784999999999
 31
0.0
  0
LINE
  5
39
  8
0
 10
69.304870999999991
 20
70.327190999999999
 30
0.0
 11
69.304870999999991
 21
58.327191000000013
 31
0.0
  0
LINE
  5
3A
  8
0
 10
112.709074
 20
78.183598000000003
 30
0.0
 11
104.30487100000001
 21
78.183598000000003
 31
0.0
  0
LINE
  5
3B
  8
0
 10
112.709074
 20
71.255393999999995
 30
0.0
 11
104.30487100000001
 21
71.255393999999995
 31
0.0
  0
CIRCLE
  5
3C
  8
0
 10
155.30487099999999
 20
64.327190999999985
 30
0.0
 40
12.0
  0
LINE
  5
3D
  8
0
 10
143.30487099999999
 20
57.398988000000003
 30
0.0
 11
155.30487099999999
 21
50.470784999999999
 31
0.0
  0
LINE
  5
3E
  8
0
 10
155.30487099999999
 20
50.470784999999999
 30
0.0
 11
167.30487099999999
 21
57.398988000000003
 31
0.0
  0
LINE
  5
3F
  8
0
 10
167.30487099999999
 20
57.398988000000003
 30
0.0
 11
167.30487099999999
 21
71.255393999999995
 31
0.0
  0
LINE
  5
40
  8
0
 10
167.30487099999999
 20
71.255393999999995
 30
0.0
 11
155.30487099999999
 21
78.183598000000003
 31
0.0
  0
LINE
  5
41
  8
0
 10
155.30487099999999
 20
78.183598000000003
 30
0.0
 11
143.30487099999999
 21
71.255393999999995
 31
0.0
  0
LINE
  5
42
  8
0
 10
143.30487099999999
 20
71.255393999999995
 30
0.0
 11
143.30487099999999
 21
57.398988000000003
 31
0.0
  0
CIRCLE
  5
43
  8
0
 10
155.30487099999999
 20
64.327190999999985
 30
0.0
 40
9.5250000000000004
  0
LINE
  5
44
  8
2
 10
113.780871
 20
73.852191000000005
 30
0.0
 11
112.12987099999999
 21
73.852191000000005
 31
0.0
  0
LINE
  5
45
  8
1
 10
138.948465
 20
64.327190999999985
 30
0.0
 11
171.66127800000001
 21
64.327190999999985
 31
0.0
  0
LINE
  5
46
  8
0
 10
115.30487100000001
 20
62.803190999999998
 30
0.0
 11
113.780871
 21
64.327190999999985
 31
0.0
  0
LINE
  5
47
  8
0
 10
113.780871
 20
64.327190999999985
 30
0.0
 11
115.30487100000001
 21
65.851191
 31
0.0
  0
LINE
  5
48
  8
0
 10
113.780871
 20
67.375191000000001
 30
0.0
 11
115.30487100000001
 21
68.899191000000002
 31
0.0
  0
LINE
  5
49
  8
0
 10
115.30487100000001
 20
65.851191
 30
0.0
 11
113.780871
 21
67.375191000000001
 31
0.0
  0
LINE
  5
4A
  8
0
 10
115.30487100000001
 20
71.947191000000004
 30
0.0
 11
113.780871
 21
73.471191000000005
 31
0.0
  0
LINE
  5
4B
  8
0
 10
113.780871
 20
70.423191000000003
 30
0.0
 11
115.30487100000001
 21
71.947191000000004
 31
0.0
  0
LINE
  5
4C
  8
0
 10
115.30487100000001
 20
68.899191000000002
 30
0.0
 11
113.780871
 21
70.423191000000003
 31
0.0
  0
LINE
  5
4D
  8
0
 10
113.780871
 20
76.327190999999999
 30
0.0
 11
113.780871
 21
52.327190999999999
 31
0.0
  0
LINE
  5
4E
  8
2
 10
112.12987099999999
 20
73.852191000000005
 30
0.0
 11
112.12987099999999
 21
54.802191000000001
 31
0.0
  0
LINE
  5
4F
  8
0
 10
113.780871
 20
76.327190999999999
 30
0.0
 11
112.709074
 21
78.183598000000003
 31
0.0
  0
ARC
  5
50
  8
0
 10
107.646897
 20
74.719495999999992
 30
0.0
 40
6.1339750000000004
 50
325.61575299999998
 51
25.615753000000002
  0
ARC
  5
51
  8
0
 10
107.646897
 20
53.934885999999999
 30
0.0
 40
6.1339750000000004
 50
334.38424700000002
 51
34.384247000000002
  0
LINE
  5
52
  8
0
 10
113.780871
 20
52.327190999999999
 30
0.0
 11
112.709074
 21
50.470784999999999
 31
0.0
  0
LINE
  5
53
  8
2
 10
113.780871
 20
54.802191000000001
 30
0.0
 11
112.12987099999999
 21
54.802191000000001
 31
0.0
  0
LINE
  5
54
  8
0
 10
112.709074
 20
57.398988000000003
 30
0.0
 11
104.30487100000001
 21
57.398988000000003
 31
0.0
  0
LINE
  5
55
  8
0
 10
112.709074
 20
50.470784999999999
 30
0.0
 11
104.30487100000001
 21
50.470784999999999
 31
0.0
  0
ARC
  5
56
  8
0
 10
90.852668000000008
 20
64.327190999999985
 30
0.0
 40
22.928203
 50
342.41204599999998
 51
17.587954
  0
LINE
  5
57
  8
0
 10
115.30487100000001
 20
59.755191000000003
 30
0.0
 11
113.780871
 21
58.231191000000003
 31
0.0
  0
LINE
  5
58
  8
0
 10
113.780871
 20
58.231191000000003
 30
0.0
 11
115.30487100000001
 21
56.707191000000002
 31
0.0
  0
LINE
  5
59
  8
0
 10
115.30487100000001
 20
56.707191000000002
 30
0.0
 11
113.780871
 21
55.183191000000001
 31
0.0
  0
LINE
  5
5A
  8
0
 10
115.30487100000001
 20
62.803190999999998
 30
0.0
 11
113.780871
 21
61.279190999999997
 31
0.0
  0
LINE
  5
5B
  8
0
 10
113.780871
 20
61.279190999999997
 30
0.0
 11
115.30487100000001
 21
59.755191000000003
 31
0.0
  0
LINE
  5
5C
  8
0
 10
71.304870999999991
 20
56.327190999999999
 30
0.0
 11
103.30487100000001
 21
56.327190999999999
 31
0.0
  0
LINE
  5
5D
  8
3
 10
70.222370999999995
 20
57.409691000000002
 30
0.0
 11
100.30487100000001
 21
57.409691000000002
 31
0.0
  0
LINE
  5
5E
  8
3
 10
70.222370999999995
 20
71.244691000000003
 30
0.0
 11
100.30487100000001
 21
71.244691000000003
 31
0.0
  0
LINE
  5
5F
  8
0
 10
71.304870999999991
 20
72.327190999999999
 30
0.0
 11
103.30487100000001
 21
72.327190999999999
 31
0.0
  0
ARC
  5
60
  8
0
 10
103.30487100000001
 20
73.327190999999999
 30
0.0
 40
1.0
 50
270.0
 51
0.0
  0
ARC
  5
61
  8
0
 10
103.30487100000001
 20
55.327191000000013
 30
0.0
 40
1.0
 50
0.0
 51
90.0
  0
LINE
  5
62
  8
0
 10
100.30487100000001
 20
72.327190999999999
 30
0.0
 11
100.30487100000001
 21
56.327190999999999
 31
0.0
  0
LINE
  5
63
  8
0
 10
71.304870999999991
 20
72.327190999999999
 30
0.0
 11
69.304870999999991
 21
70.327190999999999
 31
0.0
  0
LINE
  5
64
  8
0
 10
69.304870999999991
 20
58.327191000000013
 30
0.0
 11
71.304870999999991
 21
56.327190999999999
 31
0.0
  0
LINE
  5
65
  8
0
 10
71.304870999999991
 20
72.327190999999999
 30
0.0
 11
71.304870999999991
 21
56.327190999999999
 31
0.0
  0
LINE
  5
66
  8
3
 10
100.30487100000001
 20
71.244691000000003
 30
0.0
 11
102.179816
 21
72.327190999999999
 31
0.0
  0
LINE
  5
67
  8
3
 10
100.30487100000001
 20
57.409691000000002
 30
0.0
 11
102.179816
 21
56.327190999999999
 31
0.0
  0
LINE
  5
68
  8
3
 10
147.98609999999999
 20
70.423191000000003
 30
0.0
 11
162.62364199999999
 21
70.423191000000003
 31
0.0
  0
LINE
  5
69
  8
3
 10
146.280719
 20
67.375191000000001
 30
0.0
 11
164.32902300000001
 21
67.375191000000001
 31
0.0
  0
LINE
  5
6A
  8
3
 10
145.77987100000001
 20
64.327190999999985
 30
0.0
 11
164.829871
 21
64.327190999999985
 31
0.0
  0
LINE
  5
6B
  8
3
 10
152.63787099999999
 20
73.471191000000005
 30
0.0
 11
157.97187099999999
 21
73.471191000000005
 31
0.0
  0
LINE
  5
6C
  8
3
 10
152.63787099999999
 20
55.183191000000001
 30
0.0
 11
157.97187099999999
 21
55.183191000000001
 31
0.0
  0
LINE
  5
6D
  8
3
 10
146.280719
 20
61.279190999999997
 30
0.0
 11
164.32902300000001
 21
61.279190999999997
 31
0.0
  0
LINE
  5
6E
  8
3
 10
147.98609999999999
 20
58.231191000000003
 30
0.0
 11
162.62364199999999
 21
58.231191000000003
 31
0.0
  0
LINE
  5
6F
  8
3
 10
146.16087099999999
 20
61.660190999999998
 30
0.0
 11
146.16087099999999
 21
66.994191000000001
 31
0.0
  0
LINE
  5
70
  8
3
 10
149.20887099999999
 20
57.008419999999987
 30
0.0
 11
149.20887099999999
 21
71.645961999999997
 31
0.0
  0
LINE
  5
71
  8
3
 10
152.25687099999999
 20
55.303038999999991
 30
0.0
 11
152.25687099999999
 21
73.351342999999986
 31
0.0
  0
LINE
  5
72
  8
3
 10
155.30487099999999
 20
54.802191000000001
 30
0.0
 11
155.30487099999999
 21
73.852191000000005
 31
0.0
  0
LINE
  5
73
  8
3
 10
158.35287099999999
 20
55.303038999999991
 30
0.0
 11
158.35287099999999
 21
73.351342999999986
 31
0.0
  0
LINE
  5
74
  8
3
 10
161.400871
 20
57.008419999999987
 30
0.0
 11
161.400871
 21
71.645961999999997
 31
0.0
  0
LINE
  5
75
  8
3
 10
164.448871
 20
61.660190999999998
 30
0.0
 11
164.448871
 21
66.994191000000001
 31
0.0
  0
LINE
  5
76
  8
3
 10
155.678539
 20
73.844859
 30
0.0
 11
145.787204
 21
63.95352299999999
 31
0.0
  0
LINE
  5
77
  8
3
 10
158.262911
 20
73.381230000000002
 30
0.0
 11
146.250832
 21
61.369152
 31
0.0
  0
LINE
  5
78
  8
3
 10
160.34137699999999
 20
72.411697000000004
 30
0.0
 11
147.22036499999999
 21
59.290684999999989
 31
0.0
  0
LINE
  5
79
  8
3
 10
162.04006299999989
 20
71.062382999999997
 30
0.0
 11
148.56967900000001
 21
57.591999000000001
 31
0.0
  0
LINE
  5
7A
  8
3
 10
152.07271399999999
 20
73.287033999999991
 30
0.0
 11
146.34502800000001
 21
67.559348
 31
0.0
  0
LINE
  5
7B
  8
3
 10
158.53702799999999
 20
55.367348
 30
0.0
 11
164.264714
 21
61.095033999999998
 31
0.0
  0
LINE
  5
7C
  8
3
 10
154.93120400000001
 20
54.809522999999999
 30
0.0
 11
164.82253900000001
 21
64.700858999999994
 31
0.0
  0
LINE
  5
7D
  8
3
 10
152.34683200000001
 20
55.273152000000003
 30
0.0
 11
164.35891100000001
 21
67.285229999999999
 31
0.0
  0
LINE
  5
7E
  8
3
 10
150.2683649999999
 20
56.242684999999987
 30
0.0
 11
163.389377
 21
69.363697000000002
 31
0.0
  0
LINE
  5
7F
  8
3
 10
158.53702799999999
 20
73.287033999999991
 30
0.0
 11
164.264714
 21
67.559348
 31
0.0
  0
LINE
  5
80
  8
3
 10
154.93120400000001
 20
73.844859
 30
0.0
 11
164.82253900000001
 21
63.95352299999999
 31
0.0
  0
LINE
  5
81
  8
3
 10
152.34683200000001
 20
73.381230000000002
 30
0.0
 11
164.35891100000001
 21
61.369152
 31
0.0
  0
LINE
  5
82
  8
3
 10
150.2683649999999
 20
72.411697000000004
 30
0.0
 11
163.389377
 21
59.290684999999989
 31
0.0
  0
LINE
  5
83
  8
3
 10
148.56967900000001
 20
71.062382999999997
 30
0.0
 11
162.04006299999989
 21
57.591999000000001
 31
0.0
  0
LINE
  5
84
  8
3
 10
160.34137699999999
 20
56.242684999999987
 30
0.0
 11
147.22036499999999
 21
69.363697000000002
 31
0.0
  0
LINE
  5
85
  8
3
 10
158.262911
 20
55.273152000000003
 30
0.0
 11
146.250832
 21
67.285229999999999
 31
0.0
  0
LINE
  5
86
  8
3
 10
155.678539
 20
54.809522999999999
 30
0.0
 11
145.787204
 21
64.700858999999994
 31
0.0
  0
LINE
  5
87
  8
3
 10
152.07271399999999
 20
55.367348
 30
0.0
 11
146.34502800000001
 21
61.095033999999998
 31
0.0
  0
LINE
  5
88
  8
1
 10
13.099398000000001
 20
64.327190999999985
 30
0.0
 11
45.812210999999991
 21
64.327190999999985
 31
0.0
  0
LINE
  5
89
  8
1
 10
29.455805000000002
 20
80.683598000000003
 30
0.0
 11
29.455805000000002
 21
47.970784999999999
 31
0.0
  0
LINE
  5
8A
  8
0
 10
41.455804999999998
 20
71.255393999999995
 30
0.0
 11
29.455805000000002
 21
78.183598000000003
 31
0.0
  0
LINE
  5
8B
  8
0
 10
41.455804999999998
 20
57.398988000000003
 30
0.0
 11
41.455804999999998
 21
71.255393999999995
 31
0.0
  0
LINE
  5
8C
  8
0
 10
29.455805000000002
 20
50.470784999999999
 30
0.0
 11
41.455804999999998
 21
57.398988000000003
 31
0.0
  0
LINE
  5
8D
  8
0
 10
17.455805000000002
 20
71.255393999999995
 30
0.0
 11
17.455805000000002
 21
57.398988000000003
 31
0.0
  0
LINE
  5
8E
  8
0
 10
17.455805000000002
 20
57.398988000000003
 30
0.0
 11
29.455805000000002
 21
50.470784999999999
 31
0.0
  0
LINE
  5
8F
  8
0
 10
29.455805000000002
 20
78.183598000000003
 30
0.0
 11
17.455805000000002
 21
71.255393999999995
 31
0.0
  0
CIRCLE
  5
90
  8
0
 10
29.455805000000002
 20
64.327190999999985
 30
0.0
 40
8.0
  0
CIRCLE
  5
91
  8
3
 10
29.455805000000002
 20
64.327190999999985
 30
0.0
 40
6.9175000000000004
  0
LINE
  5
92
  8
2
 10
112.12987099999999
 20
110.01097300000001
 30
0.0
 11
113.780871
 21
110.01097300000001
 31
0.0
  0
LINE
  5
93
  8
2
 10
113.780871
 20
90.960972999999996
 30
0.0
 11
112.12987099999999
 21
90.960972999999996
 31
0.0
  0
LINE
  5
94
  8
2
 10
112.12987099999999
 20
110.01097300000001
 30
0.0
 11
112.12987099999999
 21
90.960972999999996
 31
0.0
  0
LINE
  5
95
  8
0
 10
115.30487100000001
 20
98.961973
 30
0.0
 11
113.780871
 21
100.485973
 31
0.0
  0
LINE
  5
96
  8
0
 10
113.780871
 20
100.485973
 30
0.0
 11
115.30487100000001
 21
102.009973
 31
0.0
  0
LINE
  5
97
  8
0
 10
113.780871
 20
103.533973
 30
0.0
 11
115.30487100000001
 21
105.057973
 31
0.0
  0
LINE
  5
98
  8
0
 10
115.30487100000001
 20
102.009973
 30
0.0
 11
113.780871
 21
103.533973
 31
0.0
  0
LINE
  5
99
  8
0
 10
115.30487100000001
 20
108.10597300000001
 30
0.0
 11
113.780871
 21
109.62997300000001
 31
0.0
  0
LINE
  5
9A
  8
0
 10
113.780871
 20
106.581973
 30
0.0
 11
115.30487100000001
 21
108.10597300000001
 31
0.0
  0
LINE
  5
9B
  8
0
 10
115.30487100000001
 20
105.057973
 30
0.0
 11
113.780871
 21
106.581973
 31
0.0
  0
LINE
  5
9C
  8
0
 10
115.30487100000001
 20
95.913972999999999
 30
0.0
 11
113.780871
 21
94.389972999999998
 31
0.0
  0
LINE
  5
9D
  8
0
 10
113.780871
 20
94.389972999999998
 30
0.0
 11
115.30487100000001
 21
92.865972999999997
 31
0.0
  0
LINE
  5
9E
  8
0
 10
115.30487100000001
 20
92.865972999999997
 30
0.0
 11
113.780871
 21
91.341972999999996
 31
0.0
  0
LINE
  5
9F
  8
0
 10
115.30487100000001
 20
98.961973
 30
0.0
 11
113.780871
 21
97.437973
 31
0.0
  0
LINE
  5
A0
  8
0
 10
113.780871
 20
97.437973
 30
0.0
 11
115.30487100000001
 21
95.913972999999999
 31
0.0
  0
LINE
  5
A1
  8
1
 10
66.804870999999991
 20
100.485973
 30
0.0
 11
117.80487100000001
 21
100.485973
 31
0.0
  0
LINE
  5
A2
  8
0
 10
69.304870999999991
 20
106.485973
 30
0.0
 11
69.304870999999991
 21
94.485973000000016
 31
0.0
  0
LINE
  5
A3
  8
0
 10
71.304870999999991
 20
92.485973000000001
 30
0.0
 11
103.30487100000001
 21
92.485973000000001
 31
0.0
  0
LINE
  5
A4
  8
3
 10
70.222370999999995
 20
93.568472999999997
 30
0.0
 11
100.30487100000001
 21
93.568472999999997
 31
0.0
  0
LINE
  5
A5
  8
3
 10
70.222370999999995
 20
107.40347300000001
 30
0.0
 11
100.30487100000001
 21
107.40347300000001
 31
0.0
  0
LINE
  5
A6
  8
0
 10
71.304870999999991
 20
108.485973
 30
0.0
 11
103.30487100000001
 21
108.485973
 31
0.0
  0
ARC
  5
A7
  8
0
 10
103.30487100000001
 20
109.485973
 30
0.0
 40
1.0
 50
270.0
 51
0.0
  0
ARC
  5
A8
  8
0
 10
103.30487100000001
 20
91.485973000000001
 30
0.0
 40
1.0
 50
0.0
 51
90.0
  0
LINE
  5
A9
  8
0
 10
100.30487100000001
 20
108.485973
 30
0.0
 11
100.30487100000001
 21
92.485973000000001
 31
0.0
  0
LINE
  5
AA
  8
0
 10
71.304870999999991
 20
108.485973
 30
0.0
 11
69.304870999999991
 21
106.485973
 31
0.0
  0
LINE
  5
AB
  8
0
 10
69.304870999999991
 20
94.485973000000016
 30
0.0
 11
71.304870999999991
 21
92.485973000000001
 31
0.0
  0
LINE
  5
AC
  8
0
 10
71.304870999999991
 20
108.485973
 30
0.0
 11
71.304870999999991
 21
92.485973000000001
 31
0.0
  0
LINE
  5
AD
  8
3
 10
100.30487100000001
 20
107.40347300000001
 30
0.0
 11
102.179816
 21
108.485973
 31
0.0
  0
LINE
  5
AE
  8
3
 10
100.30487100000001
 20
93.568472999999997
 30
0.0
 11
102.179816
 21
92.485973000000001
 31
0.0
  0
LINE
  5
AF
  8
0
 10
113.780871
 20
110.62956699999999
 30
0.0
 11
112.709074
 21
112.485973
 31
0.0
  0
LINE
  5
B0
  8
0
 10
113.780871
 20
90.342378999999994
 30
0.0
 11
112.709074
 21
88.485972999999987
 31
0.0
  0
ARC
  5
B1
  8
0
 10
96.450744
 20
94.485973000000016
 30
0.0
 40
17.33012699999999
 50
339.74384199999997
 51
20.256157999999999
  0
ARC
  5
B2
  8
0
 10
96.450744
 20
106.485973
 30
0.0
 40
17.33012699999999
 50
339.74384199999997
 51
20.256157999999999
  0
LINE
  5
B3
  8
0
 10
112.709074
 20
100.485973
 30
0.0
 11
104.30487100000001
 21
100.485973
 31
0.0
  0
LINE
  5
B4
  8
0
 10
113.780871
 20
110.62956699999999
 30
0.0
 11
113.780871
 21
90.342378999999994
 31
0.0
  0
LINE
  5
B5
  8
0
 10
104.30487100000001
 20
112.485973
 30
0.0
 11
104.30487100000001
 21
88.485972999999987
 31
0.0
  0
LINE
  5
B6
  8
0
 10
112.709074
 20
88.485972999999987
 30
0.0
 11
104.30487100000001
 21
88.485972999999987
 31
0.0
  0
LINE
  5
B7
  8
0
 10
112.709074
 20
112.485973
 30
0.0
 11
104.30487100000001
 21
112.485973
 31
0.0
  0
LINE
  5
B8
  8
0
 10
112.709074
 20
16.168409
 30
0.0
 11
104.30487100000001
 21
16.168409
 31
0.0
  0
LINE
  5
B9
  8
0
 10
112.709074
 20
40.168408999999997
 30
0.0
 11
104.30487100000001
 21
40.168408999999997
 31
0.0
  0
LINE
  5
BA
  8
0
 10
104.30487100000001
 20
16.168409
 30
0.0
 11
104.30487100000001
 21
40.168408999999997
 31
0.0
  0
LINE
  5
BB
  8
0
 10
113.780871
 20
18.024816000000001
 30
0.0
 11
113.780871
 21
38.312003000000011
 31
0.0
  0
LINE
  5
BC
  8
0
 10
112.709074
 20
28.168409000000011
 30
0.0
 11
104.30487100000001
 21
28.168409000000011
 31
0.0
  0
ARC
  5
BD
  8
0
 10
96.450744
 20
22.168409
 30
0.0
 40
17.33012699999999
 50
339.74384199999997
 51
20.256157999999999
  0
ARC
  5
BE
  8
0
 10
96.450744
 20
34.168408999999997
 30
0.0
 40
17.33012699999999
 50
339.74384199999997
 51
20.256157999999999
  0
LINE
  5
BF
  8
0
 10
113.780871
 20
38.312003000000011
 30
0.0
 11
112.709074
 21
40.168408999999997
 31
0.0
  0
LINE
  5
C0
  8
0
 10
113.780871
 20
18.024816000000001
 30
0.0
 11
112.709074
 21
16.168409
 31
0.0
  0
LINE
  5
C1
  8
3
 10
100.30487100000001
 20
35.085909000000001
 30
0.0
 11
102.179816
 21
36.168409000000011
 31
0.0
  0
LINE
  5
C2
  8
3
 10
100.30487100000001
 20
21.250909
 30
0.0
 11
102.179816
 21
20.168409
 31
0.0
  0
LINE
  5
C3
  8
0
 10
71.304870999999991
 20
20.168409
 30
0.0
 11
71.304870999999991
 21
36.168409000000011
 31
0.0
  0
LINE
  5
C4
  8
0
 10
69.304870999999991
 20
34.168408999999997
 30
0.0
 11
71.304870999999991
 21
36.168409000000011
 31
0.0
  0
LINE
  5
C5
  8
0
 10
71.304870999999991
 20
20.168409
 30
0.0
 11
69.304870999999991
 21
22.168409
 31
0.0
  0
LINE
  5
C6
  8
0
 10
100.30487100000001
 20
20.168409
 30
0.0
 11
100.30487100000001
 21
36.168409000000011
 31
0.0
  0
ARC
  5
C7
  8
0
 10
103.30487100000001
 20
37.168409000000011
 30
0.0
 40
1.0
 50
270.0
 51
360.0
  0
ARC
  5
C8
  8
0
 10
103.30487100000001
 20
19.168409
 30
0.0
 40
1.0
 50
360.0
 51
90.0
  0
LINE
  5
C9
  8
0
 10
71.304870999999991
 20
20.168409
 30
0.0
 11
103.30487100000001
 21
20.168409
 31
0.0
  0
LINE
  5
CA
  8
3
 10
70.222370999999995
 20
21.250909
 30
0.0
 11
100.30487100000001
 21
21.250909
 31
0.0
  0
LINE
  5
CB
  8
3
 10
70.222370999999995
 20
35.085909000000001
 30
0.0
 11
100.30487100000001
 21
35.085909000000001
 31
0.0
  0
LINE
  5
CC
  8
0
 10
71.304870999999991
 20
36.168409000000011
 30
0.0
 11
103.30487100000001
 21
36.168409000000011
 31
0.0
  0
LINE
  5
CD
  8
0
 10
69.304870999999991
 20
22.168409
 30
0.0
 11
69.304870999999991
 21
34.168408999999997
 31
0.0
  0
LINE
  5
CE
  8
1
 10
66.804870999999991
 20
28.168409000000011
 30
0.0
 11
117.80487100000001
 21
28.168409000000011
 31
0.0
  0
LINE
  5
CF
  8
0
 10
113.780871
 20
31.216408999999999
 30
0.0
 11
115.30487100000001
 21
32.740409
 31
0.0
  0
LINE
  5
D0
  8
0
 10
115.30487100000001
 20
29.692409000000001
 30
0.0
 11
113.780871
 21
31.216408999999999
 31
0.0
  0
LINE
  5
D1
  8
0
 10
115.30487100000001
 20
35.788409000000001
 30
0.0
 11
113.780871
 21
37.312409000000002
 31
0.0
  0
LINE
  5
D2
  8
0
 10
113.780871
 20
34.264409000000001
 30
0.0
 11
115.30487100000001
 21
35.788409000000001
 31
0.0
  0
LINE
  5
D3
  8
0
 10
115.30487100000001
 20
32.740409
 30
0.0
 11
113.780871
 21
34.264409000000001
 31
0.0
  0
LINE
  5
D4
  8
0
 10
115.30487100000001
 20
23.596409000000001
 30
0.0
 11
113.780871
 21
22.072409
 31
0.0
  0
LINE
  5
D5
  8
0
 10
113.780871
 20
22.072409
 30
0.0
 11
115.30487100000001
 21
20.548408999999999
 31
0.0
  0
LINE
  5
D6
  8
0
 10
115.30487100000001
 20
20.548408999999999
 30
0.0
 11
113.780871
 21
19.024408999999999
 31
0.0
  0
LINE
  5
D7
  8
0
 10
115.30487100000001
 20
26.64440900000001
 30
0.0
 11
113.780871
 21
25.120408999999999
 31
0.0
  0
LINE
  5
D8
  8
0
 10
113.780871
 20
25.120408999999999
 30
0.0
 11
115.30487100000001
 21
23.596409000000001
 31
0.0
  0
LINE
  5
D9
  8
0
 10
113.780871
 20
28.168409000000011
 30
0.0
 11
115.30487100000001
 21
26.64440900000001
 31
0.0
  0
LINE
  5
DA
  8
0
 10
115.30487100000001
 20
29.692409000000001
 30
0.0
 11
113.780871
 21
28.168409000000011
 31
0.0
  0
LINE
  5
DB
  8
2
 10
112.12987099999999
 20
18.643408999999998
 30
0.0
 11
112.12987099999999
 21
37.693409000000003
 31
0.0
  0
LINE
  5
DC
  8
2
 10
113.780871
 20
37.693409000000003
 30
0.0
 11
112.12987099999999
 21
37.693409000000003
 31
0.0
  0
LINE
  5
DD
  8
2
 10
112.12987099999999
 20
18.643408999999998
 30
0.0
 11
113.780871
 21
18.643408999999998
 31
0.0
  0
TEXT
  5
202
  8
0
 62
     3
 10
0.0
 20
0.0
 30
0.0
 40
5.0
  1
CT-16200
  7
STANDARD1
  0
ENDSEC
  0
EOF
