  0
SECTION
  2
HEADER
  9
$ACADVER
  1
AC1009
  9
$INSBASE
 10
0.0
 20
0.0
 30
0.0
  9
$EXTMIN
 10
0.0
 20
-2.960436562073669
 30
0.0
  9
$EXTMAX
 10
71.781565439545602
 20
45.424004961741609
 30
0.0
  9
$LIMMIN
 10
0.0
 20
0.0
  9
$LIMMAX
 10
420.0
 20
297.0
  9
$ORTHOMODE
 70
     1
  9
$REGENMODE
 70
     1
  9
$FILLMODE
 70
     1
  9
$QTEXTMODE
 70
     0
  9
$MIRRTEXT
 70
     0
  9
$DRAGMODE
 70
     2
  9
$LTSCALE
 40
1.0
  9
$OSMODE
 70
  3071
  9
$ATTMODE
 70
     1
  9
$TEXTSIZE
 40
2.5
  9
$TRACEWID
 40
1.0
  9
$TEXTSTYLE
  7
STANDARD
  9
$CLAYER
  8
0
  9
$CELTYPE
  6
BYLAYER
  9
$CECOLOR
 62
   256
  9
$DIMSCALE
 40
1.0
  9
$DIMASZ
 40
2.5
  9
$DIMEXO
 40
0.625
  9
$DIMDLI
 40
3.75
  9
$DIMRND
 40
0.0
  9
$DIMDLE
 40
0.0
  9
$DIMEXE
 40
1.25
  9
$DIMTP
 40
0.0
  9
$DIMTM
 40
0.0
  9
$DIMTXT
 40
2.5
  9
$DIMCEN
 40
2.5
  9
$DIMTSZ
 40
0.0
  9
$DIMTOL
 70
     0
  9
$DIMLIM
 70
     0
  9
$DIMTIH
 70
     0
  9
$DIMTOH
 70
     0
  9
$DIMSE1
 70
     0
  9
$DIMSE2
 70
     0
  9
$DIMTAD
 70
     1
  9
$DIMZIN
 70
     8
  9
$DIMBLK
  1

  9
$DIMASO
 70
     1
  9
$DIMSHO
 70
     1
  9
$DIMPOST
  1

  9
$DIMAPOST
  1

  9
$DIMALT
 70
     0
  9
$DIMALTD
 70
     3
  9
$DIMALTF
 40
0.03937007874016
  9
$DIMLFAC
 40
1.0
  9
$DIMTOFL
 70
     1
  9
$DIMTVP
 40
0.0
  9
$DIMTIX
 70
     0
  9
$DIMSOXD
 70
     0
  9
$DIMSAH
 70
     0
  9
$DIMBLK1
  1

  9
$DIMBLK2
  1

  9
$DIMSTYLE
  2
ISO-25
  9
$DIMCLRD
 70
     0
  9
$DIMCLRE
 70
     0
  9
$DIMCLRT
 70
     0
  9
$DIMTFAC
 40
1.0
  9
$DIMGAP
 40
0.625
  9
$LUNITS
 70
     2
  9
$LUPREC
 70
     4
  9
$SKETCHINC
 40
1.0
  9
$FILLETRAD
 40
0.0
  9
$AUNITS
 70
     0
  9
$AUPREC
 70
     0
  9
$MENU
  1
.
  9
$ELEVATION
 40
0.0
  9
$PELEVATION
 40
0.0
  9
$THICKNESS
 40
0.0
  9
$LIMCHECK
 70
     0
  9
$BLIPMODE
 70
     0
  9
$CHAMFERA
 40
0.0
  9
$CHAMFERB
 40
0.0
  9
$SKPOLY
 70
     0
  9
$TDCREATE
 40
2455491.4505985882
  9
$TDUPDATE
 40
2456598.502096829
  9
$TDINDWG
 40
0.0016492824
  9
$TDUSRTIMER
 40
0.0016492824
  9
$USRTIMER
 70
     1
  9
$ANGBASE
 50
0.0
  9
$ANGDIR
 70
     0
  9
$PDMODE
 70
     0
  9
$PDSIZE
 40
0.0
  9
$PLINEWID
 40
0.0
  9
$COORDS
 70
     1
  9
$SPLFRAME
 70
     0
  9
$SPLINETYPE
 70
     6
  9
$SPLINESEGS
 70
     8
  9
$ATTDIA
 70
     0
  9
$ATTREQ
 70
     1
  9
$HANDLING
 70
     1
  9
$HANDSEED
  5
23D
  9
$SURFTAB1
 70
     6
  9
$SURFTAB2
 70
     6
  9
$SURFTYPE
 70
     6
  9
$SURFU
 70
     6
  9
$SURFV
 70
     6
  9
$UCSNAME
  2

  9
$UCSORG
 10
0.0
 20
0.0
 30
0.0
  9
$UCSXDIR
 10
1.0
 20
0.0
 30
0.0
  9
$UCSYDIR
 10
0.0
 20
1.0
 30
0.0
  9
$PUCSNAME
  2

  9
$PUCSORG
 10
0.0
 20
0.0
 30
0.0
  9
$PUCSXDIR
 10
1.0
 20
0.0
 30
0.0
  9
$PUCSYDIR
 10
0.0
 20
1.0
 30
0.0
  9
$USERI1
 70
     0
  9
$USERI2
 70
     0
  9
$USERI3
 70
     0
  9
$USERI4
 70
     0
  9
$USERI5
 70
     0
  9
$USERR1
 40
0.0
  9
$USERR2
 40
0.0
  9
$USERR3
 40
0.0
  9
$USERR4
 40
0.0
  9
$USERR5
 40
0.0
  9
$WORLDVIEW
 70
     1
  9
$SHADEDGE
 70
     3
  9
$SHADEDIF
 70
    70
  9
$TILEMODE
 70
     1
  9
$MAXACTVP
 70
    64
  9
$PLIMCHECK
 70
     0
  9
$PEXTMIN
 10
0.0
 20
0.0
 30
0.0
  9
$PEXTMAX
 10
0.0
 20
0.0
 30
0.0
  9
$PLIMMIN
 10
0.0
 20
0.0
  9
$PLIMMAX
 10
12.0
 20
9.0
  9
$UNITMODE
 70
     0
  9
$VISRETAIN
 70
     1
  9
$PLINEGEN
 70
     0
  9
$PSLTSCALE
 70
     1
  0
ENDSEC
  0
SECTION
  2
TABLES
  0
TABLE
  2
VPORT
 70
     1
  0
VPORT
  2
*ACTIVE
 70
     0
 10
0.0
 20
0.0
 11
1.0
 21
1.0
 12
218.30564249092441
 22
147.0112842185321
 13
0.0
 23
0.0
 14
10.0
 24
10.0
 15
10.0
 25
10.0
 16
0.0
 26
0.0
 36
1.0
 17
0.0
 27
0.0
 37
0.0
 40
302.66781211506969
 41
1.831871345029239
 42
50.0
 43
0.0
 44
0.0
 50
0.0
 51
0.0
 71
     0
 72
  1000
 73
     1
 74
     3
 75
     0
 76
     0
 77
     0
 78
     0
  0
ENDTAB
  0
TABLE
  2
LTYPE
 70
     3
  0
LTYPE
  2
CONTINUOUS
 70
     0
  3
Solid line
 72
    65
 73
     0
 40
0.0
  0
LTYPE
  2
CENTER
 70
     0
  3
____ _ ____ _ ____ _ ____ _ ____ _ ____ _ ____
 72
    65
 73
     4
 40
2.0
 49
1.25
 49
-0.25
 49
0.25
 49
-0.25
  0
LTYPE
  2
HIDDEN
 70
     0
  3
_ _ _ _ _ _ _ _ _ _ _ _ _ _ _ _ _ _ _ _ _ _ _
 72
    65
 73
     2
 40
0.375
 49
0.25
 49
-0.125
  0
ENDTAB
  0
TABLE
  2
LAYER
 70
     3
  0
LAYER
  2
0
 70
     0
 62
     7
  6
CONTINUOUS
  0
LAYER
  2
1
 70
     0
 62
     1
  6
CENTER
  0
LAYER
  2
2
 70
     0
 62
     2
  6
HIDDEN
  0
ENDTAB
  0
TABLE
  2
STYLE
 70
     2
  0
STYLE
  2
STANDARD
 70
     0
 40
0.0
 41
1.0
 50
0.0
 71
     0
 42
2.5
  3
txt
  4

  0
STYLE
  2
STANDARD1
 70
     0
 40
0.0
 41
1.0
 50
0.0
 71
     0
 42
3.0
  3
txt
  4

  0
ENDTAB
  0
TABLE
  2
VIEW
 70
     0
  0
ENDTAB
  0
TABLE
  2
UCS
 70
     0
  0
ENDTAB
  0
TABLE
  2
APPID
 70
     3
  0
APPID
  2
ACAD
 70
     0
  0
APPID
  2
ACAD_MLEADERVER
 70
     0
  0
APPID
  2
ACAD_NAV_VCDISPLAY
 70
     0
  0
ENDTAB
  0
TABLE
  2
DIMSTYLE
 70
     2
  0
DIMSTYLE
  2
ISO-25
 70
     0
  3

  4

  5

  6

  7

 40
1.0
 41
2.5
 42
0.625
 43
3.75
 44
1.25
 45
0.0
 46
0.0
 47
0.0
 48
0.0
140
2.5
141
2.5
142
0.0
143
0.03937007874016
144
1.0
145
0.0
146
1.0
147
0.625
 71
     0
 72
     0
 73
     0
 74
     0
 75
     0
 76
     0
 77
     1
 78
     8
170
     0
171
     3
172
     1
173
     0
174
     0
175
     0
176
     0
177
     0
178
     0
  0
DIMSTYLE
  2
STANDARD
 70
     0
  3

  4

  5

  6

  7

 40
1.0
 41
0.18
 42
0.0625
 43
0.38
 44
0.18
 45
0.0
 46
0.0
 47
0.0
 48
0.0
140
0.18
141
0.09
142
0.0
143
25.399999999999999
144
1.0
145
0.0
146
1.0
147
0.09
 71
     0
 72
     0
 73
     1
 74
     1
 75
     0
 76
     0
 77
     0
 78
     0
170
     0
171
     2
172
     0
173
     0
174
     0
175
     0
176
     0
177
     0
178
     0
  0
ENDTAB
  0
ENDSEC
  0
SECTION
  2
BLOCKS
  0
BLOCK
  8
0
  2
$MODEL_SPACE
 70
     0
 10
0.0
 20
0.0
 30
0.0
  3
$MODEL_SPACE
  1

  0
ENDBLK
  5
21
  8
0
  0
BLOCK
 67
     1
  8
0
  2
$PAPER_SPACE
 70
     0
 10
0.0
 20
0.0
 30
0.0
  3
$PAPER_SPACE
  1

  0
ENDBLK
  5
53
 67
     1
  8
0
  0
ENDSEC
  0
SECTION
  2
ENTITIES
  0
CIRCLE
  5
CE
  8
2
 10
66.031565439545489
 20
27.395228080073579
 30
0.0
 40
1.2350000000000001
  0
CIRCLE
  5
CF
  8
2
 10
66.031565439545489
 20
37.945228080073498
 30
0.0
 40
1.2350000000000001
  0
LINE
  5
D0
  8
2
 10
68.031565439545602
 20
26.433228080073579
 30
0.0
 11
67.531565439545489
 21
25.933228080073562
 31
0.0
  0
LINE
  5
D1
  8
2
 10
68.531565439545489
 20
26.226121298887051
 30
0.0
 11
67.885118830138822
 21
25.579674689480299
 31
0.0
  0
LINE
  5
D2
  8
2
 10
63.531565439545602
 20
26.22612129888704
 30
0.0
 11
64.178012048952212
 21
25.57967468948026
 31
0.0
  0
LINE
  5
D3
  8
2
 10
64.178012048952212
 20
25.57967468948026
 30
0.0
 11
64.531565439545602
 21
25.933228080073562
 31
0.0
  0
LINE
  5
D4
  8
2
 10
67.885118830138822
 20
25.579674689480299
 30
0.0
 11
67.531565439545489
 21
25.933228080073562
 31
0.0
  0
LINE
  5
D5
  8
2
 10
68.031565439545602
 20
26.433228080073579
 30
0.0
 11
68.031565439545602
 21
28.370228080073499
 31
0.0
  0
LINE
  5
D6
  8
2
 10
64.031565439545489
 20
26.433228080073579
 30
0.0
 11
64.031565439545489
 21
28.370228080073499
 31
0.0
  0
LINE
  5
D7
  8
2
 10
64.031565439545489
 20
26.433228080073579
 30
0.0
 11
64.531565439545602
 21
25.933228080073562
 31
0.0
  0
LINE
  5
D8
  8
2
 10
68.031565439545602
 20
38.907228080073502
 30
0.0
 11
68.031565439545602
 21
36.970228080073497
 31
0.0
  0
LINE
  5
D9
  8
2
 10
64.031565439545489
 20
38.907228080073502
 30
0.0
 11
64.031565439545489
 21
36.970228080073497
 31
0.0
  0
LINE
  5
DA
  8
2
 10
65.273541693215606
 20
36.970228080073497
 30
0.0
 11
63.531565439545602
 21
36.970228080073497
 31
0.0
  0
LINE
  5
DB
  8
2
 10
64.031565439545489
 20
38.907228080073502
 30
0.0
 11
64.531565439545602
 21
39.407228080073487
 31
0.0
  0
LINE
  5
DC
  8
2
 10
63.531565439545602
 20
39.114334861260112
 30
0.0
 11
64.178012048952212
 21
39.760781470666799
 31
0.0
  0
LINE
  5
DD
  8
2
 10
64.178012048952212
 20
39.760781470666799
 30
0.0
 11
64.531565439545602
 21
39.407228080073487
 31
0.0
  0
LINE
  5
DE
  8
2
 10
68.031565439545602
 20
38.907228080073502
 30
0.0
 11
67.531565439545489
 21
39.407228080073487
 31
0.0
  0
LINE
  5
DF
  8
2
 10
68.531565439545489
 20
39.114334861259991
 30
0.0
 11
67.885118830138822
 21
39.760781470666799
 31
0.0
  0
LINE
  5
E0
  8
2
 10
67.885118830138822
 20
39.760781470666799
 30
0.0
 11
67.531565439545489
 21
39.407228080073487
 31
0.0
  0
LINE
  5
E1
  8
2
 10
63.53156543954551
 20
28.370228080073488
 30
0.0
 11
65.273541693215634
 21
28.370228080073499
 31
0.0
  0
LINE
  5
E2
  8
2
 10
66.789589185875386
 20
28.370228080073499
 30
0.0
 11
68.531565439545517
 21
28.370228080073488
 31
0.0
  0
LINE
  5
E3
  8
2
 10
63.531565439545631
 20
29.6702280800735
 30
0.0
 11
68.53156543954546
 21
29.670228080073532
 31
0.0
  0
LINE
  5
E4
  8
2
 10
63.531565439545602
 20
35.670228080073507
 30
0.0
 11
68.531565439545489
 21
35.670228080073493
 31
0.0
  0
LINE
  5
E5
  8
2
 10
66.789589185875386
 20
36.970228080073497
 30
0.0
 11
68.531565439545545
 21
36.970228080073497
 31
0.0
  0
LINE
  5
E6
  8
1
 10
71.781565439545602
 20
32.6702280800735
 30
0.0
 11
60.281565439545602
 21
32.6702280800735
 31
0.0
  0
LINE
  5
E7
  8
0
 10
63.031565439545602
 20
22.670228080073571
 30
0.0
 11
69.031565439545489
 21
22.67022808007356
 31
0.0
  0
LINE
  5
E8
  8
2
 10
63.531565439545489
 20
25.120228080073559
 30
0.0
 11
68.531565439545489
 21
25.120228080073559
 31
0.0
  0
LINE
  5
E9
  8
2
 10
64.044565439545607
 20
26.420228080073571
 30
0.0
 11
65.273541693215634
 21
26.420228080073571
 31
0.0
  0
LINE
  5
EA
  8
2
 10
66.789589185875386
 20
26.420228080073571
 30
0.0
 11
68.018565439545625
 21
26.420228080073571
 31
0.0
  0
LINE
  5
EB
  8
2
 10
63.531565439545538
 20
40.22022808007349
 30
0.0
 11
63.531565439545489
 21
25.120228080073559
 31
0.0
  0
LINE
  5
EC
  8
2
 10
68.531565439545545
 20
40.220228080073468
 30
0.0
 11
68.531565439545489
 21
25.120228080073559
 31
0.0
  0
LINE
  5
ED
  8
2
 10
63.531565439545489
 20
25.77022808007354
 30
0.0
 11
62.031565439545481
 21
24.904202676289131
 31
0.0
  0
LINE
  5
EE
  8
2
 10
68.531565439545489
 20
25.77022808007354
 30
0.0
 11
70.031565439545489
 21
24.904202676289131
 31
0.0
  0
LINE
  5
EF
  8
0
 10
62.031565439545602
 20
41.6702280800735
 30
0.0
 11
62.031565439545382
 21
23.670228080073588
 31
0.0
  0
LINE
  5
F0
  8
0
 10
70.031565439545489
 20
41.6702280800735
 30
0.0
 11
70.031565439545489
 21
23.67022808007356
 31
0.0
  0
LINE
  5
F1
  8
2
 10
63.531565439545489
 20
40.22022808007349
 30
0.0
 11
68.531565439545489
 21
40.220228080073483
 31
0.0
  0
LINE
  5
F2
  8
2
 10
64.044565439545607
 20
38.9202280800735
 30
0.0
 11
65.273541693215634
 21
38.9202280800735
 31
0.0
  0
LINE
  5
F3
  8
2
 10
66.789589185875386
 20
38.9202280800735
 30
0.0
 11
68.018565439545625
 21
38.9202280800735
 31
0.0
  0
LINE
  5
F4
  8
2
 10
63.531565439545489
 20
39.570228080073512
 30
0.0
 11
62.031565439545481
 21
40.436253483857897
 31
0.0
  0
LINE
  5
F5
  8
2
 10
68.531565439545489
 20
39.570228080073512
 30
0.0
 11
70.031565439545489
 21
40.43625348385801
 31
0.0
  0
LINE
  5
F6
  8
0
 10
63.031565439545602
 20
42.670228080073493
 30
0.0
 11
69.031565439545489
 21
42.670228080073493
 31
0.0
  0
ARC
  5
F7
  8
0
 10
63.031565439545602
 20
41.6702280800735
 30
0.0
 40
1.0
 50
90.0
 51
180.0
  0
ARC
  5
F8
  8
0
 10
69.031565439545489
 20
41.6702280800735
 30
0.0
 40
1.0
 50
0.0
 51
90.0
  0
ARC
  5
F9
  8
0
 10
63.031565439545602
 20
23.670228080073571
 30
0.0
 40
1.0
 50
180.0
 51
270.0
  0
ARC
  5
FA
  8
0
 10
69.031565439545489
 20
23.67022808007356
 30
0.0
 40
1.0
 50
270.0
 51
0.0
  0
CIRCLE
  5
FB
  8
0
 10
30.201847750088891
 20
32.665760268556902
 30
0.0
 40
10.0
  0
CIRCLE
  5
FC
  8
0
 10
30.201847750088891
 20
32.665760268556902
 30
0.0
 40
3.0
  0
CIRCLE
  5
FD
  8
0
 10
30.201847750088891
 20
32.661292457040311
 30
0.0
 40
4.3044678115166279
  0
CIRCLE
  5
FE
  8
0
 10
30.201847750088891
 20
32.665760268556902
 30
0.0
 40
7.7660254037844512
  0
CIRCLE
  5
FF
  8
0
 10
30.201847750088891
 20
32.661292457040311
 30
0.0
 40
6.444106781186532
  0
CIRCLE
  5
100
  8
0
 10
30.201847750088891
 20
32.661292457040311
 30
0.0
 40
6.900000000000003
  0
LINE
  5
101
  8
1
 10
42.962442233110771
 20
32.664866706253576
 30
0.0
 11
17.44416572213478
 21
32.664866706253576
 31
0.0
  0
LINE
  5
102
  8
1
 10
30.20330397762277
 20
19.905728450765611
 30
0.0
 11
30.20330397762277
 21
45.424004961741609
 31
0.0
  0
TEXT
  5
1AA
  8
0
 62
     3
 10
0.0
 20
0.0
 30
0.0
 40
10.0
  1
CTG-BR20
  7
STANDARD1
  0
ENDSEC
  0
EOF
