  0
SECTION
  2
HEADER
  9
$ACADVER
  1
AC1009
  9
$INSBASE
 10
0.0
 20
0.0
 30
0.0
  9
$EXTMIN
 10
0.0
 20
-2.960436562073669
 30
0.0
  9
$EXTMAX
 10
178.8386596241572
 20
184.00000000000011
 30
0.0
  9
$LIMMIN
 10
0.0
 20
0.0
  9
$LIMMAX
 10
187.5
 20
135.0
  9
$ORTHOMODE
 70
     1
  9
$REGENMODE
 70
     1
  9
$FILLMODE
 70
     1
  9
$QTEXTMODE
 70
     0
  9
$MIRRTEXT
 70
     0
  9
$DRAGMODE
 70
     2
  9
$LTSCALE
 40
5.0
  9
$OSMODE
 70
    37
  9
$ATTMODE
 70
     1
  9
$TEXTSIZE
 40
0.2
  9
$TRACEWID
 40
0.05
  9
$TEXTSTYLE
  7
STANDARD
  9
$CLAYER
  8
0
  9
$CELTYPE
  6
BYLAYER
  9
$CECOLOR
 62
   256
  9
$DIMSCALE
 40
1.0
  9
$DIMASZ
 40
3.0
  9
$DIMEXO
 40
2.0
  9
$DIMDLI
 40
0.3799999999999999
  9
$DIMRND
 40
0.0
  9
$DIMDLE
 40
0.0
  9
$DIMEXE
 40
2.0
  9
$DIMTP
 40
0.0
  9
$DIMTM
 40
0.0
  9
$DIMTXT
 40
3.2000000000000002
  9
$DIMCEN
 40
0.0
  9
$DIMTSZ
 40
0.0
  9
$DIMTOL
 70
     0
  9
$DIMLIM
 70
     0
  9
$DIMTIH
 70
     0
  9
$DIMTOH
 70
     0
  9
$DIMSE1
 70
     0
  9
$DIMSE2
 70
     0
  9
$DIMTAD
 70
     1
  9
$DIMZIN
 70
     8
  9
$DIMBLK
  1

  9
$DIMASO
 70
     0
  9
$DIMSHO
 70
     0
  9
$DIMPOST
  1

  9
$DIMAPOST
  1

  9
$DIMALT
 70
     0
  9
$DIMALTD
 70
     2
  9
$DIMALTF
 40
25.399999999999999
  9
$DIMLFAC
 40
1.0
  9
$DIMTOFL
 70
     0
  9
$DIMTVP
 40
1.6000000000000001
  9
$DIMTIX
 70
     0
  9
$DIMSOXD
 70
     0
  9
$DIMSAH
 70
     0
  9
$DIMBLK1
  1

  9
$DIMBLK2
  1

  9
$DIMSTYLE
  2
STANDARD
  9
$DIMCLRD
 70
     0
  9
$DIMCLRE
 70
     0
  9
$DIMCLRT
 70
     0
  9
$DIMTFAC
 40
1.0
  9
$DIMGAP
 40
1.0
  9
$LUNITS
 70
     2
  9
$LUPREC
 70
     1
  9
$SKETCHINC
 40
0.1
  9
$FILLETRAD
 40
0.4
  9
$AUNITS
 70
     0
  9
$AUPREC
 70
     1
  9
$MENU
  1
E:\r13\win\SUPPORT\ACAD
  9
$ELEVATION
 40
0.0
  9
$PELEVATION
 40
0.0
  9
$THICKNESS
 40
0.0
  9
$LIMCHECK
 70
     0
  9
$BLIPMODE
 70
     0
  9
$CHAMFERA
 40
0.0
  9
$CHAMFERB
 40
0.0
  9
$SKPOLY
 70
     0
  9
$TDCREATE
 40
2456129.6740617128
  9
$TDUPDATE
 40
2457534.5688975579
  9
$TDINDWG
 40
0.604630162
  9
$TDUSRTIMER
 40
0.6046299884
  9
$USRTIMER
 70
     1
  9
$ANGBASE
 50
0.0
  9
$ANGDIR
 70
     0
  9
$PDMODE
 70
     0
  9
$PDSIZE
 40
0.0
  9
$PLINEWID
 40
0.0
  9
$COORDS
 70
     1
  9
$SPLFRAME
 70
     0
  9
$SPLINETYPE
 70
     6
  9
$SPLINESEGS
 70
     8
  9
$ATTDIA
 70
     0
  9
$ATTREQ
 70
     1
  9
$HANDLING
 70
     1
  9
$HANDSEED
  5
B5CB
  9
$SURFTAB1
 70
     6
  9
$SURFTAB2
 70
     6
  9
$SURFTYPE
 70
     6
  9
$SURFU
 70
     6
  9
$SURFV
 70
     6
  9
$UCSNAME
  2

  9
$UCSORG
 10
0.0
 20
0.0
 30
0.0
  9
$UCSXDIR
 10
1.0
 20
0.0
 30
0.0
  9
$UCSYDIR
 10
0.0
 20
1.0
 30
0.0
  9
$PUCSNAME
  2

  9
$PUCSORG
 10
0.0
 20
0.0
 30
0.0
  9
$PUCSXDIR
 10
1.0
 20
0.0
 30
0.0
  9
$PUCSYDIR
 10
0.0
 20
1.0
 30
0.0
  9
$USERI1
 70
     0
  9
$USERI2
 70
     1
  9
$USERI3
 70
     0
  9
$USERI4
 70
     0
  9
$USERI5
 70
     0
  9
$USERR1
 40
0.0
  9
$USERR2
 40
0.0
  9
$USERR3
 40
0.0
  9
$USERR4
 40
0.0
  9
$USERR5
 40
0.0
  9
$WORLDVIEW
 70
     1
  9
$SHADEDGE
 70
     3
  9
$SHADEDIF
 70
    70
  9
$TILEMODE
 70
     1
  9
$MAXACTVP
 70
    16
  9
$PLIMCHECK
 70
     0
  9
$PEXTMIN
 10
1.0000000000000000E+020
 20
1.0000000000000000E+020
 30
1.0000000000000000E+020
  9
$PEXTMAX
 10
-1.0000000000000000E+020
 20
-1.0000000000000000E+020
 30
-1.0000000000000000E+020
  9
$PLIMMIN
 10
0.0
 20
0.0
  9
$PLIMMAX
 10
12.0
 20
9.0
  9
$UNITMODE
 70
     0
  9
$VISRETAIN
 70
     0
  9
$PLINEGEN
 70
     0
  9
$PSLTSCALE
 70
     0
  0
ENDSEC
  0
SECTION
  2
TABLES
  0
TABLE
  2
VPORT
 70
     1
  0
VPORT
  2
*ACTIVE
 70
     0
 10
0.0
 20
0.0
 11
1.0
 21
1.0
 12
172.54273504273499
 22
95.0
 13
0.0
 23
0.0
 14
5.0
 24
5.0
 15
5.0
 25
5.0
 16
0.0
 26
0.0
 36
1.0
 17
0.0
 27
0.0
 37
0.0
 40
190.0
 41
1.816239316239316
 42
50.0
 43
0.0
 44
0.0
 50
0.0
 51
0.0
 71
     0
 72
   500
 73
     1
 74
     0
 75
     0
 76
     0
 77
     0
 78
     2
  0
ENDTAB
  0
TABLE
  2
LTYPE
 70
     4
  0
LTYPE
  2
CONTINUOUS
 70
     0
  3
Solid Line
 72
    65
 73
     0
 40
0.0
  0
LTYPE
  2
CENTER
 70
     0
  3
____ _ ____ _ ____ _ ____ _ ____ _ ____ _ ____
 72
    65
 73
     4
 40
2.0
 49
1.25
 49
-0.25
 49
0.25
 49
-0.25
  0
LTYPE
  2
PHANTOM2
 70
     0
  3
___ _ _ ___ _ _ ___ _ _ ___ _ _
 72
    65
 73
     6
 40
1.25
 49
0.625
 49
-0.125
 49
0.125
 49
-0.125
 49
0.125
 49
-0.125
  0
LTYPE
  2
HIDDEN
 70
     0
  3
_ _ _ _ _ _ _ _ _ _ _ _ _ _ _ _ _ _ _ _ _ _ _
 72
    65
 73
     2
 40
0.375
 49
0.25
 49
-0.125
  0
ENDTAB
  0
TABLE
  2
LAYER
 70
     5
  0
LAYER
  2
0
 70
     0
 62
     7
  6
CONTINUOUS
  0
LAYER
  2
1
 70
     0
 62
     1
  6
CENTER
  0
LAYER
  2
DEFPOINTS
 70
     0
 62
     7
  6
CONTINUOUS
  0
LAYER
  2
2
 70
     0
 62
     2
  6
HIDDEN
  0
LAYER
  2
3
 70
     0
 62
     3
  6
CONTINUOUS
  0
ENDTAB
  0
TABLE
  2
STYLE
 70
     2
  0
STYLE
  2
STANDARD
 70
     0
 40
0.0
 41
1.0
 50
0.0
 71
     0
 42
0.2
  3
TXT
  4
BIGFONT
  0
STYLE
  2
STANDARD1
 70
     0
 40
0.0
 41
1.0
 50
0.0
 71
     0
 42
3.0
  3
txt
  4

  0
ENDTAB
  0
TABLE
  2
VIEW
 70
     0
  0
ENDTAB
  0
TABLE
  2
UCS
 70
     0
  0
ENDTAB
  0
TABLE
  2
APPID
 70
     7
  0
APPID
  2
ACAD
 70
     0
  0
APPID
  2
ACAD_MLEADERVER
 70
     0
  0
APPID
  2
ACAD_PSEXT
 70
     0
  0
APPID
  2
ACAD_EXEMPT_FROM_CAD_STANDARDS
 70
     0
  0
APPID
  2
ACAD_DSTYLE_DIMJAG
 70
     0
  0
APPID
  2
ACAD_DSTYLE_DIMTALN
 70
     0
  0
APPID
  2
ACAD_NAV_VCDISPLAY
 70
     0
  0
ENDTAB
  0
TABLE
  2
DIMSTYLE
 70
     1
  0
DIMSTYLE
  2
STANDARD
 70
     0
  3

  4

  5

  6

  7

 40
1.0
 41
0.18
 42
0.0625
 43
0.38
 44
0.18
 45
0.0
 46
0.0
 47
0.0
 48
0.0
140
0.18
141
0.09
142
0.0
143
25.399999999999999
144
1.0
145
0.0
146
1.0
147
0.09
 71
     0
 72
     0
 73
     1
 74
     1
 75
     0
 76
     0
 77
     0
 78
     0
170
     0
171
     2
172
     0
173
     0
174
     0
175
     0
176
     0
177
     0
178
     0
  0
ENDTAB
  0
ENDSEC
  0
SECTION
  2
BLOCKS
  0
BLOCK
  8
0
  2
$MODEL_SPACE
 70
     0
 10
0.0
 20
0.0
 30
0.0
  3
$MODEL_SPACE
  1

  0
ENDBLK
  5
9
  8
0
  0
BLOCK
 67
     1
  8
0
  2
$PAPER_SPACE
 70
     0
 10
0.0
 20
0.0
 30
0.0
  3
$PAPER_SPACE
  1

  0
ENDBLK
  5
E
 67
     1
  8
0
  0
ENDSEC
  0
SECTION
  2
ENTITIES
  0
TEXT
  5
A08D
  8
0
 62
     3
 10
0.0
 20
0.0
 30
0.0
 40
10.0
  1
CTK48-6X16-3BK
  7
STANDARD1
  0
ARC
  5
AED4
  8
0
 10
132.5245929699733
 20
193.45310784217159
 30
0.0
 40
22.580670187921459
 50
266.65355937535372
 51
284.5149952542244
  0
ARC
  5
AED5
  8
0
 10
167.31406665418379
 20
138.54689215782841
 30
0.0
 40
22.580670187921449
 50
86.653559375353268
 51
104.5149952542244
  0
ARC
  5
AED7
  8
0
 10
167.3140666541839
 20
193.45310784217159
 30
0.0
 40
22.58067018792147
 50
255.48500474577571
 51
273.34644062464793
  0
ARC
  5
AED9
  8
0
 10
132.5245929699733
 20
138.54689215782841
 30
0.0
 40
22.580670187921449
 50
75.485004745775726
 51
93.346440624646903
  0
ARC
  5
AEDA
  8
0
 10
130.91932981207859
 20
166.0
 30
0.0
 40
4.919329812078586
 50
86.653559375352856
 51
273.3464406246469
  0
ARC
  5
AEDD
  8
0
 10
168.91932981207859
 20
166.0
 30
0.0
 40
4.919329812078586
 50
266.6535593753531
 51
93.346440624646306
  0
ARC
  5
AEDE
  8
0
 10
132.5245929699733
 20
193.45310784217159
 30
0.0
 40
22.657223337849139
 50
289.77652262622792
 51
302.35901374316819
  0
ARC
  5
AEDF
  8
0
 10
137.29815628334421
 20
178.8694722060676
 30
0.0
 40
7.3319501174897832
 50
276.95126456284618
 51
293.23570673896108
  0
ARC
  5
AEE0
  8
0
 10
167.31406665418379
 20
138.54689215782841
 30
0.0
 40
22.657223337849128
 50
109.77652262622721
 51
122.35901374316779
  0
ARC
  5
AEE1
  8
0
 10
162.54050334081529
 20
153.1305277939245
 30
0.0
 40
7.3319501174978949
 50
96.951264562856124
 51
113.2357067389525
  0
ARC
  5
AEE2
  8
0
 10
167.3140666541839
 20
193.45310784217159
 30
0.0
 40
22.657223337849139
 50
237.64098625683249
 51
250.22347737377251
  0
ARC
  5
AEE3
  8
0
 10
162.6455487103845
 20
179.25896372038611
 30
0.0
 40
7.731502890862096
 50
247.1877069526673
 51
262.62532174551887
  0
ARC
  5
AEE4
  8
0
 10
132.5245929699733
 20
138.54689215782841
 30
0.0
 40
22.657223337849139
 50
57.640986256832157
 51
70.223477373772766
  0
ARC
  5
AEE5
  8
0
 10
137.19311091377179
 20
152.74103627961051
 30
0.0
 40
7.7315028908655341
 50
67.187706952670382
 51
82.625321745514569
  0
ARC
  5
AEE6
  8
0
 10
149.91932981207859
 20
166.0
 30
0.0
 40
9.8427766621508574
 50
57.640986256832157
 51
122.35901374316779
  0
ARC
  5
AEE7
  8
0
 10
149.91932981207859
 20
166.0
 30
0.0
 40
9.8427766621509143
 50
237.64098625683249
 51
302.35901374316819
  0
LINE
  5
AEE8
  8
0
 10
138.18406256575761
 20
171.59316570981281
 30
0.0
 11
138.18550588194719
 21
171.5914159260422
 31
0.0
  0
ARC
  5
AEE9
  8
0
 10
149.91932981207859
 20
166.0
 30
0.0
 40
13.000000000000041
 50
25.48301527878062
 51
154.51698472121939
  0
LINE
  5
AEEA
  8
0
 10
161.65315374221041
 20
171.59141592604209
 30
0.0
 11
161.6545970583997
 21
171.59316570981281
 31
0.0
  0
LINE
  5
AEEB
  8
0
 10
161.6545970583997
 20
160.40683429018719
 30
0.0
 11
161.65315374221001
 21
160.4085840739578
 31
0.0
  0
ARC
  5
AEEC
  8
0
 10
149.91932981207859
 20
166.0
 30
0.0
 40
13.000000000000041
 50
205.4830152787824
 51
334.51698472121939
  0
LINE
  5
AEED
  8
0
 10
138.18550588194691
 20
160.40858407395791
 30
0.0
 11
138.18406256575761
 21
160.40683429018719
 31
0.0
  0
ARC
  5
AF1A
  8
0
 10
162.41932981207859
 20
76.5
 30
0.0
 40
0.5
 50
270.0000000000008
 51
0.0
  0
ARC
  5
AF1B
  8
0
 10
137.41932981207859
 20
76.5
 30
0.0
 40
0.5
 50
180.0
 51
270.0000000000008
  0
LINE
  5
AF1C
  8
0
 10
162.9193298120787
 20
76.5
 30
0.0
 11
162.9193298120787
 21
84.0
 31
0.0
  0
LINE
  5
AF1D
  8
0
 10
136.91932981207859
 20
84.0
 30
0.0
 11
136.91932981207859
 21
76.5
 31
0.0
  0
ARC
  5
AF1E
  8
0
 10
127.5
 20
85.5
 30
0.0
 40
1.5
 50
176.99999999999929
 51
270.0000000000008
  0
ARC
  5
AF1F
  8
0
 10
172.3386596241572
 20
85.5
 30
0.0
 40
1.5
 50
270.0000000000008
 51
2.9999999999990772
  0
LINE
  5
AF20
  8
0
 10
173.836603926289
 20
85.578503934364392
 30
0.0
 11
173.18414024557731
 21
98.028252364847447
 31
0.0
  0
LINE
  5
AF21
  8
0
 10
126.65474824898089
 20
98.032497444033254
 30
0.0
 11
126.0020556978682
 21
85.578503934364434
 31
0.0
  0
ARC
  5
AF22
  8
0
 10
171.68620263553609
 20
97.949620841752647
 30
0.0
 40
1.4999999999999969
 50
3.0048802295779931
 51
71.351260455700626
  0
ARC
  5
AF23
  8
0
 10
128.15245698862111
 20
97.949620841752619
 30
0.0
 40
1.49999999999999
 50
108.64873954429351
 51
176.83273414151449
  0
LINE
  5
AF24
  8
0
 10
154.91932981207859
 20
75.199999999999989
 30
0.0
 11
154.91932981207859
 21
76.0
 31
0.0
  0
LINE
  5
AF25
  8
0
 10
144.91932981207859
 20
76.0
 30
0.0
 11
144.91932981207859
 21
75.199999999999989
 31
0.0
  0
LINE
  5
AF26
  8
0
 10
144.91932981207859
 20
75.199999999999989
 30
0.0
 11
145.1193298120786
 21
75.0
 31
0.0
  0
LINE
  5
AF27
  8
0
 10
154.7193298120786
 20
75.0
 30
0.0
 11
154.91932981207859
 21
75.199999999999989
 31
0.0
  0
LINE
  5
AF28
  8
0
 10
161.6545970583997
 20
85.5
 30
0.0
 11
161.65315374221001
 21
85.578503934364434
 31
0.0
  0
LINE
  5
AF29
  8
0
 10
138.18550588194691
 20
85.578503934364434
 30
0.0
 11
138.18406256575761
 21
85.5
 31
0.0
  0
ARC
  5
AF2A
  8
0
 10
139.91642922242701
 20
85.261862097853339
 30
0.0
 40
1.7596470280281
 50
81.032330165912796
 51
169.6333725357778
  0
LINE
  5
AF2B
  8
0
 10
140.19071793231001
 20
87.0
 30
0.0
 11
159.64794169184719
 21
87.0
 31
0.0
  0
ARC
  5
AF2C
  8
0
 10
159.9292022216753
 20
85.271696790826013
 30
0.0
 40
1.751039539382363
 50
10.09112849545282
 51
99.243168802764913
  0
LINE
  5
AF2D
  8
0
 10
162.41932981207859
 20
76.0
 30
0.0
 11
137.41932981207859
 21
76.0
 31
0.0
  0
POLYLINE
  5
AF2E
  8
0
 66
     1
 10
0.0
 20
0.0
 30
0.0
 70
   128
  0
VERTEX
  5
B55C
  8
0
 10
138.18406256575761
 20
85.5
 30
0.0
  0
VERTEX
  5
B55D
  8
0
 10
138.1757800107502
 20
85.289927455351176
 30
0.0
  0
VERTEX
  5
B55E
  8
0
 10
138.16541914318259
 20
85.185333863496794
 30
0.0
  0
VERTEX
  5
B55F
  8
0
 10
138.15095159063881
 20
85.081618759166957
 30
0.0
  0
VERTEX
  5
B560
  8
0
 10
138.11306477896019
 20
84.891233152176653
 30
0.0
  0
VERTEX
  5
B561
  8
0
 10
138.06339391958289
 20
84.713520027071695
 30
0.0
  0
VERTEX
  5
B562
  8
0
 10
138.0258331879524
 20
84.606101775154912
 30
0.0
  0
VERTEX
  5
B563
  8
0
 10
137.984736214788
 20
84.505552001259659
 30
0.0
  0
VERTEX
  5
B564
  8
0
 10
137.94101591406519
 20
84.413121560840224
 30
0.0
  0
VERTEX
  5
B565
  8
0
 10
137.89493145183511
 20
84.328586506880043
 30
0.0
  0
VERTEX
  5
B566
  8
0
 10
137.84841885542389
 20
84.254550015572619
 30
0.0
  0
VERTEX
  5
B567
  8
0
 10
137.8009310407746
 20
84.189300668212667
 30
0.0
  0
VERTEX
  5
B568
  8
0
 10
137.75236508611539
 20
84.132561621164427
 30
0.0
  0
VERTEX
  5
B569
  8
0
 10
137.7036187511861
 20
84.085395419096173
 30
0.0
  0
VERTEX
  5
B56A
  8
0
 10
137.6560952473389
 20
84.048845572744469
 30
0.0
  0
VERTEX
  5
B56B
  8
0
 10
137.60906801114561
 20
84.022160588656035
 30
0.0
  0
VERTEX
  5
B56C
  8
0
 10
137.56234665840259
 20
84.005617831771133
 30
0.0
  0
VERTEX
  5
B56D
  8
0
 10
137.5167302034213
 20
84.0
 30
0.0
  0
SEQEND
  5
B56E
  8
0
  0
POLYLINE
  5
AF2F
  8
0
 66
     1
 10
0.0
 20
0.0
 30
0.0
 70
   128
  0
VERTEX
  5
B56F
  8
0
 10
162.3219294207359
 20
84.0
 30
0.0
  0
VERTEX
  5
B570
  8
0
 10
162.26445311544501
 20
84.008828502701931
 30
0.0
  0
VERTEX
  5
B571
  8
0
 10
162.2043958178503
 20
84.035253739998495
 30
0.0
  0
VERTEX
  5
B572
  8
0
 10
162.14116103264101
 20
84.080162304878286
 30
0.0
  0
VERTEX
  5
B573
  8
0
 10
162.07652694869981
 20
84.143185002539781
 30
0.0
  0
VERTEX
  5
B574
  8
0
 10
162.02113187023809
 20
84.210976361983938
 30
0.0
  0
VERTEX
  5
B575
  8
0
 10
161.9659649662222
 20
84.291872883940073
 30
0.0
  0
VERTEX
  5
B576
  8
0
 10
161.9108867262342
 20
84.387584860955741
 30
0.0
  0
VERTEX
  5
B577
  8
0
 10
161.85762312959361
 20
84.497202145432709
 30
0.0
  0
VERTEX
  5
B578
  8
0
 10
161.82133871924799
 20
84.583998156847372
 30
0.0
  0
VERTEX
  5
B579
  8
0
 10
161.7870468872751
 20
84.677901036228462
 30
0.0
  0
VERTEX
  5
B57A
  8
0
 10
161.75488546485931
 20
84.780255649952153
 30
0.0
  0
VERTEX
  5
B57B
  8
0
 10
161.72592916169961
 20
84.889837017071272
 30
0.0
  0
VERTEX
  5
B57C
  8
0
 10
161.68823829278
 20
85.078318099447586
 30
0.0
  0
VERTEX
  5
B57D
  8
0
 10
161.6740398912097
 20
85.178698782412184
 30
0.0
  0
VERTEX
  5
B57E
  8
0
 10
161.66342913392219
 20
85.283088916895466
 30
0.0
  0
VERTEX
  5
B57F
  8
0
 10
161.65683999669531
 20
85.390579814083878
 30
0.0
  0
VERTEX
  5
B580
  8
0
 10
161.6545970583997
 20
85.5
 30
0.0
  0
SEQEND
  5
B581
  8
0
  0
ARC
  5
AF30
  8
0
 10
149.9193298120785
 20
33.000000000001307
 30
0.0
 40
69.999999999998707
 50
86.601414803016979
 51
93.398585196982211
  0
ARC
  5
AF31
  8
0
 10
149.9193298120785
 20
32.999999999999069
 30
0.0
 40
70.000000000000995
 50
74.034708403320892
 51
86.601414803016979
  0
ARC
  5
AF32
  8
0
 10
149.91932981207879
 20
32.999999999999261
 30
0.0
 40
70.000000000000782
 50
93.398585196983007
 51
105.96529159667899
  0
LINE
  5
AF33
  8
0
 10
172.3386596241572
 20
84.000000000000028
 30
0.0
 11
162.3219294207359
 21
84.0
 31
0.0
  0
LINE
  5
AF34
  8
0
 10
137.5167302034213
 20
84.0
 30
0.0
 11
127.5
 21
84.0
 31
0.0
  0
ARC
  5
AF37
  8
0
 10
149.9211932835733
 20
33.006248539946398
 30
0.0
 40
69.993479918542761
 50
71.46943985750643
 51
74.034768080357125
  0
LINE
  5
AF3A
  8
0
 10
154.7193298120786
 20
75.0
 30
0.0
 11
145.1193298120786
 21
75.0
 31
0.0
  0
ARC
  5
AF50
  8
0
 10
59.580670187921399
 20
85.500000000000014
 30
0.0
 40
1.5000000000000011
 50
177.00000000000091
 51
270.0000000000008
  0
ARC
  5
AF51
  8
0
 10
66.419329812078516
 20
85.500000000000014
 30
0.0
 40
1.5
 50
270.0000000000008
 51
2.9999999999990772
  0
LINE
  5
AF52
  8
0
 10
67.917274114210372
 20
85.57850393436442
 30
0.0
 11
67.219589857659415
 21
98.891112598489315
 31
0.0
  0
LINE
  5
AF53
  8
0
 10
58.780410142339989
 20
98.891112598489201
 30
0.0
 11
58.082725885789529
 21
85.57850393436442
 31
0.0
  0
POLYLINE
  5
AF54
  8
0
 66
     1
 10
0.0
 20
0.0
 30
0.0
 70
   128
  0
VERTEX
  5
B582
  8
0
 10
67.219589857659415
 20
98.891112598489315
 30
0.0
  0
VERTEX
  5
B583
  8
0
 10
67.182717606903054
 20
99.166611641565353
 30
0.0
  0
VERTEX
  5
B584
  8
0
 10
67.168388922658892
 20
99.219617312781736
 30
0.0
  0
SEQEND
  5
B585
  8
0
  0
LINE
  5
AF56
  8
0
 10
70.605135358207306
 20
103.0
 30
0.0
 11
55.394864641792367
 21
103.0
 31
0.0
  0
POLYLINE
  5
AF57
  8
0
 66
     1
 10
0.0
 20
0.0
 30
0.0
 70
   128
  0
VERTEX
  5
B586
  8
0
 10
67.168388922658892
 20
99.219617312781736
 30
0.0
  0
VERTEX
  5
B587
  8
0
 10
67.151569306250707
 20
99.305281093767022
 30
0.0
  0
VERTEX
  5
B588
  8
0
 10
67.150937938237433
 20
99.316674944067387
 30
0.0
  0
SEQEND
  5
B589
  8
0
  0
LINE
  5
AF58
  8
0
 10
76.000000000000057
 20
76.500000000000028
 30
0.0
 11
76.000000000000057
 21
85.500000000000014
 31
0.0
  0
LINE
  5
AF59
  8
0
 10
50.0
 20
85.500000000000014
 30
0.0
 11
50.0
 21
76.500000000000028
 31
0.0
  0
ARC
  5
AF5A
  8
0
 10
75.500000000000057
 20
76.500000000000028
 30
0.0
 40
0.5
 50
270.0000000000008
 51
0.0
  0
ARC
  5
AF5B
  8
0
 10
50.5
 20
76.500000000000028
 30
0.0
 40
0.5
 50
180.0
 51
270.0000000000008
  0
ARC
  5
AF5C
  8
0
 10
51.5
 20
85.500000000000014
 30
0.0
 40
1.5
 50
90.0
 51
180.0
  0
ARC
  5
AF5D
  8
0
 10
74.500000000000057
 20
85.500000000000014
 30
0.0
 40
1.5
 50
0.0
 51
90.0
  0
LINE
  5
AF5E
  8
0
 10
72.842776662150897
 20
87.000000000000014
 30
0.0
 11
72.078813366879274
 21
101.57728806148531
 31
0.0
  0
LINE
  5
AF5F
  8
0
 10
53.92118663312079
 20
101.57728806148531
 30
0.0
 11
53.157223337849153
 21
87.000000000000014
 31
0.0
  0
ARC
  5
AF60
  8
0
 10
70.581326252581192
 20
101.500747084324
 30
0.0
 40
1.499441955753412
 50
2.9260097254496058
 51
89.090182455990373
  0
LINE
  5
AF62
  8
0
 10
68.000000000000028
 20
75.200000000000017
 30
0.0
 11
68.000000000000028
 21
76.000000000000028
 31
0.0
  0
LINE
  5
AF63
  8
0
 10
58.000000000000028
 20
76.000000000000028
 30
0.0
 11
58.000000000000028
 21
75.200000000000017
 31
0.0
  0
LINE
  5
AF64
  8
0
 10
58.000000000000028
 20
75.200000000000017
 30
0.0
 11
58.200000000000017
 21
75.000000000000028
 31
0.0
  0
LINE
  5
AF65
  8
0
 10
67.800000000000026
 20
75.000000000000028
 30
0.0
 11
68.000000000000028
 21
75.200000000000017
 31
0.0
  0
ARC
  5
AF67
  8
0
 10
66.970582105474634
 20
85.625717280276717
 30
0.0
 40
1.627446585183959
 50
267.358451984277
 51
355.56959181801261
  0
LINE
  5
AF68
  8
0
 10
68.591415926042089
 20
85.578503934364434
 30
0.0
 11
68.593165709812723
 21
85.500000000000014
 31
0.0
  0
LINE
  5
AF69
  8
0
 10
66.89557735738029
 20
84.000000000000028
 30
0.0
 11
59.104422642619518
 21
84.000000000000028
 31
0.0
  0
ARC
  5
AF6A
  8
0
 10
59.018508253037389
 20
85.613370560063984
 30
0.0
 40
1.6156564753741489
 50
184.0237495621254
 51
273.04820663558871
  0
LINE
  5
AF6B
  8
0
 10
57.40683429018722
 20
85.500000000000014
 30
0.0
 11
57.408584073957783
 21
85.578503934364434
 31
0.0
  0
POLYLINE
  5
AF6D
  8
0
 66
     1
 10
0.0
 20
0.0
 30
0.0
 70
   128
  0
VERTEX
  5
B58A
  8
0
 10
68.59141592604206
 20
85.578503934366935
 30
0.0
  0
VERTEX
  5
B58B
  8
0
 10
68.588687053992061
 20
85.898051250589774
 30
0.0
  0
VERTEX
  5
B58C
  8
0
 10
68.617352736249245
 20
86.255258818415385
 30
0.0
  0
VERTEX
  5
B58D
  8
0
 10
68.680206431697343
 20
86.552686749150951
 30
0.0
  0
VERTEX
  5
B58E
  8
0
 10
68.823310169533414
 20
86.846402097692163
 30
0.0
  0
VERTEX
  5
B58F
  8
0
 10
68.968341636099581
 20
86.964673573829856
 30
0.0
  0
VERTEX
  5
B590
  8
0
 10
69.132219083890135
 20
87.000000000000014
 30
0.0
  0
SEQEND
  5
B591
  8
0
  0
POLYLINE
  5
AF6E
  8
0
 66
     1
 10
0.0
 20
0.0
 30
0.0
 70
   128
  0
VERTEX
  5
B592
  8
0
 10
56.867780916109822
 20
87.000000000000014
 30
0.0
  0
VERTEX
  5
B593
  8
0
 10
57.038996330453088
 20
86.961139154228306
 30
0.0
  0
VERTEX
  5
B594
  8
0
 10
57.193728647554792
 20
86.823993863121871
 30
0.0
  0
VERTEX
  5
B595
  8
0
 10
57.320212167634622
 20
86.551301211482041
 30
0.0
  0
VERTEX
  5
B596
  8
0
 10
57.389376721617033
 20
86.203253105175705
 30
0.0
  0
VERTEX
  5
B597
  8
0
 10
57.413021580697922
 20
85.758890661336636
 30
0.0
  0
VERTEX
  5
B598
  8
0
 10
57.408584073957762
 20
85.578503934364505
 30
0.0
  0
SEQEND
  5
B599
  8
0
  0
LINE
  5
AF6F
  8
0
 10
75.500000000000057
 20
76.000000000000028
 30
0.0
 11
50.500000002998782
 21
76.000000000000028
 31
0.0
  0
LINE
  5
AF70
  8
0
 10
51.5
 20
87.000000000000014
 30
0.0
 11
56.867780916109822
 21
87.000000000000014
 31
0.0
  0
LINE
  5
AF71
  8
0
 10
69.132219083890135
 20
87.000000000000014
 30
0.0
 11
74.500000000000057
 21
87.000000000000014
 31
0.0
  0
LINE
  5
AF73
  8
0
 10
67.800000000000026
 20
75.000000000000028
 30
0.0
 11
58.200000000000017
 21
75.000000000000028
 31
0.0
  0
POLYLINE
  5
AF75
  8
0
 66
     1
 10
0.0
 20
0.0
 30
0.0
 70
   128
  0
VERTEX
  5
B59A
  8
0
 10
67.219589857659415
 20
98.891112598489315
 30
0.0
  0
VERTEX
  5
B59B
  8
0
 10
67.196615632812041
 20
98.799850466563953
 30
0.0
  0
VERTEX
  5
B59C
  8
0
 10
67.051824385628038
 20
98.657860819315545
 30
0.0
  0
VERTEX
  5
B59D
  8
0
 10
66.788073148717956
 20
98.523105104901106
 30
0.0
  0
VERTEX
  5
B59E
  8
0
 10
66.39679703077411
 20
98.392283756092468
 30
0.0
  0
VERTEX
  5
B59F
  8
0
 10
65.914730493693298
 20
98.278565231285313
 30
0.0
  0
VERTEX
  5
B5A0
  8
0
 10
65.324089879175972
 20
98.178964535658679
 30
0.0
  0
VERTEX
  5
B5A1
  8
0
 10
64.700547074637825
 20
98.105969310459614
 30
0.0
  0
VERTEX
  5
B5A2
  8
0
 10
64.005480083904501
 20
98.054680416138851
 30
0.0
  0
VERTEX
  5
B5A3
  8
0
 10
63.333072780182533
 20
98.031006981722953
 30
0.0
  0
VERTEX
  5
B5A4
  8
0
 10
62.63201157491465
 20
98.031643960514373
 30
0.0
  0
VERTEX
  5
B5A5
  8
0
 10
61.980460851155961
 20
98.055437911449388
 30
0.0
  0
VERTEX
  5
B5A6
  8
0
 10
61.338719306346768
 20
98.102282561848881
 30
0.0
  0
VERTEX
  5
B5A7
  8
0
 10
60.754431180443021
 20
98.168159842444368
 30
0.0
  0
VERTEX
  5
B5A8
  8
0
 10
60.213699822634219
 20
98.253822190623168
 30
0.0
  0
VERTEX
  5
B5A9
  8
0
 10
59.742737056966916
 20
98.355370383770378
 30
0.0
  0
VERTEX
  5
B5AA
  8
0
 10
59.347572744382092
 20
98.471904575886981
 30
0.0
  0
VERTEX
  5
B5AB
  8
0
 10
59.047284612778753
 20
98.599157757808371
 30
0.0
  0
VERTEX
  5
B5AC
  8
0
 10
58.853241957979492
 20
98.734852864459256
 30
0.0
  0
VERTEX
  5
B5AD
  8
0
 10
58.780410142339989
 20
98.891112598489201
 30
0.0
  0
SEQEND
  5
B5AE
  8
0
  0
POLYLINE
  5
AF7E
  8
0
 66
     1
 10
0.0
 20
0.0
 30
0.0
 70
   128
  0
VERTEX
  5
B5AF
  8
0
 10
70.674252991656147
 20
101.45803244115859
 30
0.0
  0
VERTEX
  5
B5B0
  8
0
 10
69.764837406773722
 20
101.33747800758491
 30
0.0
  0
VERTEX
  5
B5B1
  8
0
 10
68.979951610483226
 20
101.16648135497201
 30
0.0
  0
VERTEX
  5
B5B2
  8
0
 10
68.318584791331944
 20
100.93622975408741
 30
0.0
  0
VERTEX
  5
B5B3
  8
0
 10
67.800106818002007
 20
100.64468363808309
 30
0.0
  0
VERTEX
  5
B5B4
  8
0
 10
67.445243135663247
 20
100.30885193441171
 30
0.0
  0
VERTEX
  5
B5B5
  8
0
 10
67.227158347171212
 20
99.914328769129796
 30
0.0
  0
VERTEX
  5
B5B6
  8
0
 10
67.147341139645391
 20
99.454589895025535
 30
0.0
  0
VERTEX
  5
B5B7
  8
0
 10
67.150937938237433
 20
99.316674944067387
 30
0.0
  0
SEQEND
  5
B5B8
  8
0
  0
ARC
  5
AF88
  8
0
 10
60.191839211308917
 20
233.24795449965001
 30
0.0
 40
132.206144164504
 50
274.54766418891472
 51
275.15856861017238
  0
LINE
  5
B10A
  8
1
 10
149.91932981207859
 20
184.00000000000011
 30
0.0
 11
149.91932981207859
 21
148.0
 31
0.0
  0
LINE
  5
B10B
  8
1
 10
178.8386596241572
 20
166.0
 30
0.0
 11
121.0
 21
166.0
 31
0.0
  0
ARC
  5
B11C
  8
0
 10
149.9174663405872
 20
33.006248539935633
 30
0.0
 40
69.993479918554002
 50
105.9652319196431
 51
108.5305601424931
  0
LINE
  5
B161
  8
1
 10
149.91932981207859
 20
108.0
 30
0.0
 11
149.91932981207859
 21
54.000000223500031
 31
0.0
  0
POLYLINE
  5
B1F2
  8
0
 66
     1
 10
0.0
 20
0.0
 30
0.0
 70
   128
  0
VERTEX
  5
B5B9
  8
0
 10
58.780410142339989
 20
98.891112598489201
 30
0.0
  0
VERTEX
  5
B5BA
  8
0
 10
58.817282393096342
 20
99.166611641565254
 30
0.0
  0
VERTEX
  5
B5BB
  8
0
 10
58.831611077340497
 20
99.219617312781622
 30
0.0
  0
SEQEND
  5
B5BC
  8
0
  0
POLYLINE
  5
B1F3
  8
0
 66
     1
 10
0.0
 20
0.0
 30
0.0
 70
   128
  0
VERTEX
  5
B5BD
  8
0
 10
58.831611077340497
 20
99.219617312781622
 30
0.0
  0
VERTEX
  5
B5BE
  8
0
 10
58.848430693748689
 20
99.305281093766894
 30
0.0
  0
VERTEX
  5
B5BF
  8
0
 10
58.849062061761948
 20
99.316674944067273
 30
0.0
  0
SEQEND
  5
B5C0
  8
0
  0
POLYLINE
  5
B1F4
  8
0
 66
     1
 10
0.0
 20
0.0
 30
0.0
 70
   128
  0
VERTEX
  5
B5C1
  8
0
 10
55.325747008343193
 20
101.45803244115839
 30
0.0
  0
VERTEX
  5
B5C2
  8
0
 10
56.235162593225617
 20
101.33747800758471
 30
0.0
  0
VERTEX
  5
B5C3
  8
0
 10
57.02004838951612
 20
101.16648135497191
 30
0.0
  0
VERTEX
  5
B5C4
  8
0
 10
57.681415208667403
 20
100.93622975408729
 30
0.0
  0
VERTEX
  5
B5C5
  8
0
 10
58.199893181997354
 20
100.644683638083
 30
0.0
  0
VERTEX
  5
B5C6
  8
0
 10
58.55475686433612
 20
100.30885193441161
 30
0.0
  0
VERTEX
  5
B5C7
  8
0
 10
58.772841652828163
 20
99.914328769129696
 30
0.0
  0
VERTEX
  5
B5C8
  8
0
 10
58.852658860353998
 20
99.454589895025435
 30
0.0
  0
VERTEX
  5
B5C9
  8
0
 10
58.849062061761948
 20
99.316674944067273
 30
0.0
  0
SEQEND
  5
B5CA
  8
0
  0
ARC
  5
B1F6
  8
0
 10
55.418673747418872
 20
101.500747084324
 30
0.0
 40
1.499441955753412
 50
90.909817544009627
 51
177.0739902745504
  0
ARC
  5
B1F7
  8
0
 10
65.80816078869114
 20
233.24795449965001
 30
0.0
 40
132.206144164504
 50
264.84143138982722
 51
265.45233581108522
  0
LINE
  5
B1F8
  8
1
 10
63.000000000000043
 20
108.0
 30
0.0
 11
63.000000000000043
 21
54.000000223500031
 31
0.0
  0
ARC
  5
B473
  8
0
 10
66.200000000000045
 20
74.800000000000026
 30
0.0
 40
0.2000000000000028
 50
90.0
 51
180.0
  0
ARC
  5
B474
  8
0
 10
59.800000000000061
 20
74.800000000000026
 30
0.0
 40
0.1999999999999886
 50
0.0
 51
90.0
  0
LINE
  5
B475
  8
0
 10
59.99999997390006
 20
60.00000033530003
 30
0.0
 11
60.999999905000053
 21
58.999999240100017
 31
0.0
  0
LINE
  5
B476
  8
0
 10
65.000000095000075
 20
58.999999240100017
 30
0.0
 11
66.000000026100054
 21
60.00000033530003
 31
0.0
  0
LINE
  5
B477
  8
0
 10
66.000000026100054
 20
60.00000033530003
 30
0.0
 11
66.000000026100054
 21
74.800000005100031
 31
0.0
  0
LINE
  5
B478
  8
0
 10
59.99999997390006
 20
74.800000005100031
 30
0.0
 11
59.99999997390006
 21
60.00000033530003
 31
0.0
  0
LINE
  5
B479
  8
0
 10
65.000000095000075
 20
58.999999240100017
 30
0.0
 11
60.999999905000053
 21
58.999999240100017
 31
0.0
  0
LINE
  5
B47A
  8
0
 10
59.99999997390006
 20
60.00000033530003
 30
0.0
 11
66.000000026100054
 21
60.00000033530003
 31
0.0
  0
LINE
  5
B47B
  8
0
 10
60.00000000000005
 20
73.753946755700028
 30
0.0
 11
66.000000000000057
 21
73.753946755700028
 31
0.0
  0
LINE
  5
B47C
  8
3
 10
65.458500026100097
 20
59.458499704939889
 30
0.0
 11
65.458500026100126
 21
73.753946755700028
 31
0.0
  0
LINE
  5
B47D
  8
3
 10
60.541500026099968
 20
59.45849965273986
 30
0.0
 11
60.541500026099968
 21
73.753946755700028
 31
0.0
  0
LINE
  5
B47E
  8
3
 10
60.541500026099968
 20
73.753946755700028
 30
0.0
 11
59.99999997390006
 21
74.691852358411509
 31
0.0
  0
LINE
  5
B47F
  8
3
 10
65.45849997390016
 20
73.753946755700028
 30
0.0
 11
66.000000026100082
 21
74.691852358411509
 31
0.0
  0
ARC
  5
B493
  8
0
 10
153.1193298120786
 20
74.800000000000026
 30
0.0
 40
0.2000000000000028
 50
90.0
 51
180.0
  0
ARC
  5
B494
  8
0
 10
146.7193298120786
 20
74.800000000000026
 30
0.0
 40
0.1999999999999886
 50
0.0
 51
90.0
  0
LINE
  5
B495
  8
0
 10
146.91932978597859
 20
60.00000033530003
 30
0.0
 11
147.9193297170786
 21
58.999999240100017
 31
0.0
  0
LINE
  5
B496
  8
0
 10
151.91932990707861
 20
58.999999240100017
 30
0.0
 11
152.91932983817861
 21
60.00000033530003
 31
0.0
  0
LINE
  5
B497
  8
0
 10
152.91932983817861
 20
60.00000033530003
 30
0.0
 11
152.91932983817861
 21
74.800000005100031
 31
0.0
  0
LINE
  5
B498
  8
0
 10
146.91932978597859
 20
74.800000005100031
 30
0.0
 11
146.91932978597859
 21
60.00000033530003
 31
0.0
  0
LINE
  5
B499
  8
0
 10
151.91932990707861
 20
58.999999240100017
 30
0.0
 11
147.9193297170786
 21
58.999999240100017
 31
0.0
  0
LINE
  5
B49A
  8
0
 10
146.91932978597859
 20
60.00000033530003
 30
0.0
 11
152.91932983817861
 21
60.00000033530003
 31
0.0
  0
LINE
  5
B49B
  8
0
 10
146.91932981207859
 20
73.753946755700028
 30
0.0
 11
152.91932981207859
 21
73.753946755700028
 31
0.0
  0
LINE
  5
B49C
  8
3
 10
152.37782983817871
 20
59.458499704939889
 30
0.0
 11
152.37782983817871
 21
73.753946755700028
 31
0.0
  0
LINE
  5
B49D
  8
3
 10
147.46082983817851
 20
59.45849965273986
 30
0.0
 11
147.46082983817851
 21
73.753946755700028
 31
0.0
  0
LINE
  5
B49E
  8
3
 10
147.46082983817851
 20
73.753946755700028
 30
0.0
 11
146.91932978597859
 21
74.691852358411509
 31
0.0
  0
LINE
  5
B49F
  8
3
 10
152.37782978597869
 20
73.753946755700028
 30
0.0
 11
152.91932983817861
 21
74.691852358411509
 31
0.0
  0
ENDSEC
  0
EOF
