  0
SECTION
  2
HEADER
  9
$ACADVER
  1
AC1009
  9
$INSBASE
 10
0.0
 20
0.0
 30
0.0
  9
$EXTMIN
 10
0.0
 20
-2.960436562073669
 30
0.0
  9
$EXTMAX
 10
245.9649621097328
 20
169.6461419722711
 30
0.0
  9
$LIMMIN
 10
0.0
 20
0.0
  9
$LIMMAX
 10
750.0
 20
540.0
  9
$ORTHOMODE
 70
     0
  9
$REGENMODE
 70
     1
  9
$FILLMODE
 70
     1
  9
$QTEXTMODE
 70
     0
  9
$MIRRTEXT
 70
     0
  9
$DRAGMODE
 70
     2
  9
$LTSCALE
 40
10.0
  9
$OSMODE
 70
  3071
  9
$ATTMODE
 70
     1
  9
$TEXTSIZE
 40
0.2
  9
$TRACEWID
 40
0.05
  9
$TEXTSTYLE
  7
STANDARD
  9
$CLAYER
  8
0
  9
$CELTYPE
  6
BYLAYER
  9
$CECOLOR
 62
   256
  9
$DIMSCALE
 40
2.0
  9
$DIMASZ
 40
3.0
  9
$DIMEXO
 40
2.0
  9
$DIMDLI
 40
0.38
  9
$DIMRND
 40
0.0
  9
$DIMDLE
 40
0.0
  9
$DIMEXE
 40
2.0
  9
$DIMTP
 40
0.0
  9
$DIMTM
 40
0.0
  9
$DIMTXT
 40
3.2000000000000002
  9
$DIMCEN
 40
0.0
  9
$DIMTSZ
 40
0.0
  9
$DIMTOL
 70
     0
  9
$DIMLIM
 70
     0
  9
$DIMTIH
 70
     0
  9
$DIMTOH
 70
     0
  9
$DIMSE1
 70
     0
  9
$DIMSE2
 70
     0
  9
$DIMTAD
 70
     1
  9
$DIMZIN
 70
     0
  9
$DIMBLK
  1

  9
$DIMASO
 70
     0
  9
$DIMSHO
 70
     0
  9
$DIMPOST
  1

  9
$DIMAPOST
  1

  9
$DIMALT
 70
     0
  9
$DIMALTD
 70
     2
  9
$DIMALTF
 40
25.399999999999999
  9
$DIMLFAC
 40
1.0
  9
$DIMTOFL
 70
     1
  9
$DIMTVP
 40
1.6000000000000001
  9
$DIMTIX
 70
     1
  9
$DIMSOXD
 70
     0
  9
$DIMSAH
 70
     0
  9
$DIMBLK1
  1

  9
$DIMBLK2
  1

  9
$DIMSTYLE
  2
STANDARD
  9
$DIMCLRD
 70
     0
  9
$DIMCLRE
 70
     0
  9
$DIMCLRT
 70
     0
  9
$DIMTFAC
 40
1.0
  9
$DIMGAP
 40
0.09
  9
$LUNITS
 70
     2
  9
$LUPREC
 70
     4
  9
$SKETCHINC
 40
0.1
  9
$FILLETRAD
 40
0.0
  9
$AUNITS
 70
     0
  9
$AUPREC
 70
     4
  9
$MENU
  1
E:\r13\win\SUPPORT\ACAD
  9
$ELEVATION
 40
0.0
  9
$PELEVATION
 40
0.0
  9
$THICKNESS
 40
0.0
  9
$LIMCHECK
 70
     0
  9
$BLIPMODE
 70
     0
  9
$CHAMFERA
 40
0.0
  9
$CHAMFERB
 40
0.0
  9
$SKPOLY
 70
     0
  9
$TDCREATE
 40
2449839.7768055559
  9
$TDUPDATE
 40
2456598.50364618
  9
$TDINDWG
 40
0.0059026042
  9
$TDUSRTIMER
 40
0.0059026042
  9
$USRTIMER
 70
     1
  9
$ANGBASE
 50
0.0
  9
$ANGDIR
 70
     0
  9
$PDMODE
 70
     0
  9
$PDSIZE
 40
0.0
  9
$PLINEWID
 40
0.0
  9
$COORDS
 70
     1
  9
$SPLFRAME
 70
     0
  9
$SPLINETYPE
 70
     6
  9
$SPLINESEGS
 70
     8
  9
$ATTDIA
 70
     0
  9
$ATTREQ
 70
     1
  9
$HANDLING
 70
     1
  9
$HANDSEED
  5
1DCA
  9
$SURFTAB1
 70
     6
  9
$SURFTAB2
 70
     6
  9
$SURFTYPE
 70
     6
  9
$SURFU
 70
     6
  9
$SURFV
 70
     6
  9
$UCSNAME
  2

  9
$UCSORG
 10
0.0
 20
0.0
 30
0.0
  9
$UCSXDIR
 10
1.0
 20
0.0
 30
0.0
  9
$UCSYDIR
 10
0.0
 20
1.0
 30
0.0
  9
$PUCSNAME
  2

  9
$PUCSORG
 10
0.0
 20
0.0
 30
0.0
  9
$PUCSXDIR
 10
1.0
 20
0.0
 30
0.0
  9
$PUCSYDIR
 10
0.0
 20
1.0
 30
0.0
  9
$USERI1
 70
     0
  9
$USERI2
 70
     1
  9
$USERI3
 70
     0
  9
$USERI4
 70
     0
  9
$USERI5
 70
     0
  9
$USERR1
 40
0.0
  9
$USERR2
 40
0.0
  9
$USERR3
 40
0.0
  9
$USERR4
 40
0.0
  9
$USERR5
 40
0.0
  9
$WORLDVIEW
 70
     1
  9
$SHADEDGE
 70
     3
  9
$SHADEDIF
 70
    70
  9
$TILEMODE
 70
     1
  9
$MAXACTVP
 70
    16
  9
$PLIMCHECK
 70
     0
  9
$PEXTMIN
 10
1.0000000000000000E+020
 20
1.0000000000000000E+020
 30
1.0000000000000000E+020
  9
$PEXTMAX
 10
-1.0000000000000000E+020
 20
-1.0000000000000000E+020
 30
-1.0000000000000000E+020
  9
$PLIMMIN
 10
0.0
 20
0.0
  9
$PLIMMAX
 10
12.0
 20
9.0
  9
$UNITMODE
 70
     0
  9
$VISRETAIN
 70
     0
  9
$PLINEGEN
 70
     0
  9
$PSLTSCALE
 70
     0
  0
ENDSEC
  0
SECTION
  2
TABLES
  0
TABLE
  2
VPORT
 70
     1
  0
VPORT
  2
*ACTIVE
 70
     0
 10
0.0
 20
0.0
 11
1.0
 21
1.0
 12
390.03402345615979
 22
268.50860658393782
 13
0.0
 23
0.0
 14
20.0
 24
20.0
 15
20.0
 25
20.0
 16
0.0
 26
0.0
 36
1.0
 17
0.0
 27
0.0
 37
0.0
 40
547.85258761088789
 41
1.831871345029239
 42
50.0
 43
0.0
 44
0.0
 50
0.0
 51
0.0
 71
     0
 72
   500
 73
     1
 74
     0
 75
     0
 76
     0
 77
     0
 78
     2
  0
ENDTAB
  0
TABLE
  2
LTYPE
 70
     4
  0
LTYPE
  2
CONTINUOUS
 70
     0
  3
Solid Line
 72
    65
 73
     0
 40
0.0
  0
LTYPE
  2
CENTER
 70
     0
  3
____ _ ____ _ ____ _ ____ _ ____ _ ____ _ ____
 72
    65
 73
     4
 40
2.0
 49
1.25
 49
-0.25
 49
0.25
 49
-0.25
  0
LTYPE
  2
HIDDEN
 70
     0
  3
_ _ _ _ _ _ _ _ _ _ _ _ _ _ _ _ _ _ _ _ _ _ _
 72
    65
 73
     2
 40
0.375
 49
0.25
 49
-0.125
  0
LTYPE
  2
PHANTOM2
 70
     0
  3
___ _ _ ___ _ _ ___ _ _ ___ _ _
 72
    65
 73
     6
 40
1.25
 49
0.625
 49
-0.125
 49
0.125
 49
-0.125
 49
0.125
 49
-0.125
  0
ENDTAB
  0
TABLE
  2
LAYER
 70
     3
  0
LAYER
  2
0
 70
     0
 62
     7
  6
CONTINUOUS
  0
LAYER
  2
1
 70
     0
 62
     1
  6
CENTER
  0
LAYER
  2
2
 70
     0
 62
     2
  6
HIDDEN
  0
ENDTAB
  0
TABLE
  2
STYLE
 70
     2
  0
STYLE
  2
STANDARD
 70
     0
 40
0.0
 41
1.0
 50
0.0
 71
     0
 42
0.2
  3
TXT
  4
BIGFONT
  0
STYLE
  2
STANDARD1
 70
     0
 40
0.0
 41
1.0
 50
0.0
 71
     0
 42
3.0
  3
txt
  4

  0
ENDTAB
  0
TABLE
  2
VIEW
 70
     1
  0
VIEW
  2
ALL
 70
     0
 40
540.0
 10
441.98319327731087
 20
270.0
 41
0.0
 11
0.0
 21
0.0
 31
1.0
 12
0.0
 22
0.0
 32
0.0
 42
0.0
 43
0.0
 44
0.0
 50
0.0
 71
     0
  0
ENDTAB
  0
TABLE
  2
UCS
 70
     0
  0
ENDTAB
  0
TABLE
  2
APPID
 70
     3
  0
APPID
  2
ACAD
 70
     0
  0
APPID
  2
ACAD_MLEADERVER
 70
     0
  0
APPID
  2
ACAD_NAV_VCDISPLAY
 70
     0
  0
ENDTAB
  0
TABLE
  2
DIMSTYLE
 70
     1
  0
DIMSTYLE
  2
STANDARD
 70
     0
  3

  4

  5

  6

  7

 40
1.0
 41
0.18
 42
0.0625
 43
0.38
 44
0.18
 45
0.0
 46
0.0
 47
0.0
 48
0.0
140
0.18
141
0.09
142
0.0
143
25.399999999999999
144
1.0
145
0.0
146
1.0
147
0.09
 71
     0
 72
     0
 73
     1
 74
     1
 75
     0
 76
     0
 77
     0
 78
     0
170
     0
171
     2
172
     0
173
     0
174
     0
175
     0
176
     0
177
     0
178
     0
  0
ENDTAB
  0
ENDSEC
  0
SECTION
  2
BLOCKS
  0
BLOCK
  8
0
  2
$MODEL_SPACE
 70
     0
 10
0.0
 20
0.0
 30
0.0
  3
$MODEL_SPACE
  1

  0
ENDBLK
  5
35E
  8
0
  0
BLOCK
 67
     1
  8
0
  2
$PAPER_SPACE
 70
     0
 10
0.0
 20
0.0
 30
0.0
  3
$PAPER_SPACE
  1

  0
ENDBLK
  5
35C
 67
     1
  8
0
  0
ENDSEC
  0
SECTION
  2
ENTITIES
  0
CIRCLE
  5
1BA8
  8
0
 10
84.964962109732369
 20
123.1461419722711
 30
0.0
 40
36.5
  0
CIRCLE
  5
1BA9
  8
0
 10
84.964962109732369
 20
123.1461419722711
 30
0.0
 40
35.508684356192333
  0
LINE
  5
1BAA
  8
0
 10
201.9649621097328
 20
87.348782481484037
 30
0.0
 11
201.4649621097328
 21
87.637457616078905
 31
0.0
  0
LINE
  5
1BAB
  8
0
 10
201.9649621097328
 20
158.94350146305831
 30
0.0
 11
201.4649621097328
 21
158.6548263284634
 31
0.0
  0
LINE
  5
1BAC
  8
0
 10
235.4649621097328
 20
87.348782481484037
 30
0.0
 11
235.9649621097328
 21
87.637457616078905
 31
0.0
  0
LINE
  5
1BAD
  8
0
 10
235.4649621097328
 20
158.94350146305831
 30
0.0
 11
235.9649621097328
 21
158.6548263284634
 31
0.0
  0
ARC
  5
1BAE
  8
0
 10
218.7149621097328
 20
286.6461419722711
 30
0.0
 40
200.0
 50
265.195851164354
 51
274.804148835646
  0
ARC
  5
1BAF
  8
0
 10
218.7149621097328
 20
-40.353858027728847
 30
0.0
 40
200.0
 50
85.195851164353996
 51
94.804148835646018
  0
ARC
  5
1BB0
  8
2
 10
221.7149621097322
 20
91.146141972271266
 30
0.0
 40
0.5
 50
180.0
 51
270.0
  0
LINE
  5
1BB1
  8
2
 10
221.7149621097322
 20
90.646141972271266
 30
0.0
 11
235.96496210973311
 21
90.646141972271266
 31
0.0
  0
ARC
  5
1BB2
  8
2
 10
215.71496210973351
 20
91.146141972271266
 30
0.0
 40
0.5
 50
270.0
 51
0.0
  0
LINE
  5
1BB3
  8
2
 10
201.4649621097328
 20
90.646141972271266
 30
0.0
 11
215.71496210973351
 21
90.646141972271266
 31
0.0
  0
LINE
  5
1BB4
  8
2
 10
229.7149621097326
 20
106.6461419722712
 30
0.0
 11
230.7149621097328
 21
106.6461419722712
 31
0.0
  0
LINE
  5
1BB5
  8
2
 10
230.2149621097326
 20
101.646141972271
 30
0.0
 11
230.7149621097328
 21
101.646141972271
 31
0.0
  0
ARC
  5
1BB6
  8
2
 10
228.7149621097328
 20
106.6461419722708
 30
0.0
 40
1.0
 50
270.0
 51
0.0
  0
ARC
  5
1BB7
  8
2
 10
219.7149621097328
 20
106.6461419722708
 30
0.0
 40
1.0
 50
180.0
 51
270.0
  0
ARC
  5
1BB8
  8
2
 10
221.7149621097322
 20
101.146141972271
 30
0.0
 40
0.5
 50
90.0
 51
180.0
  0
LINE
  5
1BB9
  8
2
 10
219.7149621097328
 20
105.6461419722708
 30
0.0
 11
228.7149621097328
 21
105.6461419722708
 31
0.0
  0
LINE
  5
1BBA
  8
2
 10
221.7149621097322
 20
101.646141972271
 30
0.0
 11
230.2149621097326
 21
101.646141972271
 31
0.0
  0
LINE
  5
1BBB
  8
2
 10
229.7149621097328
 20
109.6461419722706
 30
0.0
 11
226.50624995720909
 21
109.6461419722706
 31
0.0
  0
LINE
  5
1BBC
  8
2
 10
229.7149621097328
 20
111.64614197227419
 30
0.0
 11
226.50624995720909
 21
111.64614197227419
 31
0.0
  0
ARC
  5
1BBD
  8
2
 10
228.7149621097328
 20
114.6461419722703
 30
0.0
 40
1.0
 50
0.0
 51
90.0
  0
ARC
  5
1BBE
  8
2
 10
219.7149621097328
 20
114.6461419722703
 30
0.0
 40
1.0
 50
90.0
 51
180.0
  0
LINE
  5
1BBF
  8
2
 10
219.7149621097328
 20
115.6461419722703
 30
0.0
 11
228.7149621097328
 21
115.6461419722703
 31
0.0
  0
CIRCLE
  5
1BC0
  8
2
 10
224.2149621097328
 20
110.6461419722706
 30
0.0
 40
2.5
  0
ARC
  5
1BC1
  8
2
 10
215.71496210973351
 20
101.146141972271
 30
0.0
 40
0.5
 50
0.0
 51
90.0
  0
ARC
  5
1BC2
  8
2
 10
208.7149621097328
 20
106.6461419722708
 30
0.0
 40
1.0
 50
180.0
 51
270.0
  0
LINE
  5
1BC3
  8
2
 10
206.7149621097328
 20
101.646141972271
 30
0.0
 11
207.21496210973299
 21
101.646141972271
 31
0.0
  0
LINE
  5
1BC4
  8
2
 10
206.7149621097328
 20
106.6461419722712
 30
0.0
 11
207.7149621097328
 21
106.6461419722712
 31
0.0
  0
LINE
  5
1BC5
  8
2
 10
208.7149621097328
 20
105.6461419722708
 30
0.0
 11
217.7149621097328
 21
105.6461419722708
 31
0.0
  0
LINE
  5
1BC6
  8
2
 10
207.21496210973299
 20
101.646141972271
 30
0.0
 11
215.71496210973351
 21
101.646141972271
 31
0.0
  0
LINE
  5
1BC7
  8
2
 10
210.92367426225661
 20
111.64614197227419
 30
0.0
 11
207.7149621097328
 21
111.64614197227419
 31
0.0
  0
LINE
  5
1BC8
  8
2
 10
210.92367426225661
 20
109.6461419722706
 30
0.0
 11
207.7149621097328
 21
109.6461419722706
 31
0.0
  0
ARC
  5
1BC9
  8
2
 10
208.7149621097328
 20
114.6461419722703
 30
0.0
 40
1.0
 50
90.0
 51
180.0
  0
CIRCLE
  5
1BCA
  8
2
 10
213.2149621097328
 20
110.6461419722706
 30
0.0
 40
2.5
  0
LINE
  5
1BCB
  8
2
 10
208.7149621097328
 20
115.6461419722703
 30
0.0
 11
217.7149621097328
 21
115.6461419722703
 31
0.0
  0
LINE
  5
1BCC
  8
2
 10
221.9236742622563
 20
111.64614197227419
 30
0.0
 11
215.50624995720909
 21
111.64614197227419
 31
0.0
  0
LINE
  5
1BCD
  8
2
 10
221.92367426225499
 20
109.6461419722706
 30
0.0
 11
215.50624995720909
 21
109.6461419722706
 31
0.0
  0
ARC
  5
1BCE
  8
2
 10
217.7149621097328
 20
114.6461419722703
 30
0.0
 40
1.0
 50
0.0
 51
90.0
  0
ARC
  5
1BCF
  8
2
 10
217.7149621097328
 20
106.6461419722708
 30
0.0
 40
1.0
 50
270.0
 51
0.0
  0
LINE
  5
1BD0
  8
2
 10
216.21496210973351
 20
101.146141972271
 30
0.0
 11
216.21496210973351
 21
91.146141972271266
 31
0.0
  0
LINE
  5
1BD1
  8
2
 10
221.21496210973211
 20
101.146141972271
 30
0.0
 11
221.21496210973211
 21
91.146141972271266
 31
0.0
  0
LINE
  5
1BD2
  8
2
 10
207.21496210973299
 20
101.646141972271
 30
0.0
 11
207.21496210973299
 21
90.646141972271266
 31
0.0
  0
LINE
  5
1BD3
  8
2
 10
230.2149621097326
 20
101.646141972271
 30
0.0
 11
230.2149621097326
 21
90.646141972271266
 31
0.0
  0
LINE
  5
1BD4
  8
1
 10
84.964962109732369
 20
169.6461419722711
 30
0.0
 11
84.964962109732369
 21
76.646141972271153
 31
0.0
  0
LINE
  5
1BD5
  8
1
 10
131.46496210973231
 20
123.1461419722711
 30
0.0
 11
38.464962109732369
 21
123.1461419722711
 31
0.0
  0
LINE
  5
1BD6
  8
1
 10
218.7149621097328
 20
76.646141972271153
 30
0.0
 11
218.7149621097328
 21
169.6461419722711
 31
0.0
  0
LINE
  5
1BD7
  8
1
 10
191.46496210973231
 20
123.1461419722711
 30
0.0
 11
245.9649621097328
 21
123.1461419722711
 31
0.0
  0
LINE
  5
1BD8
  8
0
 10
85.964962109732369
 20
90.661530230709559
 30
0.0
 11
85.964962109732369
 21
101.6694103773563
 31
0.0
  0
LINE
  5
1BD9
  8
0
 10
98.320164362551623
 20
93.516957495031633
 30
0.0
 11
94.107631004969335
 21
103.6869126588559
 31
0.0
  0
LINE
  5
1BDA
  8
0
 10
92.259871939946834
 20
102.92154579412581
 30
0.0
 11
96.472405297529136
 21
92.751590630301493
 31
0.0
  0
LINE
  5
1BDB
  8
0
 10
108.64215813758931
 20
100.88315950678729
 30
0.0
 11
100.85841143940659
 21
108.6669062049701
 31
0.0
  0
LINE
  5
1BDC
  8
0
 10
99.444197877033275
 20
107.252692642597
 30
0.0
 11
107.227944575216
 21
99.468945944414259
 31
0.0
  0
LINE
  5
1BDD
  8
0
 10
115.359513451702
 20
111.6386987844743
 30
0.0
 11
105.1895582878776
 21
115.8512321420567
 31
0.0
  0
LINE
  5
1BDE
  8
0
 10
104.42419142314741
 20
114.003473077034
 30
0.0
 11
114.5941465869718
 21
109.7909397194518
 31
0.0
  0
LINE
  5
1BDF
  8
0
 10
117.44957385129391
 20
124.1461419722711
 30
0.0
 11
106.44169370464709
 21
124.1461419722711
 31
0.0
  0
LINE
  5
1BE0
  8
0
 10
106.44169370464709
 20
122.1461419722711
 30
0.0
 11
117.44957385129391
 21
122.1461419722711
 31
0.0
  0
LINE
  5
1BE1
  8
0
 10
114.5941465869718
 20
136.50134422509049
 30
0.0
 11
104.42419142314741
 21
132.28881086750809
 31
0.0
  0
LINE
  5
1BE2
  8
0
 10
105.1895582878776
 20
130.4410518024855
 30
0.0
 11
115.359513451702
 21
134.65358516006791
 31
0.0
  0
LINE
  5
1BE3
  8
0
 10
107.227944575216
 20
146.82333800012799
 30
0.0
 11
99.444197877033275
 21
139.03959130194519
 31
0.0
  0
LINE
  5
1BE4
  8
0
 10
100.85841143940659
 20
137.62537773957209
 30
0.0
 11
108.64215813758931
 21
145.40912443775491
 31
0.0
  0
LINE
  5
1BE5
  8
0
 10
96.472405297529136
 20
153.54069331424071
 30
0.0
 11
92.259871939946834
 21
143.3707381504164
 31
0.0
  0
LINE
  5
1BE6
  8
0
 10
94.107631004969335
 20
142.6053712856862
 30
0.0
 11
98.320164362551623
 21
152.77532644951049
 31
0.0
  0
LINE
  5
1BE7
  8
0
 10
85.964962109732369
 20
144.62287356718579
 30
0.0
 11
85.964962109732369
 21
155.6307537138326
 31
0.0
  0
CIRCLE
  5
1BE8
  8
0
 10
84.964962109732369
 20
123.1461419722711
 30
0.0
 40
32.500000000000071
  0
CIRCLE
  5
1BE9
  8
0
 10
84.964962109732369
 20
123.1461419722711
 30
0.0
 40
21.50000000000021
  0
CIRCLE
  5
1BEA
  8
0
 10
84.964962109732369
 20
123.1461419722711
 30
0.0
 40
16.500000000000011
  0
CIRCLE
  5
1BEB
  8
0
 10
84.964962109732369
 20
123.1461419722711
 30
0.0
 40
7.500000000000056
  0
LINE
  5
1BEC
  8
2
 10
230.2149621097326
 20
144.64614197227121
 30
0.0
 11
230.7149621097328
 21
144.64614197227121
 31
0.0
  0
LINE
  5
1BED
  8
2
 10
207.21496210973299
 20
144.64614197227121
 30
0.0
 11
215.71496210973351
 21
144.64614197227121
 31
0.0
  0
LINE
  5
1BEE
  8
2
 10
201.4649621097328
 20
155.6461419722711
 30
0.0
 11
215.71496210973351
 21
155.64614197227101
 31
0.0
  0
ARC
  5
1BEF
  8
2
 10
221.7149621097322
 20
145.14614197227121
 30
0.0
 40
0.5
 50
180.0
 51
270.0
  0
ARC
  5
1BF0
  8
2
 10
221.7149621097322
 20
155.14614197227101
 30
0.0
 40
0.5
 50
90.0
 51
180.0
  0
ARC
  5
1BF1
  8
2
 10
215.71496210973351
 20
155.14614197227101
 30
0.0
 40
0.5
 50
0.0
 51
90.0
  0
ARC
  5
1BF2
  8
2
 10
215.71496210973351
 20
145.14614197227121
 30
0.0
 40
0.5
 50
270.0
 51
0.0
  0
LINE
  5
1BF3
  8
2
 10
221.7149621097322
 20
155.64614197227101
 30
0.0
 11
235.96496210973311
 21
155.6461419722711
 31
0.0
  0
LINE
  5
1BF4
  8
2
 10
221.7149621097322
 20
144.64614197227121
 30
0.0
 11
230.2149621097326
 21
144.64614197227121
 31
0.0
  0
LINE
  5
1BF5
  8
2
 10
230.2149621097326
 20
144.64614197227121
 30
0.0
 11
230.2149621097326
 21
155.64614197227101
 31
0.0
  0
LINE
  5
1BF6
  8
2
 10
207.21496210973299
 20
144.64614197227121
 30
0.0
 11
207.21496210973299
 21
155.64614197227101
 31
0.0
  0
LINE
  5
1BF7
  8
2
 10
221.21496210973211
 20
145.14614197227121
 30
0.0
 11
221.21496210973211
 21
155.14614197227101
 31
0.0
  0
LINE
  5
1BF8
  8
2
 10
216.21496210973351
 20
145.14614197227121
 30
0.0
 11
216.21496210973351
 21
155.14614197227101
 31
0.0
  0
LINE
  5
1BF9
  8
2
 10
229.7149621097326
 20
139.64614197227101
 30
0.0
 11
230.7149621097328
 21
139.64614197227101
 31
0.0
  0
LINE
  5
1BFA
  8
2
 10
230.7149621097328
 20
101.646141972271
 30
0.0
 11
230.7149621097328
 21
144.64614197227121
 31
0.0
  0
LINE
  5
1BFB
  8
2
 10
206.7149621097328
 20
101.646141972271
 30
0.0
 11
206.7149621097328
 21
144.64614197227121
 31
0.0
  0
LINE
  5
1BFC
  8
2
 10
229.7149621097328
 20
134.64614197226811
 30
0.0
 11
226.50624995720909
 21
134.64614197226811
 31
0.0
  0
LINE
  5
1BFD
  8
2
 10
229.7149621097328
 20
136.64614197227169
 30
0.0
 11
226.50624995720909
 21
136.64614197227169
 31
0.0
  0
CIRCLE
  5
1BFE
  8
2
 10
224.2149621097328
 20
135.64614197227169
 30
0.0
 40
2.5
  0
LINE
  5
1BFF
  8
2
 10
219.7149621097328
 20
130.64614197227189
 30
0.0
 11
228.7149621097328
 21
130.64614197227189
 31
0.0
  0
ARC
  5
1C00
  8
2
 10
219.7149621097328
 20
131.64614197227189
 30
0.0
 40
1.0
 50
180.0
 51
270.0
  0
ARC
  5
1C01
  8
2
 10
228.7149621097328
 20
131.64614197227189
 30
0.0
 40
1.0
 50
270.0
 51
0.0
  0
ARC
  5
1C02
  8
2
 10
228.7149621097328
 20
139.64614197227149
 30
0.0
 40
1.0
 50
0.0
 51
90.0
  0
ARC
  5
1C03
  8
2
 10
219.7149621097328
 20
139.64614197227149
 30
0.0
 40
1.0
 50
90.0
 51
180.0
  0
LINE
  5
1C04
  8
2
 10
229.7149621097328
 20
139.64614197227149
 30
0.0
 11
229.7149621097328
 21
106.6461419722712
 31
0.0
  0
LINE
  5
1C05
  8
2
 10
219.7149621097328
 20
140.64614197227149
 30
0.0
 11
228.7149621097328
 21
140.64614197227149
 31
0.0
  0
LINE
  5
1C06
  8
2
 10
207.7149621097328
 20
106.6461419722708
 30
0.0
 11
207.7149621097328
 21
139.64614197227149
 31
0.0
  0
LINE
  5
1C07
  8
2
 10
208.7149621097328
 20
140.64614197227149
 30
0.0
 11
217.7149621097328
 21
140.64614197227149
 31
0.0
  0
LINE
  5
1C08
  8
2
 10
218.7149621097328
 20
139.64614197227149
 30
0.0
 11
218.7149621097328
 21
106.6461419722708
 31
0.0
  0
ARC
  5
1C09
  8
2
 10
208.7149621097328
 20
139.64614197227149
 30
0.0
 40
1.0
 50
90.0
 51
180.0
  0
ARC
  5
1C0A
  8
2
 10
217.7149621097328
 20
139.64614197227149
 30
0.0
 40
1.0
 50
0.0
 51
90.0
  0
ARC
  5
1C0B
  8
2
 10
217.7149621097328
 20
131.64614197227189
 30
0.0
 40
1.0
 50
270.0
 51
0.0
  0
ARC
  5
1C0C
  8
2
 10
208.7149621097328
 20
131.64614197227189
 30
0.0
 40
1.0
 50
180.0
 51
270.0
  0
LINE
  5
1C0D
  8
2
 10
208.7149621097328
 20
130.64614197227189
 30
0.0
 11
217.7149621097328
 21
130.64614197227189
 31
0.0
  0
CIRCLE
  5
1C0E
  8
2
 10
213.2149621097328
 20
135.64614197227169
 30
0.0
 40
2.5
  0
LINE
  5
1C0F
  8
2
 10
221.92367426225499
 20
136.64614197227169
 30
0.0
 11
215.50624995720909
 21
136.64614197227169
 31
0.0
  0
LINE
  5
1C10
  8
2
 10
221.9236742622563
 20
134.64614197226811
 30
0.0
 11
215.50624995720909
 21
134.64614197226811
 31
0.0
  0
LINE
  5
1C11
  8
2
 10
210.92367426225661
 20
136.64614197227169
 30
0.0
 11
207.7149621097328
 21
136.64614197227169
 31
0.0
  0
LINE
  5
1C12
  8
2
 10
210.92367426225661
 20
134.64614197226811
 30
0.0
 11
207.7149621097328
 21
134.64614197226811
 31
0.0
  0
LINE
  5
1C13
  8
2
 10
206.7149621097328
 20
139.64614197227101
 30
0.0
 11
207.7149621097328
 21
139.64614197227101
 31
0.0
  0
LINE
  5
1C14
  8
2
 10
206.7149621097328
 20
144.64614197227121
 30
0.0
 11
207.21496210973299
 21
144.64614197227121
 31
0.0
  0
LINE
  5
1C15
  8
0
 10
235.9649621097328
 20
87.637457616078791
 30
0.0
 11
235.9649621097328
 21
158.65482632846351
 31
0.0
  0
LINE
  5
1C16
  8
0
 10
201.4649621097328
 20
87.637457616078791
 30
0.0
 11
201.4649621097328
 21
158.65482632846351
 31
0.0
  0
LINE
  5
1C17
  8
0
 10
83.964962109732369
 20
144.62287356718579
 30
0.0
 11
83.964962109732369
 21
155.6307537138326
 31
0.0
  0
LINE
  5
1C18
  8
0
 10
75.822293214495403
 20
142.6053712856862
 30
0.0
 11
71.609759856913115
 21
152.77532644951049
 31
0.0
  0
LINE
  5
1C19
  8
0
 10
73.457518921935616
 20
153.54069331424071
 30
0.0
 11
77.670052279517904
 21
143.3707381504164
 31
0.0
  0
LINE
  5
1C1A
  8
0
 10
69.071512780058114
 20
137.62537773957209
 30
0.0
 11
61.287766081875361
 21
145.40912443775491
 31
0.0
  0
LINE
  5
1C1B
  8
0
 10
62.701979644248702
 20
146.82333800012799
 30
0.0
 11
70.485726342431235
 21
139.03959130194519
 31
0.0
  0
LINE
  5
1C1C
  8
0
 10
64.740365931587121
 20
130.4410518024855
 30
0.0
 11
54.570410767762723
 21
134.65358516006791
 31
0.0
  0
LINE
  5
1C1D
  8
0
 10
55.335777632492871
 20
136.50134422509049
 30
0.0
 11
65.505732796317261
 21
132.28881086750809
 31
0.0
  0
LINE
  5
1C1E
  8
0
 10
63.48823051481758
 20
122.1461419722711
 30
0.0
 11
52.480350368170782
 21
122.1461419722711
 31
0.0
  0
LINE
  5
1C1F
  8
0
 10
52.480350368170782
 20
124.1461419722711
 30
0.0
 11
63.48823051481758
 21
124.1461419722711
 31
0.0
  0
LINE
  5
1C20
  8
0
 10
65.505732796317261
 20
114.003473077034
 30
0.0
 11
55.335777632492871
 21
109.7909397194518
 31
0.0
  0
LINE
  5
1C21
  8
0
 10
54.570410767762723
 20
111.6386987844743
 30
0.0
 11
64.740365931586894
 21
115.8512321420567
 31
0.0
  0
LINE
  5
1C22
  8
0
 10
70.485726342431235
 20
107.252692642597
 30
0.0
 11
62.701979644248702
 21
99.468945944414259
 31
0.0
  0
LINE
  5
1C23
  8
0
 10
61.287766081875361
 20
100.88315950678729
 30
0.0
 11
69.071512780058114
 21
108.6669062049701
 31
0.0
  0
LINE
  5
1C24
  8
0
 10
77.670052279517904
 20
102.92154579412581
 30
0.0
 11
73.457518921935616
 21
92.751590630301493
 31
0.0
  0
LINE
  5
1C25
  8
0
 10
71.609759856913115
 20
93.516957495031633
 30
0.0
 11
75.822293214495403
 21
103.6869126588559
 31
0.0
  0
LINE
  5
1C26
  8
0
 10
83.964962109732369
 20
90.661530230709559
 30
0.0
 11
83.964962109732369
 21
101.6694103773563
 31
0.0
  0
TEXT
  5
1D39
  8
0
 62
     3
 10
0.0
 20
0.0
 30
0.0
 40
10.0
  1
CTR3075
  7
STANDARD1
  0
ENDSEC
  0
EOF
