  0
SECTION
  2
HEADER
  9
$ACADVER
  1
AC1009
  9
$INSBASE
 10
0.0
 20
0.0
 30
0.0
  9
$EXTMIN
 10
0.0
 20
-2.960436562073669
 30
0.0
  9
$EXTMAX
 10
448.955060825896
 20
283.58697592063072
 30
0.0
  9
$LIMMIN
 10
0.0
 20
0.0
  9
$LIMMAX
 10
750.0
 20
540.0
  9
$ORTHOMODE
 70
     0
  9
$REGENMODE
 70
     1
  9
$FILLMODE
 70
     1
  9
$QTEXTMODE
 70
     0
  9
$MIRRTEXT
 70
     0
  9
$DRAGMODE
 70
     2
  9
$LTSCALE
 40
10.0
  9
$OSMODE
 70
  3071
  9
$ATTMODE
 70
     1
  9
$TEXTSIZE
 40
0.2
  9
$TRACEWID
 40
0.05
  9
$TEXTSTYLE
  7
STANDARD
  9
$CLAYER
  8
0
  9
$CELTYPE
  6
BYLAYER
  9
$CECOLOR
 62
   256
  9
$DIMSCALE
 40
2.0
  9
$DIMASZ
 40
3.0
  9
$DIMEXO
 40
2.0
  9
$DIMDLI
 40
0.38
  9
$DIMRND
 40
0.0
  9
$DIMDLE
 40
0.0
  9
$DIMEXE
 40
2.0
  9
$DIMTP
 40
0.0
  9
$DIMTM
 40
0.0
  9
$DIMTXT
 40
3.2000000000000002
  9
$DIMCEN
 40
0.0
  9
$DIMTSZ
 40
0.0
  9
$DIMTOL
 70
     0
  9
$DIMLIM
 70
     0
  9
$DIMTIH
 70
     0
  9
$DIMTOH
 70
     0
  9
$DIMSE1
 70
     0
  9
$DIMSE2
 70
     0
  9
$DIMTAD
 70
     1
  9
$DIMZIN
 70
     0
  9
$DIMBLK
  1

  9
$DIMASO
 70
     0
  9
$DIMSHO
 70
     0
  9
$DIMPOST
  1

  9
$DIMAPOST
  1

  9
$DIMALT
 70
     0
  9
$DIMALTD
 70
     2
  9
$DIMALTF
 40
25.399999999999999
  9
$DIMLFAC
 40
1.0
  9
$DIMTOFL
 70
     1
  9
$DIMTVP
 40
1.6000000000000001
  9
$DIMTIX
 70
     1
  9
$DIMSOXD
 70
     0
  9
$DIMSAH
 70
     0
  9
$DIMBLK1
  1

  9
$DIMBLK2
  1

  9
$DIMSTYLE
  2
STANDARD
  9
$DIMCLRD
 70
     0
  9
$DIMCLRE
 70
     0
  9
$DIMCLRT
 70
     0
  9
$DIMTFAC
 40
1.0
  9
$DIMGAP
 40
0.09
  9
$LUNITS
 70
     2
  9
$LUPREC
 70
     4
  9
$SKETCHINC
 40
0.1
  9
$FILLETRAD
 40
0.0
  9
$AUNITS
 70
     0
  9
$AUPREC
 70
     4
  9
$MENU
  1
E:\r13\win\SUPPORT\ACAD
  9
$ELEVATION
 40
0.0
  9
$PELEVATION
 40
0.0
  9
$THICKNESS
 40
0.0
  9
$LIMCHECK
 70
     0
  9
$BLIPMODE
 70
     0
  9
$CHAMFERA
 40
0.0
  9
$CHAMFERB
 40
0.0
  9
$SKPOLY
 70
     0
  9
$TDCREATE
 40
2449839.7768055559
  9
$TDUPDATE
 40
2456598.5037375349
  9
$TDINDWG
 40
0.0079338542
  9
$TDUSRTIMER
 40
0.0079338542
  9
$USRTIMER
 70
     1
  9
$ANGBASE
 50
0.0
  9
$ANGDIR
 70
     0
  9
$PDMODE
 70
     0
  9
$PDSIZE
 40
0.0
  9
$PLINEWID
 40
0.0
  9
$COORDS
 70
     1
  9
$SPLFRAME
 70
     0
  9
$SPLINETYPE
 70
     6
  9
$SPLINESEGS
 70
     8
  9
$ATTDIA
 70
     0
  9
$ATTREQ
 70
     1
  9
$HANDLING
 70
     1
  9
$HANDSEED
  5
2330
  9
$SURFTAB1
 70
     6
  9
$SURFTAB2
 70
     6
  9
$SURFTYPE
 70
     6
  9
$SURFU
 70
     6
  9
$SURFV
 70
     6
  9
$UCSNAME
  2

  9
$UCSORG
 10
0.0
 20
0.0
 30
0.0
  9
$UCSXDIR
 10
1.0
 20
0.0
 30
0.0
  9
$UCSYDIR
 10
0.0
 20
1.0
 30
0.0
  9
$PUCSNAME
  2

  9
$PUCSORG
 10
0.0
 20
0.0
 30
0.0
  9
$PUCSXDIR
 10
1.0
 20
0.0
 30
0.0
  9
$PUCSYDIR
 10
0.0
 20
1.0
 30
0.0
  9
$USERI1
 70
     0
  9
$USERI2
 70
     1
  9
$USERI3
 70
     0
  9
$USERI4
 70
     0
  9
$USERI5
 70
     0
  9
$USERR1
 40
0.0
  9
$USERR2
 40
0.0
  9
$USERR3
 40
0.0
  9
$USERR4
 40
0.0
  9
$USERR5
 40
0.0
  9
$WORLDVIEW
 70
     1
  9
$SHADEDGE
 70
     3
  9
$SHADEDIF
 70
    70
  9
$TILEMODE
 70
     1
  9
$MAXACTVP
 70
    16
  9
$PLIMCHECK
 70
     0
  9
$PEXTMIN
 10
1.0000000000000000E+020
 20
1.0000000000000000E+020
 30
1.0000000000000000E+020
  9
$PEXTMAX
 10
-1.0000000000000000E+020
 20
-1.0000000000000000E+020
 30
-1.0000000000000000E+020
  9
$PLIMMIN
 10
0.0
 20
0.0
  9
$PLIMMAX
 10
12.0
 20
9.0
  9
$UNITMODE
 70
     0
  9
$VISRETAIN
 70
     0
  9
$PLINEGEN
 70
     0
  9
$PSLTSCALE
 70
     0
  0
ENDSEC
  0
SECTION
  2
TABLES
  0
TABLE
  2
VPORT
 70
     1
  0
VPORT
  2
*ACTIVE
 70
     0
 10
0.0
 20
0.0
 11
1.0
 21
1.0
 12
390.03402345615979
 22
268.50860658393782
 13
0.0
 23
0.0
 14
20.0
 24
20.0
 15
20.0
 25
20.0
 16
0.0
 26
0.0
 36
1.0
 17
0.0
 27
0.0
 37
0.0
 40
547.85258761088789
 41
1.831871345029239
 42
50.0
 43
0.0
 44
0.0
 50
0.0
 51
0.0
 71
     0
 72
   500
 73
     1
 74
     0
 75
     0
 76
     0
 77
     0
 78
     2
  0
ENDTAB
  0
TABLE
  2
LTYPE
 70
     4
  0
LTYPE
  2
CONTINUOUS
 70
     0
  3
Solid Line
 72
    65
 73
     0
 40
0.0
  0
LTYPE
  2
CENTER
 70
     0
  3
____ _ ____ _ ____ _ ____ _ ____ _ ____ _ ____
 72
    65
 73
     4
 40
2.0
 49
1.25
 49
-0.25
 49
0.25
 49
-0.25
  0
LTYPE
  2
HIDDEN
 70
     0
  3
_ _ _ _ _ _ _ _ _ _ _ _ _ _ _ _ _ _ _ _ _ _ _
 72
    65
 73
     2
 40
0.375
 49
0.25
 49
-0.125
  0
LTYPE
  2
PHANTOM2
 70
     0
  3
___ _ _ ___ _ _ ___ _ _ ___ _ _
 72
    65
 73
     6
 40
1.25
 49
0.625
 49
-0.125
 49
0.125
 49
-0.125
 49
0.125
 49
-0.125
  0
ENDTAB
  0
TABLE
  2
LAYER
 70
     4
  0
LAYER
  2
0
 70
     0
 62
     7
  6
CONTINUOUS
  0
LAYER
  2
1
 70
     0
 62
     1
  6
CENTER
  0
LAYER
  2
2
 70
     0
 62
     2
  6
HIDDEN
  0
LAYER
  2
3
 70
     0
 62
     3
  6
CONTINUOUS
  0
ENDTAB
  0
TABLE
  2
STYLE
 70
     2
  0
STYLE
  2
STANDARD
 70
     0
 40
0.0
 41
1.0
 50
0.0
 71
     0
 42
0.2
  3
TXT
  4
BIGFONT
  0
STYLE
  2
STANDARD1
 70
     0
 40
0.0
 41
1.0
 50
0.0
 71
     0
 42
3.0
  3
txt
  4

  0
ENDTAB
  0
TABLE
  2
VIEW
 70
     1
  0
VIEW
  2
ALL
 70
     0
 40
540.0
 10
441.98319327731087
 20
270.0
 41
0.0
 11
0.0
 21
0.0
 31
1.0
 12
0.0
 22
0.0
 32
0.0
 42
0.0
 43
0.0
 44
0.0
 50
0.0
 71
     0
  0
ENDTAB
  0
TABLE
  2
UCS
 70
     0
  0
ENDTAB
  0
TABLE
  2
APPID
 70
     3
  0
APPID
  2
ACAD
 70
     0
  0
APPID
  2
ACAD_MLEADERVER
 70
     0
  0
APPID
  2
ACAD_NAV_VCDISPLAY
 70
     0
  0
ENDTAB
  0
TABLE
  2
DIMSTYLE
 70
     1
  0
DIMSTYLE
  2
STANDARD
 70
     0
  3

  4

  5

  6

  7

 40
1.0
 41
0.18
 42
0.0625
 43
0.38
 44
0.18
 45
0.0
 46
0.0
 47
0.0
 48
0.0
140
0.18
141
0.09
142
0.0
143
25.399999999999999
144
1.0
145
0.0
146
1.0
147
0.09
 71
     0
 72
     0
 73
     1
 74
     1
 75
     0
 76
     0
 77
     0
 78
     0
170
     0
171
     2
172
     0
173
     0
174
     0
175
     0
176
     0
177
     0
178
     0
  0
ENDTAB
  0
ENDSEC
  0
SECTION
  2
BLOCKS
  0
BLOCK
  8
0
  2
$MODEL_SPACE
 70
     0
 10
0.0
 20
0.0
 30
0.0
  3
$MODEL_SPACE
  1

  0
ENDBLK
  5
35E
  8
0
  0
BLOCK
 67
     1
  8
0
  2
$PAPER_SPACE
 70
     0
 10
0.0
 20
0.0
 30
0.0
  3
$PAPER_SPACE
  1

  0
ENDBLK
  5
35C
 67
     1
  8
0
  0
ENDSEC
  0
SECTION
  2
ENTITIES
  0
LINE
  5
20A3
  8
0
 10
288.95506082589509
 20
119.58697592063039
 30
0.0
 11
290.95506082589509
 21
117.58697592063101
 31
0.0
  0
LINE
  5
20A4
  8
0
 10
279.45506082589509
 20
119.5869759206311
 30
0.0
 11
288.95506082589509
 21
119.5869759206311
 31
0.0
  0
LINE
  5
20A5
  8
3
 10
279.45506082589509
 20
118.50447592063109
 30
0.0
 11
290.0375608258949
 21
118.50447592063109
 31
0.0
  0
LINE
  5
20A6
  8
3
 10
279.45506082589509
 20
104.6694759206303
 30
0.0
 11
290.0375608258949
 21
104.66947592063021
 31
0.0
  0
LINE
  5
20A7
  8
0
 10
279.45506082589509
 20
103.58697592063029
 30
0.0
 11
288.95506082589509
 21
103.58697592063029
 31
0.0
  0
LINE
  5
20A8
  8
2
 10
209.45506082589509
 20
98.086975920630536
 30
0.0
 11
218.45506082589509
 21
98.08697592063055
 31
0.0
  0
LINE
  5
20A9
  8
0
 10
196.45506082589509
 20
98.08697592063055
 30
0.0
 11
209.4550608258948
 21
98.086975920630195
 31
0.0
  0
LINE
  5
20AA
  8
2
 10
209.45506082589529
 20
125.08697592063039
 30
0.0
 11
218.45506082589509
 21
125.08697592063039
 31
0.0
  0
LINE
  5
20AB
  8
0
 10
196.45506082589509
 20
125.08697592063039
 30
0.0
 11
209.45506082589509
 21
125.08697592063039
 31
0.0
  0
ARC
  5
20AC
  8
0
 10
299.83625867397728
 20
105.58697592063029
 30
0.0
 40
17.330127017333279
 50
339.74384199764751
 51
20.256158002352471
  0
LINE
  5
20AD
  8
0
 10
317.1663856913105
 20
99.58697592061533
 30
0.0
 11
317.45506082591419
 21
100.08697592063029
 31
0.0
  0
LINE
  5
20AE
  8
0
 10
317.1663856913105
 20
99.58697592061533
 30
0.0
 11
304.4550608259151
 21
99.586975920635567
 31
0.0
  0
LINE
  5
20AF
  8
0
 10
304.45506082589509
 20
111.58697592063029
 30
0.0
 11
316.09458892148132
 21
111.58697592063029
 31
0.0
  0
LINE
  5
20B0
  8
0
 10
317.1663856913105
 20
123.5869759206453
 30
0.0
 11
304.45506082587508
 21
123.58697592062509
 31
0.0
  0
LINE
  5
20B1
  8
0
 10
317.1663856913105
 20
123.5869759206453
 30
0.0
 11
317.45506082591419
 21
123.08697592063029
 31
0.0
  0
ARC
  5
20B2
  8
0
 10
299.83625867397728
 20
117.58697592063029
 30
0.0
 40
17.330127017333279
 50
339.74384199764751
 51
20.256158002352471
  0
LINE
  5
20B3
  8
0
 10
317.45506082587548
 20
123.0869759206967
 30
0.0
 11
317.45506082591419
 21
100.08697592063029
 31
0.0
  0
LINE
  5
20B4
  8
2
 10
218.45506082589509
 20
98.08697592063055
 30
0.0
 11
218.45506082589509
 21
125.08697592063039
 31
0.0
  0
LINE
  5
20B5
  8
2
 10
272.95506082589509
 20
111.58697592063039
 30
0.0
 11
272.95506082589509
 21
119.58697592063049
 31
0.0
  0
ARC
  5
20B6
  8
2
 10
271.95506082589509
 20
119.08697592063039
 30
0.0
 40
1.0
 50
270.0
 51
0.0
  0
LINE
  5
20B7
  8
2
 10
269.95506082589509
 20
118.08697592063039
 30
0.0
 11
271.95506082589509
 21
118.08697592063039
 31
0.0
  0
ARC
  5
20B8
  8
2
 10
269.95506082589509
 20
119.08697592063039
 30
0.0
 40
1.0
 50
180.0
 51
270.0
  0
LINE
  5
20B9
  8
0
 10
288.95506082589509
 20
103.58697592063039
 30
0.0
 11
288.95506082589509
 21
119.58697592063039
 31
0.0
  0
LINE
  5
20BA
  8
0
 10
288.95506082589509
 20
103.58697592063101
 30
0.0
 11
290.95506082589509
 21
105.58697592063039
 31
0.0
  0
LINE
  5
20BB
  8
0
 10
290.95506082589509
 20
117.58697592063039
 30
0.0
 11
290.95506082589509
 21
105.58697592063039
 31
0.0
  0
LINE
  5
20BC
  8
0
 10
300.46267142971152
 20
111.4126644351351
 30
0.0
 11
304.44745022207832
 21
111.7612874061257
 31
0.0
  0
LINE
  5
20BD
  8
0
 10
304.45506082589509
 20
125.58697592063029
 30
0.0
 11
304.45506082589509
 21
97.586975920630564
 31
0.0
  0
LINE
  5
20BE
  8
0
 10
300.45506082589509
 20
125.58697592063029
 30
0.0
 11
304.45506082589509
 21
125.58697592063029
 31
0.0
  0
LINE
  5
20BF
  8
0
 10
300.45506082589509
 20
97.586975920630564
 30
0.0
 11
304.45506082589509
 21
97.586975920630564
 31
0.0
  0
LINE
  5
20C0
  8
0
 10
300.45506082589509
 20
125.58697592063029
 30
0.0
 11
300.45506082589509
 21
97.586975920630564
 31
0.0
  0
LINE
  5
20C1
  8
2
 10
218.85506082589521
 20
121.58697592063039
 30
0.0
 11
268.45506082589509
 21
121.58697592063029
 31
0.0
  0
ARC
  5
20C2
  8
2
 10
218.85506082589521
 20
121.9869759206304
 30
0.0
 40
0.4
 50
180.0
 51
270.0
  0
LINE
  5
20C3
  8
0
 10
195.25506082589479
 20
119.83697592063039
 30
0.0
 11
192.65506082589491
 21
119.83697592063039
 31
0.0
  0
ARC
  5
20C4
  8
0
 10
195.25506082589479
 20
121.0369759206303
 30
0.0
 40
1.1999999999999991
 50
270.0
 51
0.0
  0
ARC
  5
20C5
  8
0
 10
192.65506082589491
 20
121.0369759206303
 30
0.0
 40
1.1999999999999991
 50
180.0
 51
270.0
  0
LINE
  5
20C6
  8
0
 10
176.45506082589509
 20
101.58697592063039
 30
0.0
 11
176.45506082589509
 21
121.58697592063039
 31
0.0
  0
LINE
  5
20C7
  8
0
 10
173.95506082589509
 20
119.08697592063039
 30
0.0
 11
176.45506082589509
 21
121.58697592063039
 31
0.0
  0
LINE
  5
20C8
  8
0
 10
176.45506082589509
 20
101.58697592063039
 30
0.0
 11
173.95506082589509
 21
104.08697592063039
 31
0.0
  0
ARC
  5
20C9
  8
0
 10
192.65506082589491
 20
102.13697592063041
 30
0.0
 40
1.1999999999999991
 50
90.0
 51
180.0
  0
ARC
  5
20CA
  8
0
 10
195.25506082589479
 20
102.13697592063041
 30
0.0
 40
1.1999999999999991
 50
0.0
 51
90.0
  0
LINE
  5
20CB
  8
0
 10
195.25506082589479
 20
103.33697592063039
 30
0.0
 11
192.65506082589491
 21
103.33697592063039
 31
0.0
  0
LINE
  5
20CC
  8
0
 10
191.45506082589509
 20
101.58697592063039
 30
0.0
 11
191.45506082589509
 21
121.58697592063039
 31
0.0
  0
LINE
  5
20CD
  8
0
 10
191.45506082589509
 20
101.58697592063039
 30
0.0
 11
176.45506082589509
 21
101.58697592063039
 31
0.0
  0
LINE
  5
20CE
  8
3
 10
191.7633259998388
 20
102.9399759206305
 30
0.0
 11
175.10206082589499
 21
102.9399759206305
 31
0.0
  0
LINE
  5
20CF
  8
3
 10
191.76332599983471
 20
120.2339759206303
 30
0.0
 11
175.10206082589499
 21
120.2339759206303
 31
0.0
  0
LINE
  5
20D0
  8
0
 10
191.45506082589509
 20
121.58697592063039
 30
0.0
 11
176.45506082589509
 21
121.58697592063039
 31
0.0
  0
LINE
  5
20D1
  8
2
 10
268.95506082589509
 20
102.08697592063049
 30
0.0
 11
268.95506082589509
 21
121.08697592063029
 31
0.0
  0
LINE
  5
20D2
  8
0
 10
196.45506082589509
 20
98.08697592063055
 30
0.0
 11
196.45506082589509
 21
125.08697592063039
 31
0.0
  0
LINE
  5
20D3
  8
0
 10
173.95506082589509
 20
104.08697592063039
 30
0.0
 11
173.95506082589509
 21
119.08697592063039
 31
0.0
  0
LINE
  5
20D4
  8
2
 10
268.95506082589509
 20
121.08697592063029
 30
0.0
 11
268.45506082589509
 21
121.58697592063029
 31
0.0
  0
LINE
  5
20D5
  8
2
 10
279.45506082589532
 20
119.58697592063049
 30
0.0
 11
272.95506082589509
 21
119.58697592063049
 31
0.0
  0
LINE
  5
20D6
  8
2
 10
279.45506082589492
 20
118.5044759206304
 30
0.0
 11
272.95506082589509
 21
118.5044759206304
 31
0.0
  0
LINE
  5
20D7
  8
2
 10
279.45506082589492
 20
104.6694759206303
 30
0.0
 11
272.95506082589509
 21
104.6694759206303
 31
0.0
  0
LINE
  5
20D8
  8
2
 10
279.45506082589532
 20
103.58697592063029
 30
0.0
 11
272.95506082589509
 21
103.58697592063029
 31
0.0
  0
LINE
  5
20D9
  8
2
 10
268.95506082589509
 20
102.08697592063039
 30
0.0
 11
268.45506082589509
 21
101.58697592063039
 31
0.0
  0
ARC
  5
20DA
  8
2
 10
218.85506082589521
 20
101.1869759206303
 30
0.0
 40
0.4
 50
90.0
 51
180.0
  0
LINE
  5
20DB
  8
2
 10
218.85506082589521
 20
101.58697592063039
 30
0.0
 11
268.45506082589509
 21
101.58697592063039
 31
0.0
  0
ARC
  5
20DC
  8
2
 10
269.95506082589509
 20
104.08697592063039
 30
0.0
 40
1.0
 50
90.0
 51
180.0
  0
LINE
  5
20DD
  8
2
 10
269.95506082589509
 20
105.08697592063039
 30
0.0
 11
271.95506082589509
 21
105.08697592063039
 31
0.0
  0
ARC
  5
20DE
  8
2
 10
271.95506082589509
 20
104.08697592063039
 30
0.0
 40
1.0
 50
0.0
 51
90.0
  0
LINE
  5
20DF
  8
2
 10
272.95506082589509
 20
111.58697592063039
 30
0.0
 11
272.95506082589509
 21
103.58697592063019
 31
0.0
  0
LINE
  5
20E0
  8
1
 10
244.45506082589509
 20
153.58697592063069
 30
0.0
 11
244.45506082589509
 21
69.586975920630593
 31
0.0
  0
ARC
  5
20E1
  8
0
 10
244.45506082589509
 20
479.58697592063061
 30
0.0
 40
400.0
 50
265.05209140359091
 51
274.94790859640909
  0
LINE
  5
20E2
  8
1
 10
327.45506082589458
 20
111.58697592063071
 30
0.0
 11
163.95506082589461
 21
111.58697592063019
 31
0.0
  0
LINE
  5
20E3
  8
0
 10
209.45506082589529
 20
141.80771096351211
 30
0.0
 11
209.45506082589509
 21
81.366240877748851
 31
0.0
  0
LINE
  5
20E4
  8
0
 10
279.45506082589509
 20
141.80771096351199
 30
0.0
 11
279.45506082589509
 21
81.366240877748965
 31
0.0
  0
ARC
  5
20E5
  8
0
 10
244.45506082589509
 20
-256.41302407936939
 30
0.0
 40
400.0
 50
85.052091403590893
 51
94.947908596409107
  0
LINE
  5
20E6
  8
0
 10
278.95506082589509
 20
142.0963860981069
 30
0.0
 11
279.45506082589509
 21
141.80771096351211
 31
0.0
  0
LINE
  5
20E7
  8
0
 10
278.95506082589509
 20
81.077565743154068
 30
0.0
 11
279.45506082589509
 21
81.366240877748851
 31
0.0
  0
LINE
  5
20E8
  8
0
 10
209.95506082589489
 20
81.077565743154068
 30
0.0
 11
209.45506082589509
 21
81.366240877748851
 31
0.0
  0
LINE
  5
20E9
  8
0
 10
209.95506082589489
 20
142.0963860981069
 30
0.0
 11
209.45506082589509
 21
141.80771096351211
 31
0.0
  0
LINE
  5
20EA
  8
0
 10
418.95506082589571
 20
248.51517915090579
 30
0.0
 11
406.95506082589571
 21
255.44338238118141
 31
0.0
  0
LINE
  5
20EB
  8
0
 10
418.95506082589571
 20
234.65877269035479
 30
0.0
 11
418.95506082589571
 21
248.51517915090579
 31
0.0
  0
LINE
  5
20EC
  8
0
 10
394.95506082589583
 20
234.65877269035479
 30
0.0
 11
406.95506082589571
 21
227.73056946007929
 31
0.0
  0
LINE
  5
20ED
  8
0
 10
406.95506082589571
 20
227.73056946007929
 30
0.0
 11
418.95506082589571
 21
234.65877269035479
 31
0.0
  0
LINE
  5
20EE
  8
0
 10
406.95506082589571
 20
255.44338238118141
 30
0.0
 11
394.95506082589583
 21
248.51517915090579
 31
0.0
  0
LINE
  5
20EF
  8
0
 10
394.95506082589583
 20
248.51517915090579
 30
0.0
 11
394.95506082589583
 21
234.65877269035479
 31
0.0
  0
CIRCLE
  5
20F0
  8
0
 10
406.95506082589571
 20
241.58697592063029
 30
0.0
 40
11.5
  0
CIRCLE
  5
20F1
  8
0
 10
406.95506082589571
 20
241.58697592063029
 30
0.0
 40
8.0
  0
CIRCLE
  5
20F2
  8
3
 10
406.95506082589571
 20
241.58697592063029
 30
0.0
 40
6.9175000000000004
  0
CIRCLE
  5
20F3
  8
0
 10
406.95506082589571
 20
241.58697592063021
 30
0.0
 40
13.99999999999989
  0
LINE
  5
20F4
  8
0
 10
434.13169747750902
 20
242.58697592063029
 30
0.0
 11
428.62703040108522
 21
242.58697592063029
 31
0.0
  0
LINE
  5
20F5
  8
0
 10
434.13169747750902
 20
240.58697592063029
 30
0.0
 11
428.62703040108522
 21
240.58697592063029
 31
0.0
  0
LINE
  5
20F6
  8
0
 10
431.6803157584522
 20
252.9109040471196
 30
0.0
 11
426.5946665132555
 21
250.80435915628709
 31
0.0
  0
LINE
  5
20F7
  8
0
 10
432.44568262318228
 20
251.0631449820973
 30
0.0
 11
427.3600333779857
 21
248.95660009126431
 31
0.0
  0
LINE
  5
20F8
  8
0
 10
425.46473811090772
 20
261.51086676801549
 30
0.0
 11
421.57235069299429
 21
257.61847935010172
 31
0.0
  0
LINE
  5
20F9
  8
0
 10
426.87895167328082
 20
260.09665320564233
 30
0.0
 11
422.98656425536751
 21
256.20426578772862
 31
0.0
  0
LINE
  5
20FA
  8
0
 10
416.43122988736258
 20
267.07759771791689
 30
0.0
 11
414.32468499652958
 21
261.99194847272031
 31
0.0
  0
LINE
  5
20FB
  8
0
 10
418.27898895238508
 20
266.3122308531868
 30
0.0
 11
416.17244406155243
 21
261.22658160799011
 31
0.0
  0
LINE
  5
20FC
  8
0
 10
407.95506082589583
 20
268.76361257224352
 30
0.0
 11
407.95506082589583
 21
263.25894549581977
 31
0.0
  0
LINE
  5
20FD
  8
1
 10
406.95506082589571
 20
283.58697592063049
 30
0.0
 11
406.95506082589571
 21
199.58697592063001
 31
0.0
  0
LINE
  5
20FE
  8
1
 10
448.955060825896
 20
241.58697592063021
 30
0.0
 11
364.9550608258956
 21
241.58697592063021
 31
0.0
  0
LINE
  5
20FF
  8
0
 10
405.95506082589549
 20
268.76361257224352
 30
0.0
 11
405.95506082589571
 21
263.25894549581977
 31
0.0
  0
LINE
  5
2100
  8
0
 10
395.63113269940641
 20
266.3122308531868
 30
0.0
 11
397.73767759023889
 21
261.22658160799
 31
0.0
  0
LINE
  5
2101
  8
0
 10
397.47889176442851
 20
267.07759771791672
 30
0.0
 11
399.5854366552615
 21
261.99194847272008
 31
0.0
  0
LINE
  5
2102
  8
0
 10
387.03116997851072
 20
260.09665320564233
 30
0.0
 11
390.92355739642397
 21
256.20426578772867
 31
0.0
  0
LINE
  5
2103
  8
0
 10
388.4453835408836
 20
261.51086676801509
 30
0.0
 11
392.33777095879742
 21
257.61847935010189
 31
0.0
  0
LINE
  5
2104
  8
0
 10
381.46443902860909
 20
251.06314498209721
 30
0.0
 11
386.55008827380561
 21
248.95660009126411
 31
0.0
  0
LINE
  5
2105
  8
0
 10
382.22980589333929
 20
252.91090404711969
 30
0.0
 11
387.31545513853598
 21
250.80435915628689
 31
0.0
  0
LINE
  5
2106
  8
0
 10
379.77842417428252
 20
240.58697592063029
 30
0.0
 11
385.28309125070632
 21
240.58697592063029
 31
0.0
  0
LINE
  5
2107
  8
0
 10
379.77842417428252
 20
242.58697592063029
 30
0.0
 11
385.28309125070632
 21
242.58697592063029
 31
0.0
  0
CIRCLE
  5
2108
  8
0
 10
406.95506082589571
 20
241.58697592063021
 30
0.0
 40
30.22073504288176
  0
CIRCLE
  5
2109
  8
0
 10
406.95506082589571
 20
241.58697592063021
 30
0.0
 40
32.000000000000227
  0
CIRCLE
  5
210A
  8
0
 10
406.95506082589571
 20
241.58697592063021
 30
0.0
 40
27.19502858416968
  0
CIRCLE
  5
210B
  8
0
 10
406.95506082589571
 20
241.58697592063021
 30
0.0
 40
21.69502858416968
  0
LINE
  5
210C
  8
0
 10
425.46473811090772
 20
221.6630850732451
 30
0.0
 11
421.57235069299429
 21
225.55547249115881
 31
0.0
  0
LINE
  5
210D
  8
0
 10
426.87895167328082
 20
223.07729863561821
 30
0.0
 11
422.98656425536751
 21
226.96968605353189
 31
0.0
  0
LINE
  5
210E
  8
0
 10
432.44568262318228
 20
232.1108068591632
 30
0.0
 11
427.3600333779857
 21
234.2173517499962
 31
0.0
  0
LINE
  5
210F
  8
0
 10
431.6803157584522
 20
230.2630477941409
 30
0.0
 11
426.5946665132555
 21
232.3695926849735
 31
0.0
  0
LINE
  5
2110
  8
0
 10
416.43122988736258
 20
216.09635412334359
 30
0.0
 11
414.32468499652958
 21
221.18200336854019
 31
0.0
  0
LINE
  5
2111
  8
0
 10
418.27898895238508
 20
216.86172098807381
 30
0.0
 11
416.17244406155243
 21
221.94737023327039
 31
0.0
  0
LINE
  5
2112
  8
0
 10
382.22980589333929
 20
230.26304779414079
 30
0.0
 11
387.31545513853598
 21
232.3695926849737
 31
0.0
  0
LINE
  5
2113
  8
0
 10
381.46443902860909
 20
232.11080685916329
 30
0.0
 11
386.55008827380561
 21
234.2173517499964
 31
0.0
  0
LINE
  5
2114
  8
0
 10
388.4453835408836
 20
221.66308507324541
 30
0.0
 11
392.33777095879742
 21
225.55547249115861
 31
0.0
  0
LINE
  5
2115
  8
0
 10
387.03116997851072
 20
223.07729863561821
 30
0.0
 11
390.92355739642397
 21
226.96968605353189
 31
0.0
  0
LINE
  5
2116
  8
0
 10
395.63113269940641
 20
216.86172098807381
 30
0.0
 11
397.73767759023889
 21
221.94737023327059
 31
0.0
  0
LINE
  5
2117
  8
0
 10
397.47889176442851
 20
216.09635412334379
 30
0.0
 11
399.5854366552615
 21
221.18200336854039
 31
0.0
  0
LINE
  5
2118
  8
0
 10
405.95506082589549
 20
214.4103392690171
 30
0.0
 11
405.95506082589571
 21
219.9150063454407
 31
0.0
  0
LINE
  5
2119
  8
0
 10
407.95506082589583
 20
214.4103392690171
 30
0.0
 11
407.95506082589583
 21
219.9150063454407
 31
0.0
  0
LINE
  5
211A
  8
0
 10
80.955060825894407
 20
214.4103392690171
 30
0.0
 11
80.955060825894407
 21
219.9150063454407
 31
0.0
  0
LINE
  5
211B
  8
0
 10
82.955060825894634
 20
214.4103392690171
 30
0.0
 11
82.955060825894407
 21
219.9150063454407
 31
0.0
  0
LINE
  5
211C
  8
0
 10
91.431229887361724
 20
216.09635412334379
 30
0.0
 11
89.324684996528731
 21
221.18200336854039
 31
0.0
  0
LINE
  5
211D
  8
0
 10
93.27898895238377
 20
216.86172098807381
 30
0.0
 11
91.172444061551232
 21
221.94737023327059
 31
0.0
  0
LINE
  5
211E
  8
0
 10
101.8789516732795
 20
223.07729863561821
 30
0.0
 11
97.986564255366147
 21
226.96968605353189
 31
0.0
  0
LINE
  5
211F
  8
0
 10
100.46473811090659
 20
221.66308507324541
 30
0.0
 11
96.572350692992813
 21
225.55547249115861
 31
0.0
  0
LINE
  5
2120
  8
0
 10
107.445682623181
 20
232.11080685916329
 30
0.0
 11
102.36003337798449
 21
234.2173517499964
 31
0.0
  0
LINE
  5
2121
  8
0
 10
106.6803157584509
 20
230.26304779414079
 30
0.0
 11
101.5946665132542
 21
232.3695926849737
 31
0.0
  0
LINE
  5
2122
  8
0
 10
70.631132699405043
 20
216.86172098807381
 30
0.0
 11
72.737677590237809
 21
221.94737023327039
 31
0.0
  0
LINE
  5
2123
  8
0
 10
72.478891764427544
 20
216.09635412334359
 30
0.0
 11
74.585436655260537
 21
221.18200336854019
 31
0.0
  0
LINE
  5
2124
  8
0
 10
57.229805893337932
 20
230.2630477941409
 30
0.0
 11
62.31545513853461
 21
232.3695926849735
 31
0.0
  0
LINE
  5
2125
  8
0
 10
56.464439028607778
 20
232.1108068591632
 30
0.0
 11
61.550088273804477
 21
234.2173517499962
 31
0.0
  0
LINE
  5
2126
  8
0
 10
62.031169978509297
 20
223.07729863561821
 30
0.0
 11
65.923557396422666
 21
226.96968605353189
 31
0.0
  0
LINE
  5
2127
  8
0
 10
63.445383540882403
 20
221.6630850732451
 30
0.0
 11
67.337770958795772
 21
225.55547249115881
 31
0.0
  0
CIRCLE
  5
2128
  8
0
 10
81.955060825894407
 20
241.58697592063021
 30
0.0
 40
21.69502858416968
  0
CIRCLE
  5
2129
  8
0
 10
81.955060825894407
 20
241.58697592063021
 30
0.0
 40
27.19502858416968
  0
LINE
  5
212A
  8
2
 10
278.45506082589509
 20
214.3919473364605
 30
0.0
 11
274.45506082589509
 21
219.8919473364605
 31
0.0
  0
LINE
  5
212B
  8
2
 10
279.45506082589532
 20
214.3919473364605
 30
0.0
 11
274.95506082589509
 21
214.3919473364605
 31
0.0
  0
LINE
  5
212C
  8
2
 10
279.45506082589509
 20
233.58697592063029
 30
0.0
 11
272.95506082589509
 21
233.5869759206297
 31
0.0
  0
LINE
  5
212D
  8
2
 10
279.45506082589532
 20
234.66947592062979
 30
0.0
 11
272.95506082589509
 21
234.66947592062991
 31
0.0
  0
LINE
  5
212E
  8
2
 10
256.45506082589509
 20
231.5869759206299
 30
0.0
 11
256.45506082589509
 21
218.58697592063001
 31
0.0
  0
LINE
  5
212F
  8
2
 10
270.45506082589509
 20
235.0869759206299
 30
0.0
 11
270.45506082589509
 21
219.5869759206301
 31
0.0
  0
LINE
  5
2130
  8
2
 10
274.45506082589509
 20
233.58697592062981
 30
0.0
 11
274.45506082589509
 21
219.8919473364605
 31
0.0
  0
LINE
  5
2131
  8
2
 10
260.45506082589509
 20
214.5869759206299
 30
0.0
 11
260.45506082589509
 21
218.08697592063001
 31
0.0
  0
LINE
  5
2132
  8
2
 10
274.45506082589509
 20
219.8919473364605
 30
0.0
 11
274.45506082589509
 21
214.8919473364605
 31
0.0
  0
LINE
  5
2133
  8
2
 10
256.95506082589509
 20
218.08697592063001
 30
0.0
 11
268.95506082589509
 21
218.08697592063001
 31
0.0
  0
CIRCLE
  5
2134
  8
2
 10
263.42838965568723
 20
224.83697592063001
 30
0.0
 40
3.5
  0
LINE
  5
2135
  8
2
 10
256.42838965568723
 20
226.58697592063001
 30
0.0
 11
260.39730074244181
 21
226.58697592063001
 31
0.0
  0
ARC
  5
2136
  8
2
 10
257.95506082589509
 20
230.08697592063001
 30
0.0
 40
1.5
 50
90.0
 51
180.0
  0
LINE
  5
2137
  8
2
 10
256.42838965568723
 20
223.08697592063001
 30
0.0
 11
260.39730074244181
 21
223.08697592063001
 31
0.0
  0
ARC
  5
2138
  8
2
 10
257.95506082589509
 20
219.5869759206301
 30
0.0
 40
1.5
 50
180.0
 51
270.0
  0
LINE
  5
2139
  8
2
 10
256.95506082589509
 20
218.08697592063001
 30
0.0
 11
256.45506082589509
 21
218.58697592063001
 31
0.0
  0
ARC
  5
213A
  8
2
 10
268.95506082589509
 20
230.08697592063001
 30
0.0
 40
1.5
 50
0.0
 51
90.0
  0
LINE
  5
213B
  8
2
 10
266.45947856893281
 20
226.58697592063001
 30
0.0
 11
270.42838965568723
 21
226.58697592063001
 31
0.0
  0
LINE
  5
213C
  8
2
 10
274.45506082589509
 20
219.8919473364605
 30
0.0
 11
270.45506082589509
 21
219.8919473364605
 31
0.0
  0
LINE
  5
213D
  8
2
 10
266.45947856893281
 20
223.08697592063001
 30
0.0
 11
270.42838965568723
 21
223.08697592063001
 31
0.0
  0
ARC
  5
213E
  8
2
 10
268.95506082589509
 20
219.5869759206301
 30
0.0
 40
1.5
 50
270.0
 51
0.0
  0
ARC
  5
213F
  8
2
 10
274.95506082589509
 20
214.8919473364605
 30
0.0
 40
0.5
 50
180.0
 51
270.0
  0
LINE
  5
2140
  8
2
 10
268.95506082589509
 20
232.0869759206299
 30
0.0
 11
268.45506082589509
 21
231.5869759206299
 31
0.0
  0
ARC
  5
2141
  8
2
 10
269.95506082589492
 20
234.0869759206299
 30
0.0
 40
1.0
 50
90.0
 51
180.0
  0
LINE
  5
2142
  8
2
 10
269.95506082589492
 20
235.0869759206299
 30
0.0
 11
271.95506082589509
 21
235.0869759206299
 31
0.0
  0
ARC
  5
2143
  8
2
 10
271.95506082589509
 20
234.0869759206299
 30
0.0
 40
1.0
 50
0.0
 51
90.0
  0
LINE
  5
2144
  8
2
 10
214.45506082589509
 20
225.5869759206299
 30
0.0
 11
214.45506082589509
 21
219.89194733646059
 31
0.0
  0
LINE
  5
2145
  8
2
 10
232.45506082589509
 20
231.58697592062981
 30
0.0
 11
232.45506082589509
 21
218.58697592063001
 31
0.0
  0
LINE
  5
2146
  8
2
 10
218.85506082589501
 20
231.58697592062981
 30
0.0
 11
268.45506082589509
 21
231.5869759206299
 31
0.0
  0
LINE
  5
2147
  8
2
 10
232.45506082589509
 20
221.5869759206301
 30
0.0
 11
256.45506082589509
 21
221.5869759206301
 31
0.0
  0
LINE
  5
2148
  8
2
 10
260.45506082589509
 20
214.5869759206299
 30
0.0
 11
228.45506082589509
 21
214.5869759206299
 31
0.0
  0
LINE
  5
2149
  8
2
 10
256.45506082589509
 20
227.98697592062999
 30
0.0
 11
232.45506082589509
 21
227.9869759206301
 31
0.0
  0
LINE
  5
214A
  8
2
 10
222.42397191264951
 20
226.58697592063001
 30
0.0
 11
218.45506082589509
 21
226.58697592063001
 31
0.0
  0
LINE
  5
214B
  8
2
 10
222.42397191264951
 20
223.08697592063001
 30
0.0
 11
218.45506082589509
 21
223.08697592063001
 31
0.0
  0
LINE
  5
214C
  8
2
 10
231.95506082589509
 20
218.08697592063001
 30
0.0
 11
219.95506082589509
 21
218.08697592063001
 31
0.0
  0
LINE
  5
214D
  8
2
 10
210.4550608258987
 20
214.3919473364605
 30
0.0
 11
214.45506082589509
 21
219.8919473364605
 31
0.0
  0
LINE
  5
214E
  8
2
 10
214.45506082589509
 20
219.89194733646059
 30
0.0
 11
214.45506082589509
 21
214.8919473364605
 31
0.0
  0
ARC
  5
214F
  8
2
 10
219.95506082589509
 20
230.08697592063001
 30
0.0
 40
1.5
 50
90.0
 51
180.0
  0
LINE
  5
2150
  8
2
 10
218.45506082589509
 20
219.8919473364605
 30
0.0
 11
214.45506082589509
 21
219.8919473364605
 31
0.0
  0
ARC
  5
2151
  8
2
 10
219.95506082589509
 20
219.5869759206301
 30
0.0
 40
1.5
 50
180.0
 51
270.0
  0
LINE
  5
2152
  8
2
 10
209.4550608258956
 20
214.39194733646059
 30
0.0
 11
213.95506082589509
 21
214.3919473364605
 31
0.0
  0
ARC
  5
2153
  8
2
 10
213.95506082589509
 20
214.8919473364605
 30
0.0
 40
0.5
 50
270.0
 51
0.0
  0
LINE
  5
2154
  8
2
 10
228.45506082589509
 20
214.5869759206299
 30
0.0
 11
228.45506082589509
 21
218.08697592063001
 31
0.0
  0
CIRCLE
  5
2155
  8
2
 10
225.45506082589509
 20
224.83697592063001
 30
0.0
 40
3.5
  0
ARC
  5
2156
  8
2
 10
230.95506082589509
 20
230.08697592063001
 30
0.0
 40
1.5
 50
0.0
 51
90.0
  0
LINE
  5
2157
  8
2
 10
232.45506082589509
 20
226.58697592063001
 30
0.0
 11
228.4861497391403
 21
226.58697592063001
 31
0.0
  0
LINE
  5
2158
  8
2
 10
232.45506082589509
 20
223.08697592063001
 30
0.0
 11
228.4861497391403
 21
223.08697592063001
 31
0.0
  0
ARC
  5
2159
  8
2
 10
230.95506082589509
 20
219.5869759206301
 30
0.0
 40
1.5
 50
270.0
 51
0.0
  0
LINE
  5
215A
  8
2
 10
231.95506082589509
 20
218.08697592063001
 30
0.0
 11
232.45506082589509
 21
218.58697592063001
 31
0.0
  0
ARC
  5
215B
  8
2
 10
218.85506082589501
 20
231.18697592062981
 30
0.0
 40
0.4
 50
90.0
 51
180.0
  0
LINE
  5
215C
  8
2
 10
218.45506082589509
 20
226.0869759206299
 30
0.0
 11
217.95506082589509
 21
225.5869759206299
 31
0.0
  0
LINE
  5
215D
  8
2
 10
209.4550608258956
 20
225.5869759206299
 30
0.0
 11
217.95506082589509
 21
225.5869759206299
 31
0.0
  0
LINE
  5
215E
  8
2
 10
209.45506082589529
 20
232.99919390197101
 30
0.0
 11
218.45506082589509
 21
232.99919390197101
 31
0.0
  0
LINE
  5
215F
  8
2
 10
218.45506082589509
 20
232.99919390197101
 30
0.0
 11
209.45506082589529
 21
240.02556100814641
 31
0.0
  0
LINE
  5
2160
  8
2
 10
279.45506082589532
 20
248.50447592063071
 30
0.0
 11
272.95506082589509
 21
248.5044759206306
 31
0.0
  0
LINE
  5
2161
  8
2
 10
279.45506082589509
 20
249.58697592063029
 30
0.0
 11
272.95506082589509
 21
249.58697592063081
 31
0.0
  0
LINE
  5
2162
  8
2
 10
218.45506082589509
 20
250.17475793928949
 30
0.0
 11
209.45506082589529
 21
243.14839083311409
 31
0.0
  0
LINE
  5
2163
  8
2
 10
209.45506082589529
 20
250.17475793928949
 30
0.0
 11
218.45506082589509
 21
250.17475793928949
 31
0.0
  0
LINE
  5
2164
  8
2
 10
209.4550608258956
 20
257.58697592063061
 30
0.0
 11
217.95506082589509
 21
257.58697592063061
 31
0.0
  0
CIRCLE
  5
2165
  8
0
 10
81.955060825894407
 20
241.58697592063021
 30
0.0
 40
32.000000000000227
  0
CIRCLE
  5
2166
  8
0
 10
81.955060825894407
 20
241.58697592063021
 30
0.0
 40
30.22073504288176
  0
LINE
  5
2167
  8
0
 10
209.95506082589489
 20
272.0963860981069
 30
0.0
 11
209.45506082589509
 21
271.80771096351208
 31
0.0
  0
LINE
  5
2168
  8
0
 10
209.95506082589489
 20
211.07756574315411
 30
0.0
 11
209.45506082589509
 21
211.36624087774879
 31
0.0
  0
LINE
  5
2169
  8
0
 10
278.95506082589509
 20
211.07756574315411
 30
0.0
 11
279.45506082589509
 21
211.36624087774879
 31
0.0
  0
LINE
  5
216A
  8
0
 10
278.95506082589509
 20
272.0963860981069
 30
0.0
 11
279.45506082589509
 21
271.80771096351208
 31
0.0
  0
CIRCLE
  5
216B
  8
0
 10
81.955060825894407
 20
241.58697592063021
 30
0.0
 40
10.0
  0
CIRCLE
  5
216C
  8
3
 10
81.955060825894407
 20
241.58697592063021
 30
0.0
 40
8.6470000000000002
  0
ARC
  5
216D
  8
0
 10
81.955060825894407
 20
241.58697592063021
 30
0.0
 40
16.0
 50
32.461744967242261
 51
147.53825503275769
  0
ARC
  5
216E
  8
0
 10
81.955060825894407
 20
241.58697592063021
 30
0.0
 40
16.0
 50
212.46174496724231
 51
327.53825503275777
  0
LINE
  5
216F
  8
0
 10
95.455060825894407
 20
250.17475793928901
 30
0.0
 11
95.455060825894407
 21
232.99919390197201
 31
0.0
  0
LINE
  5
2170
  8
0
 10
68.455060825894407
 20
250.17475793928901
 30
0.0
 11
68.455060825894407
 21
232.99919390196939
 31
0.0
  0
LINE
  5
2171
  8
2
 10
272.95506082589492
 20
233.5869759206297
 30
0.0
 11
272.95506082589509
 21
249.58697592063081
 31
0.0
  0
ARC
  5
2172
  8
2
 10
271.95506082589509
 20
249.08697592063061
 30
0.0
 40
1.0
 50
270.0
 51
0.0
  0
LINE
  5
2173
  8
2
 10
269.95506082589492
 20
248.08697592063061
 30
0.0
 11
271.95506082589509
 21
248.08697592063061
 31
0.0
  0
ARC
  5
2174
  8
2
 10
269.95506082589492
 20
249.08697592063061
 30
0.0
 40
1.0
 50
180.0
 51
270.0
  0
LINE
  5
2175
  8
0
 10
288.95506082589509
 20
233.58697592063061
 30
0.0
 11
288.95506082589509
 21
249.58697592063061
 31
0.0
  0
LINE
  5
2176
  8
0
 10
290.95506082589509
 20
247.58697592063061
 30
0.0
 11
288.95506082589509
 21
249.58697592063061
 31
0.0
  0
LINE
  5
2177
  8
0
 10
288.95506082589509
 20
233.58697592063061
 30
0.0
 11
290.95506082589509
 21
235.58697592063061
 31
0.0
  0
LINE
  5
2178
  8
0
 10
290.95506082589509
 20
247.58697592063061
 30
0.0
 11
290.95506082589509
 21
235.58697592063061
 31
0.0
  0
LINE
  5
2179
  8
0
 10
288.95506082589509
 20
233.58697592063061
 30
0.0
 11
279.45506082589509
 21
233.58697592063049
 31
0.0
  0
LINE
  5
217A
  8
3
 10
290.0375608258949
 20
234.66947592063059
 30
0.0
 11
279.45506082589509
 21
234.66947592063059
 31
0.0
  0
LINE
  5
217B
  8
3
 10
290.03756082589513
 20
248.50447592063071
 30
0.0
 11
279.45506082589492
 21
248.5044759206306
 31
0.0
  0
LINE
  5
217C
  8
0
 10
288.95506082589509
 20
249.58697592063061
 30
0.0
 11
279.45506082589509
 21
249.58697592063069
 31
0.0
  0
LINE
  5
217D
  8
0
 10
317.45506082589458
 20
253.08697592052309
 30
0.0
 11
317.45506082589458
 21
230.08697592073861
 31
0.0
  0
LINE
  5
217E
  8
0
 10
316.09458892150042
 20
255.4433823812038
 30
0.0
 11
317.45506082589458
 21
253.08697592052309
 31
0.0
  0
ARC
  5
217F
  8
0
 10
311.03241109560889
 20
251.9792807660443
 30
0.0
 40
6.1339745957208214
 50
325.61575252879209
 51
25.615752530138479
  0
LINE
  5
2180
  8
0
 10
304.45506082589492
 20
255.44338238118189
 30
0.0
 11
316.09458892151321
 21
255.443382381182
 31
0.0
  0
LINE
  5
2181
  8
0
 10
304.45506082589492
 20
248.51517915090619
 30
0.0
 11
316.09458892150042
 21
248.51517915090619
 31
0.0
  0
LINE
  5
2182
  8
0
 10
304.45506082589492
 20
234.65877269035551
 30
0.0
 11
316.09458892150042
 21
234.65877269035551
 31
0.0
  0
LINE
  5
2183
  8
0
 10
304.45506082589492
 20
227.73056946007969
 30
0.0
 11
316.09458892151321
 21
227.73056946007969
 31
0.0
  0
ARC
  5
2184
  8
0
 10
294.23818246319018
 20
241.58697592063081
 30
0.0
 40
22.928203228139491
 50
342.41204622431411
 51
17.587953775685811
  0
ARC
  5
2185
  8
0
 10
311.03241109560889
 20
231.19467107521729
 30
0.0
 40
6.1339745957208214
 50
334.38424746986152
 51
34.3842474712079
  0
LINE
  5
2186
  8
0
 10
316.09458892150042
 20
227.73056946005781
 30
0.0
 11
317.45506082589458
 21
230.08697592073861
 31
0.0
  0
LINE
  5
2187
  8
0
 10
300.46267142971152
 20
241.4126644351353
 30
0.0
 11
304.44745022207832
 21
241.76128740612589
 31
0.0
  0
LINE
  5
2188
  8
0
 10
304.45506082589492
 20
255.58697592063049
 30
0.0
 11
304.45506082589492
 21
227.58697592063069
 31
0.0
  0
LINE
  5
2189
  8
0
 10
300.45506082589492
 20
255.58697592063049
 30
0.0
 11
304.45506082589492
 21
255.58697592063049
 31
0.0
  0
LINE
  5
218A
  8
0
 10
300.45506082589492
 20
227.58697592063069
 30
0.0
 11
304.45506082589492
 21
227.58697592063069
 31
0.0
  0
LINE
  5
218B
  8
0
 10
300.45506082589492
 20
255.58697592063049
 30
0.0
 11
300.45506082589492
 21
227.58697592063069
 31
0.0
  0
LINE
  5
218C
  8
3
 10
209.45506082589509
 20
240.02556100814721
 30
0.0
 11
196.45506082589509
 21
250.17475793928941
 31
0.0
  0
LINE
  5
218D
  8
3
 10
196.45506082589509
 20
232.99919390197181
 30
0.0
 11
209.45506082589529
 21
243.14839083311429
 31
0.0
  0
LINE
  5
218E
  8
0
 10
209.45506082589529
 20
250.17475793928949
 30
0.0
 11
196.45506082589509
 21
250.17475793928949
 31
0.0
  0
LINE
  5
218F
  8
0
 10
209.45506082589509
 20
232.99919390197181
 30
0.0
 11
196.45506082589509
 21
232.99919390197181
 31
0.0
  0
LINE
  5
2190
  8
0
 10
196.95506082589509
 20
257.58697592063061
 30
0.0
 11
196.45506082589509
 21
257.08697592063061
 31
0.0
  0
LINE
  5
2191
  8
2
 10
218.45506082589509
 20
257.08697592063061
 30
0.0
 11
217.95506082589509
 21
257.58697592063061
 31
0.0
  0
LINE
  5
2192
  8
0
 10
196.45506082589509
 20
226.08697592063061
 30
0.0
 11
196.95506082589509
 21
225.58697592063061
 31
0.0
  0
ARC
  5
2193
  8
2
 10
218.85506082589501
 20
251.9869759206307
 30
0.0
 40
0.4
 50
180.0
 51
270.0
  0
LINE
  5
2194
  8
0
 10
209.4550608258956
 20
257.58697592063061
 30
0.0
 11
196.95506082589509
 21
257.58697592063061
 31
0.0
  0
LINE
  5
2195
  8
0
 10
195.25506082589479
 20
249.83697592063061
 30
0.0
 11
192.65506082589491
 21
249.83697592063061
 31
0.0
  0
ARC
  5
2196
  8
0
 10
195.25506082589479
 20
251.03697592063071
 30
0.0
 40
1.1999999999999991
 50
270.0
 51
0.0
  0
ARC
  5
2197
  8
0
 10
192.65506082589491
 20
251.03697592063071
 30
0.0
 40
1.1999999999999991
 50
180.0
 51
270.0
  0
LINE
  5
2198
  8
0
 10
176.45506082589509
 20
231.58697592063069
 30
0.0
 11
176.4550608258948
 21
251.58697592063061
 31
0.0
  0
LINE
  5
2199
  8
0
 10
173.9550608258948
 20
249.08697592063061
 30
0.0
 11
176.4550608258948
 21
251.58697592063061
 31
0.0
  0
LINE
  5
219A
  8
0
 10
176.45506082589509
 20
231.58697592063069
 30
0.0
 11
173.95506082589509
 21
234.08697592063069
 31
0.0
  0
ARC
  5
219B
  8
0
 10
192.65506082589491
 20
232.1369759206307
 30
0.0
 40
1.1999999999999991
 50
90.0
 51
180.0
  0
ARC
  5
219C
  8
0
 10
195.25506082589479
 20
232.1369759206307
 30
0.0
 40
1.1999999999999991
 50
0.0
 51
90.0
  0
LINE
  5
219D
  8
0
 10
195.25506082589479
 20
233.33697592063061
 30
0.0
 11
192.65506082589491
 21
233.33697592063061
 31
0.0
  0
LINE
  5
219E
  8
0
 10
191.45506082589509
 20
231.58697592063061
 30
0.0
 11
191.45506082589489
 21
251.58697592063061
 31
0.0
  0
LINE
  5
219F
  8
0
 10
191.45506082589509
 20
231.58697592063061
 30
0.0
 11
176.45506082589509
 21
231.58697592063069
 31
0.0
  0
LINE
  5
21A0
  8
3
 10
191.7633259998388
 20
232.9399759206307
 30
0.0
 11
175.10206082589499
 21
232.9399759206307
 31
0.0
  0
LINE
  5
21A1
  8
3
 10
191.76332599983471
 20
250.23397592063051
 30
0.0
 11
175.1020608258948
 21
250.23397592063051
 31
0.0
  0
LINE
  5
21A2
  8
0
 10
191.45506082589509
 20
251.58697592063061
 30
0.0
 11
176.4550608258948
 21
251.58697592063061
 31
0.0
  0
LINE
  5
21A3
  8
0
 10
209.45506082589509
 20
225.58697592063061
 30
0.0
 11
196.95506082589509
 21
225.58697592063061
 31
0.0
  0
LINE
  5
21A4
  8
2
 10
268.95506082589492
 20
232.08697592062961
 30
0.0
 11
268.95506082589509
 21
251.08697592063061
 31
0.0
  0
LINE
  5
21A5
  8
0
 10
196.45506082589509
 20
226.08697592063061
 30
0.0
 11
196.45506082589509
 21
257.08697592063061
 31
0.0
  0
LINE
  5
21A6
  8
0
 10
173.95506082589509
 20
234.08697592063069
 30
0.0
 11
173.9550608258948
 21
249.08697592063061
 31
0.0
  0
LINE
  5
21A7
  8
2
 10
268.95506082589509
 20
251.08697592063061
 30
0.0
 11
268.45506082589509
 21
251.58697592063061
 31
0.0
  0
ARC
  5
21A8
  8
2
 10
274.95506082589509
 20
268.2820045048
 30
0.0
 40
0.5
 50
90.0
 51
180.0
  0
LINE
  5
21A9
  8
2
 10
279.45506082589532
 20
268.78200450480011
 30
0.0
 11
274.95506082589509
 21
268.78200450480011
 31
0.0
  0
ARC
  5
21AA
  8
2
 10
268.95506082589509
 20
263.58697592063049
 30
0.0
 40
1.5
 50
0.0
 51
90.0
  0
LINE
  5
21AB
  8
2
 10
266.45947856893281
 20
260.08697592063049
 30
0.0
 11
270.42838965568723
 21
260.08697592063049
 31
0.0
  0
LINE
  5
21AC
  8
2
 10
274.45506082589509
 20
263.28200450480011
 30
0.0
 11
270.45506082589509
 21
263.28200450480011
 31
0.0
  0
LINE
  5
21AD
  8
2
 10
266.45947856893281
 20
256.58697592063049
 30
0.0
 11
270.42838965568723
 21
256.58697592063049
 31
0.0
  0
ARC
  5
21AE
  8
2
 10
268.95506082589509
 20
253.08697592063049
 30
0.0
 40
1.5
 50
270.0
 51
0.0
  0
LINE
  5
21AF
  8
2
 10
256.95506082589509
 20
265.08697592063049
 30
0.0
 11
256.45506082589509
 21
264.58697592063049
 31
0.0
  0
ARC
  5
21B0
  8
2
 10
257.95506082589509
 20
263.58697592063049
 30
0.0
 40
1.5
 50
90.0
 51
180.0
  0
LINE
  5
21B1
  8
2
 10
256.42838965568723
 20
260.08697592063049
 30
0.0
 11
260.39730074244181
 21
260.08697592063049
 31
0.0
  0
ARC
  5
21B2
  8
2
 10
257.95506082589509
 20
253.08697592063049
 30
0.0
 40
1.5
 50
180.0
 51
270.0
  0
LINE
  5
21B3
  8
2
 10
256.42838965568723
 20
256.58697592063049
 30
0.0
 11
260.39730074244181
 21
256.58697592063049
 31
0.0
  0
CIRCLE
  5
21B4
  8
2
 10
263.42838965568723
 20
258.33697592063049
 30
0.0
 40
3.5
  0
LINE
  5
21B5
  8
2
 10
256.95506082589509
 20
265.08697592063049
 30
0.0
 11
268.95506082589509
 21
265.08697592063049
 31
0.0
  0
LINE
  5
21B6
  8
2
 10
274.45506082589509
 20
263.28200450480011
 30
0.0
 11
274.45506082589509
 21
268.2820045048
 31
0.0
  0
LINE
  5
21B7
  8
2
 10
278.45506082589509
 20
268.78200450480011
 30
0.0
 11
274.45506082589509
 21
263.28200450480011
 31
0.0
  0
LINE
  5
21B8
  8
2
 10
260.45506082589509
 20
268.58697592063061
 30
0.0
 11
260.45506082589509
 21
265.08697592063049
 31
0.0
  0
LINE
  5
21B9
  8
2
 10
231.95506082589509
 20
265.08697592063049
 30
0.0
 11
232.45506082589509
 21
264.58697592063049
 31
0.0
  0
ARC
  5
21BA
  8
2
 10
230.95506082589509
 20
263.58697592063049
 30
0.0
 40
1.5
 50
0.0
 51
90.0
  0
LINE
  5
21BB
  8
2
 10
232.45506082589509
 20
260.08697592063049
 30
0.0
 11
228.4861497391403
 21
260.08697592063049
 31
0.0
  0
LINE
  5
21BC
  8
2
 10
232.45506082589509
 20
256.58697592063049
 30
0.0
 11
228.4861497391403
 21
256.58697592063049
 31
0.0
  0
ARC
  5
21BD
  8
2
 10
230.95506082589509
 20
253.08697592063049
 30
0.0
 40
1.5
 50
270.0
 51
0.0
  0
CIRCLE
  5
21BE
  8
2
 10
225.45506082589509
 20
258.33697592063049
 30
0.0
 40
3.5
  0
LINE
  5
21BF
  8
2
 10
228.45506082589509
 20
268.58697592063061
 30
0.0
 11
228.45506082589509
 21
265.08697592063049
 31
0.0
  0
ARC
  5
21C0
  8
2
 10
213.95506082589509
 20
268.2820045048
 30
0.0
 40
0.5
 50
0.0
 51
90.0
  0
LINE
  5
21C1
  8
2
 10
209.4550608258956
 20
268.78200450479989
 30
0.0
 11
213.95506082589509
 21
268.78200450480011
 31
0.0
  0
ARC
  5
21C2
  8
2
 10
219.95506082589509
 20
263.58697592063049
 30
0.0
 40
1.5
 50
90.0
 51
180.0
  0
LINE
  5
21C3
  8
2
 10
218.45506082589509
 20
263.28200450480011
 30
0.0
 11
214.45506082589509
 21
263.28200450480011
 31
0.0
  0
ARC
  5
21C4
  8
2
 10
219.95506082589509
 20
253.08697592063049
 30
0.0
 40
1.5
 50
180.0
 51
270.0
  0
LINE
  5
21C5
  8
2
 10
214.45506082589509
 20
263.28200450479989
 30
0.0
 11
214.45506082589509
 21
268.2820045048
 31
0.0
  0
LINE
  5
21C6
  8
2
 10
210.4550608258987
 20
268.78200450480011
 30
0.0
 11
214.45506082589509
 21
263.28200450480011
 31
0.0
  0
LINE
  5
21C7
  8
2
 10
231.95506082589509
 20
265.08697592063049
 30
0.0
 11
219.95506082589509
 21
265.08697592063049
 31
0.0
  0
LINE
  5
21C8
  8
2
 10
222.42397191264951
 20
260.08697592063049
 30
0.0
 11
218.45506082589509
 21
260.08697592063049
 31
0.0
  0
LINE
  5
21C9
  8
2
 10
222.42397191264951
 20
256.58697592063049
 30
0.0
 11
218.45506082589509
 21
256.58697592063049
 31
0.0
  0
LINE
  5
21CA
  8
2
 10
256.45506082589509
 20
255.18697592063049
 30
0.0
 11
232.45506082589509
 21
255.1869759206304
 31
0.0
  0
LINE
  5
21CB
  8
2
 10
260.45506082589509
 20
268.58697592063061
 30
0.0
 11
228.45506082589509
 21
268.58697592063061
 31
0.0
  0
LINE
  5
21CC
  8
2
 10
232.45506082589509
 20
261.58697592063049
 30
0.0
 11
256.45506082589509
 21
261.58697592063049
 31
0.0
  0
LINE
  5
21CD
  8
2
 10
218.85506082589501
 20
251.58697592063069
 30
0.0
 11
268.45506082589509
 21
251.58697592063061
 31
0.0
  0
ARC
  5
21CE
  8
0
 10
244.45506082589509
 20
-126.41302407936941
 30
0.0
 40
400.0
 50
85.052091403590893
 51
94.947908596409107
  0
LINE
  5
21CF
  8
0
 10
279.45506082589509
 20
271.80771096351202
 30
0.0
 11
279.45506082589509
 21
211.36624087774899
 31
0.0
  0
LINE
  5
21D0
  8
0
 10
209.45506082589529
 20
271.80771096351208
 30
0.0
 11
209.45506082589509
 21
211.36624087774879
 31
0.0
  0
LINE
  5
21D1
  8
1
 10
327.45506082589458
 20
241.58697592063069
 30
0.0
 11
163.95506082589461
 21
241.58697592063021
 31
0.0
  0
ARC
  5
21D2
  8
0
 10
244.45506082589509
 20
609.58697592063061
 30
0.0
 40
400.0
 50
265.05209140359091
 51
274.94790859640909
  0
LINE
  5
21D3
  8
2
 10
274.45506082589509
 20
249.58697592063069
 30
0.0
 11
274.45506082589509
 21
263.28200450480011
 31
0.0
  0
LINE
  5
21D4
  8
2
 10
232.45506082589509
 20
251.58697592063069
 30
0.0
 11
232.45506082589509
 21
264.58697592063049
 31
0.0
  0
LINE
  5
21D5
  8
2
 10
218.45506082589509
 20
219.5869759206301
 30
0.0
 11
218.45506082589509
 21
263.58697592063049
 31
0.0
  0
LINE
  5
21D6
  8
2
 10
270.45506082589509
 20
248.08697592063061
 30
0.0
 11
270.45506082589509
 21
263.58697592063049
 31
0.0
  0
LINE
  5
21D7
  8
2
 10
256.45506082589509
 20
251.58697592063061
 30
0.0
 11
256.45506082589509
 21
264.58697592063049
 31
0.0
  0
LINE
  5
21D8
  8
1
 10
244.45506082589509
 20
283.58697592063072
 30
0.0
 11
244.45506082589509
 21
199.58697592063061
 31
0.0
  0
LINE
  5
21D9
  8
2
 10
214.45506082589509
 20
257.58697592063061
 30
0.0
 11
214.45506082589509
 21
263.28200450479989
 31
0.0
  0
LINE
  5
21DA
  8
0
 10
109.1316974775077
 20
242.58697592063029
 30
0.0
 11
103.6270304010838
 21
242.58697592063029
 31
0.0
  0
LINE
  5
21DB
  8
0
 10
109.1316974775077
 20
240.58697592063029
 30
0.0
 11
103.6270304010838
 21
240.58697592063029
 31
0.0
  0
LINE
  5
21DC
  8
0
 10
106.6803157584509
 20
252.91090404711969
 30
0.0
 11
101.5946665132542
 21
250.80435915628689
 31
0.0
  0
LINE
  5
21DD
  8
0
 10
107.445682623181
 20
251.06314498209721
 30
0.0
 11
102.36003337798449
 21
248.95660009126411
 31
0.0
  0
LINE
  5
21DE
  8
0
 10
100.46473811090659
 20
261.51086676801509
 30
0.0
 11
96.572350692992813
 21
257.61847935010189
 31
0.0
  0
LINE
  5
21DF
  8
0
 10
101.8789516732795
 20
260.09665320564233
 30
0.0
 11
97.986564255366147
 21
256.20426578772867
 31
0.0
  0
LINE
  5
21E0
  8
0
 10
91.431229887361724
 20
267.07759771791672
 30
0.0
 11
89.324684996528731
 21
261.99194847272008
 31
0.0
  0
LINE
  5
21E1
  8
0
 10
93.27898895238377
 20
266.3122308531868
 30
0.0
 11
91.172444061551232
 21
261.22658160799
 31
0.0
  0
LINE
  5
21E2
  8
0
 10
82.955060825894634
 20
268.76361257224352
 30
0.0
 11
82.955060825894407
 21
263.25894549581977
 31
0.0
  0
LINE
  5
21E3
  8
1
 10
39.955060825894179
 20
241.58697592063021
 30
0.0
 11
123.95506082589461
 21
241.58697592063021
 31
0.0
  0
LINE
  5
21E4
  8
1
 10
81.955060825894407
 20
283.58697592063049
 30
0.0
 11
81.955060825894407
 21
199.58697592063001
 31
0.0
  0
LINE
  5
21E5
  8
0
 10
80.955060825894407
 20
268.76361257224352
 30
0.0
 11
80.955060825894407
 21
263.25894549581977
 31
0.0
  0
LINE
  5
21E6
  8
0
 10
70.631132699405043
 20
266.3122308531868
 30
0.0
 11
72.737677590237809
 21
261.22658160799011
 31
0.0
  0
LINE
  5
21E7
  8
0
 10
72.478891764427544
 20
267.07759771791689
 30
0.0
 11
74.585436655260537
 21
261.99194847272031
 31
0.0
  0
LINE
  5
21E8
  8
0
 10
62.031169978509297
 20
260.09665320564233
 30
0.0
 11
65.923557396422666
 21
256.20426578772862
 31
0.0
  0
LINE
  5
21E9
  8
0
 10
63.445383540882403
 20
261.51086676801549
 30
0.0
 11
67.337770958795772
 21
257.61847935010172
 31
0.0
  0
LINE
  5
21EA
  8
0
 10
56.464439028607778
 20
251.0631449820973
 30
0.0
 11
61.550088273804477
 21
248.95660009126431
 31
0.0
  0
LINE
  5
21EB
  8
0
 10
57.229805893337932
 20
252.9109040471196
 30
0.0
 11
62.31545513853461
 21
250.80435915628709
 31
0.0
  0
LINE
  5
21EC
  8
0
 10
54.778424174281099
 20
240.58697592063029
 30
0.0
 11
60.283091250704963
 21
240.58697592063029
 31
0.0
  0
LINE
  5
21ED
  8
0
 10
54.778424174281099
 20
242.58697592063029
 30
0.0
 11
60.283091250704963
 21
242.58697592063029
 31
0.0
  0
TEXT
  5
229F
  8
0
 62
     3
 10
0.0
 20
0.0
 30
0.0
 40
10.0
  1
CTR6065
  7
STANDARD1
  0
ENDSEC
  0
EOF
