  0
SECTION
  2
HEADER
  9
$ACADVER
  1
AC1009
  9
$INSBASE
 10
0.0
 20
0.0
 30
0.0
  9
$EXTMIN
 10
0.0
 20
-2.960436562073669
 30
0.0
  9
$EXTMAX
 10
158.19516081704501
 20
124.1819976241661
 30
0.0
  9
$LIMMIN
 10
0.0
 20
0.0
  9
$LIMMAX
 10
420.0
 20
297.0
  9
$ORTHOMODE
 70
     1
  9
$REGENMODE
 70
     1
  9
$FILLMODE
 70
     1
  9
$QTEXTMODE
 70
     0
  9
$MIRRTEXT
 70
     1
  9
$DRAGMODE
 70
     2
  9
$LTSCALE
 40
1.0
  9
$OSMODE
 70
  3071
  9
$ATTMODE
 70
     1
  9
$TEXTSIZE
 40
2.5
  9
$TRACEWID
 40
1.0
  9
$TEXTSTYLE
  7
STANDARD
  9
$CLAYER
  8
0
  9
$CELTYPE
  6
BYLAYER
  9
$CECOLOR
 62
   256
  9
$DIMSCALE
 40
1.0
  9
$DIMASZ
 40
2.5
  9
$DIMEXO
 40
0.625
  9
$DIMDLI
 40
3.75
  9
$DIMRND
 40
0.0
  9
$DIMDLE
 40
0.0
  9
$DIMEXE
 40
1.25
  9
$DIMTP
 40
0.0
  9
$DIMTM
 40
0.0
  9
$DIMTXT
 40
2.5
  9
$DIMCEN
 40
2.5
  9
$DIMTSZ
 40
0.0
  9
$DIMTOL
 70
     0
  9
$DIMLIM
 70
     0
  9
$DIMTIH
 70
     0
  9
$DIMTOH
 70
     0
  9
$DIMSE1
 70
     0
  9
$DIMSE2
 70
     0
  9
$DIMTAD
 70
     1
  9
$DIMZIN
 70
     8
  9
$DIMBLK
  1

  9
$DIMASO
 70
     1
  9
$DIMSHO
 70
     1
  9
$DIMPOST
  1

  9
$DIMAPOST
  1

  9
$DIMALT
 70
     0
  9
$DIMALTD
 70
     3
  9
$DIMALTF
 40
0.03937007874016
  9
$DIMLFAC
 40
1.0
  9
$DIMTOFL
 70
     1
  9
$DIMTVP
 40
0.0
  9
$DIMTIX
 70
     0
  9
$DIMSOXD
 70
     0
  9
$DIMSAH
 70
     0
  9
$DIMBLK1
  1

  9
$DIMBLK2
  1

  9
$DIMSTYLE
  2
ISO-25
  9
$DIMCLRD
 70
     0
  9
$DIMCLRE
 70
     0
  9
$DIMCLRT
 70
     0
  9
$DIMTFAC
 40
1.0
  9
$DIMGAP
 40
0.625
  9
$LUNITS
 70
     2
  9
$LUPREC
 70
     4
  9
$SKETCHINC
 40
1.0
  9
$FILLETRAD
 40
10.0
  9
$AUNITS
 70
     0
  9
$AUPREC
 70
     0
  9
$MENU
  1
.
  9
$ELEVATION
 40
0.0
  9
$PELEVATION
 40
0.0
  9
$THICKNESS
 40
0.0
  9
$LIMCHECK
 70
     0
  9
$BLIPMODE
 70
     0
  9
$CHAMFERA
 40
10.0
  9
$CHAMFERB
 40
10.0
  9
$SKPOLY
 70
     0
  9
$TDCREATE
 40
2454974.2412577658
  9
$TDUPDATE
 40
2456598.504553102
  9
$TDINDWG
 40
0.0120346759
  9
$TDUSRTIMER
 40
0.0120346759
  9
$USRTIMER
 70
     1
  9
$ANGBASE
 50
0.0
  9
$ANGDIR
 70
     0
  9
$PDMODE
 70
     0
  9
$PDSIZE
 40
0.0
  9
$PLINEWID
 40
0.0
  9
$COORDS
 70
     1
  9
$SPLFRAME
 70
     0
  9
$SPLINETYPE
 70
     6
  9
$SPLINESEGS
 70
     8
  9
$ATTDIA
 70
     0
  9
$ATTREQ
 70
     1
  9
$HANDLING
 70
     1
  9
$HANDSEED
  5
9CA
  9
$SURFTAB1
 70
     6
  9
$SURFTAB2
 70
     6
  9
$SURFTYPE
 70
     6
  9
$SURFU
 70
     6
  9
$SURFV
 70
     6
  9
$UCSNAME
  2

  9
$UCSORG
 10
0.0
 20
0.0
 30
0.0
  9
$UCSXDIR
 10
1.0
 20
0.0
 30
0.0
  9
$UCSYDIR
 10
0.0
 20
1.0
 30
0.0
  9
$PUCSNAME
  2

  9
$PUCSORG
 10
0.0
 20
0.0
 30
0.0
  9
$PUCSXDIR
 10
1.0
 20
0.0
 30
0.0
  9
$PUCSYDIR
 10
0.0
 20
1.0
 30
0.0
  9
$USERI1
 70
     0
  9
$USERI2
 70
     0
  9
$USERI3
 70
     0
  9
$USERI4
 70
     0
  9
$USERI5
 70
     0
  9
$USERR1
 40
0.0
  9
$USERR2
 40
0.0
  9
$USERR3
 40
0.0
  9
$USERR4
 40
0.0
  9
$USERR5
 40
0.0
  9
$WORLDVIEW
 70
     1
  9
$SHADEDGE
 70
     3
  9
$SHADEDIF
 70
    70
  9
$TILEMODE
 70
     1
  9
$MAXACTVP
 70
    64
  9
$PLIMCHECK
 70
     0
  9
$PEXTMIN
 10
0.0
 20
0.0
 30
0.0
  9
$PEXTMAX
 10
1000.0
 20
1000.0
 30
0.0
  9
$PLIMMIN
 10
0.0
 20
0.0
  9
$PLIMMAX
 10
100.0
 20
100.0
  9
$UNITMODE
 70
     0
  9
$VISRETAIN
 70
     1
  9
$PLINEGEN
 70
     0
  9
$PSLTSCALE
 70
     1
  0
ENDSEC
  0
SECTION
  2
TABLES
  0
TABLE
  2
VPORT
 70
     1
  0
VPORT
  2
*ACTIVE
 70
     0
 10
0.0
 20
0.0
 11
1.0
 21
1.0
 12
218.30564249092441
 22
147.0112842185321
 13
0.0
 23
0.0
 14
10.0
 24
10.0
 15
10.0
 25
10.0
 16
0.0
 26
0.0
 36
1.0
 17
0.0
 27
0.0
 37
0.0
 40
302.66781211506969
 41
1.831871345029239
 42
50.0
 43
0.0
 44
0.0
 50
0.0
 51
0.0
 71
     0
 72
   100
 73
     1
 74
     3
 75
     0
 76
     0
 77
     0
 78
     0
  0
ENDTAB
  0
TABLE
  2
LTYPE
 70
     3
  0
LTYPE
  2
CONTINUOUS
 70
     0
  3
Solid line
 72
    65
 73
     0
 40
0.0
  0
LTYPE
  2
CENTER
 70
     0
  3
____ _ ____ _ ____ _ ____ _ ____ _ ____ _ ____
 72
    65
 73
     4
 40
2.0
 49
1.25
 49
-0.25
 49
0.25
 49
-0.25
  0
LTYPE
  2
HIDDEN
 70
     0
  3
_ _ _ _ _ _ _ _ _ _ _ _ _ _ _ _ _ _ _ _ _ _ _
 72
    65
 73
     2
 40
0.375
 49
0.25
 49
-0.125
  0
ENDTAB
  0
TABLE
  2
LAYER
 70
     3
  0
LAYER
  2
0
 70
     0
 62
     7
  6
CONTINUOUS
  0
LAYER
  2
1
 70
     0
 62
     1
  6
CENTER
  0
LAYER
  2
2
 70
     0
 62
     2
  6
HIDDEN
  0
ENDTAB
  0
TABLE
  2
STYLE
 70
     2
  0
STYLE
  2
STANDARD
 70
     0
 40
0.0
 41
1.0
 50
0.0
 71
     0
 42
2.5
  3
txt
  4

  0
STYLE
  2
STANDARD1
 70
     0
 40
0.0
 41
1.0
 50
0.0
 71
     0
 42
3.0
  3
txt
  4

  0
ENDTAB
  0
TABLE
  2
VIEW
 70
     0
  0
ENDTAB
  0
TABLE
  2
UCS
 70
     0
  0
ENDTAB
  0
TABLE
  2
APPID
 70
     3
  0
APPID
  2
ACAD
 70
     0
  0
APPID
  2
ACAD_MLEADERVER
 70
     0
  0
APPID
  2
ACAD_NAV_VCDISPLAY
 70
     0
  0
ENDTAB
  0
TABLE
  2
DIMSTYLE
 70
     2
  0
DIMSTYLE
  2
ISO-25
 70
     0
  3

  4

  5

  6

  7

 40
1.0
 41
2.5
 42
0.625
 43
3.75
 44
1.25
 45
0.0
 46
0.0
 47
0.0
 48
0.0
140
2.5
141
2.5
142
0.0
143
0.03937007874016
144
1.0
145
0.0
146
1.0
147
0.625
 71
     0
 72
     0
 73
     0
 74
     0
 75
     0
 76
     0
 77
     1
 78
     8
170
     0
171
     3
172
     1
173
     0
174
     0
175
     0
176
     0
177
     0
178
     0
  0
DIMSTYLE
  2
STANDARD
 70
     0
  3

  4

  5

  6

  7

 40
1.0
 41
0.18
 42
0.0625
 43
0.38
 44
0.18
 45
0.0
 46
0.0
 47
0.0
 48
0.0
140
0.18
141
0.09
142
0.0
143
25.399999999999999
144
1.0
145
0.0
146
1.0
147
0.09
 71
     0
 72
     0
 73
     1
 74
     1
 75
     0
 76
     0
 77
     0
 78
     0
170
     0
171
     2
172
     0
173
     0
174
     0
175
     0
176
     0
177
     0
178
     0
  0
ENDTAB
  0
ENDSEC
  0
SECTION
  2
BLOCKS
  0
BLOCK
  8
0
  2
$MODEL_SPACE
 70
     0
 10
0.0
 20
0.0
 30
0.0
  3
$MODEL_SPACE
  1

  0
ENDBLK
  5
21
  8
0
  0
BLOCK
 67
     1
  8
0
  2
$PAPER_SPACE
 70
     0
 10
0.0
 20
0.0
 30
0.0
  3
$PAPER_SPACE
  1

  0
ENDBLK
  5
1D
 67
     1
  8
0
  0
ENDSEC
  0
SECTION
  2
ENTITIES
  0
LINE
  5
2F
  8
2
 10
137.73666081704499
 20
55.352500231887049
 30
0.0
 11
137.19516081704501
 21
54.811000231887043
 31
0.0
  0
LINE
  5
30
  8
2
 10
143.19516081704501
 20
54.811000231887043
 30
0.0
 11
142.65366081704499
 21
55.352500231887042
 31
0.0
  0
LINE
  5
31
  8
2
 10
137.73666081704499
 20
64.411000231887044
 30
0.0
 11
137.73666081704499
 21
55.352500231887049
 31
0.0
  0
LINE
  5
32
  8
2
 10
142.65366081704499
 20
55.352500231887042
 30
0.0
 11
142.65366081704499
 21
64.411000231887044
 31
0.0
  0
LINE
  5
33
  8
2
 10
140.19516081704501
 20
65.830415868689741
 30
0.0
 11
137.73666081704499
 21
64.411000231887044
 31
0.0
  0
LINE
  5
34
  8
2
 10
142.65366081704499
 20
64.411000231887044
 30
0.0
 11
140.19516081704501
 21
65.830415868689741
 31
0.0
  0
LINE
  5
40
  8
2
 10
142.65366081704499
 20
55.352500231887042
 30
0.0
 11
137.73666081704499
 21
55.352500231887049
 31
0.0
  0
LINE
  5
41
  8
2
 10
142.65366081704499
 20
64.411000231887044
 30
0.0
 11
137.73666081704499
 21
64.411000231887044
 31
0.0
  0
LINE
  5
7E
  8
2
 10
143.19516081704501
 20
54.811000231887043
 30
0.0
 11
143.19516081704501
 21
62.811000231887043
 31
0.0
  0
LINE
  5
7F
  8
2
 10
142.65366081704499
 20
63.561000231887043
 30
0.0
 11
143.19516081704501
 21
62.811000231887043
 31
0.0
  0
LINE
  5
80
  8
2
 10
143.19516081704501
 20
62.811000231887043
 30
0.0
 11
137.19516081704501
 21
62.811000231887043
 31
0.0
  0
LINE
  5
81
  8
2
 10
137.19516081704501
 20
54.811000231887043
 30
0.0
 11
137.19516081704501
 21
62.811000231887043
 31
0.0
  0
LINE
  5
82
  8
2
 10
137.73666081704499
 20
63.561000231887043
 30
0.0
 11
137.19516081704501
 21
62.811000231887043
 31
0.0
  0
ARC
  5
159
  8
0
 10
140.19516081704501
 20
116.18198001380451
 30
0.0
 40
15.999999999999959
 50
171.08116448635229
 51
188.91883551364759
  0
ARC
  5
15A
  8
0
 10
140.19516081704509
 20
116.18198001380451
 30
0.0
 40
15.999999999999851
 50
351.08116448635229
 51
8.9188355136476307
  0
ARC
  5
15B
  8
0
 10
150.3451608170449
 20
122.8319800138048
 30
0.0
 40
9.8600000000003298
 50
276.11306888818388
 51
288.31117462385981
  0
ARC
  5
15C
  8
0
 10
152.44516081704501
 20
122.8319800138044
 30
0.0
 40
9.8599999999999621
 50
243.11262034612989
 51
263.88693111181618
  0
ARC
  5
15D
  8
0
 10
150.3451608170451
 20
109.5319800138046
 30
0.0
 40
9.8599999999998342
 50
71.688825376140201
 51
83.886931111816182
  0
ARC
  5
15E
  8
0
 10
152.44516081704501
 20
109.5319800138045
 30
0.0
 40
9.8599999999999852
 50
96.113068888183832
 51
116.8872353297065
  0
ARC
  5
15F
  8
0
 10
130.045160817045
 20
109.5319800138041
 30
0.0
 40
9.8600000000003565
 50
96.113068888183918
 51
108.3111746238598
  0
ARC
  5
160
  8
0
 10
127.94516081704499
 20
109.5319800138045
 30
0.0
 40
9.8599999999999763
 50
63.112620346129887
 51
83.886931111816182
  0
ARC
  5
161
  8
0
 10
130.045160817045
 20
122.8319800138045
 30
0.0
 40
9.8600000000000811
 50
251.68882537614019
 51
263.88693111181612
  0
ARC
  5
162
  8
0
 10
127.94516081704499
 20
122.8319800138043
 30
0.0
 40
9.8599999999999444
 50
276.11306888818382
 51
296.88723532970653
  0
POLYLINE
  5
163
  8
0
 66
     1
 10
0.0
 20
0.0
 30
0.0
  0
VERTEX
  5
2EA
  8
0
 10
145.02287619094511
 20
119.7447267447142
 30
0.0
  0
VERTEX
  5
2EB
  8
0
 10
144.99191009163599
 20
119.7863102423921
 30
0.0
  0
VERTEX
  5
2EC
  8
0
 10
144.9290722069521
 20
119.8684529829862
 30
0.0
  0
VERTEX
  5
2ED
  8
0
 10
144.8650691004766
 20
119.949201353776
 30
0.0
  0
VERTEX
  5
2EE
  8
0
 10
144.83264698487091
 20
119.98904214138039
 30
0.0
  0
VERTEX
  5
2EF
  8
0
 10
144.7999535043208
 20
120.0285218772464
 30
0.0
  0
VERTEX
  5
2F0
  8
0
 10
144.73378024835819
 20
120.1063823450782
 30
0.0
  0
VERTEX
  5
2F1
  8
0
 10
144.6666061667996
 20
120.18275199982889
 30
0.0
  0
VERTEX
  5
2F2
  8
0
 10
144.5984899928298
 20
120.2576017049924
 30
0.0
  0
VERTEX
  5
2F3
  8
0
 10
144.52949224100911
 20
120.3309041041244
 30
0.0
  0
VERTEX
  5
2F4
  8
0
 10
144.45967507692171
 20
120.40263376971819
 30
0.0
  0
VERTEX
  5
2F5
  8
0
 10
144.42446351161709
 20
120.43791689276379
 30
0.0
  0
VERTEX
  5
2F6
  8
0
 10
144.38889375966701
 20
120.47297104222289
 30
0.0
  0
VERTEX
  5
2F7
  8
0
 10
144.31656547621901
 20
120.5424872819257
 30
0.0
  0
VERTEX
  5
2F8
  8
0
 10
144.24267206006849
 20
120.6111619628327
 30
0.0
  0
VERTEX
  5
2F9
  8
0
 10
144.1672392648826
 20
120.67893373874151
 30
0.0
  0
VERTEX
  5
2FA
  8
0
 10
144.09029485822339
 20
120.74574280357049
 30
0.0
  0
VERTEX
  5
2FB
  8
0
 10
144.011868481882
 20
120.8115310288786
 30
0.0
  0
VERTEX
  5
2FC
  8
0
 10
143.97210929408431
 20
120.84402465127739
 30
0.0
  0
VERTEX
  5
2FD
  8
0
 10
143.93199150254509
 20
120.876242088711
 30
0.0
  0
VERTEX
  5
2FE
  8
0
 10
143.85069685208191
 20
120.93982157238401
 30
0.0
  0
VERTEX
  5
2FF
  8
0
 10
143.7680188567285
 20
121.0022170855955
 30
0.0
  0
VERTEX
  5
300
  8
0
 10
143.72617216824639
 20
121.03295505369969
 30
0.0
  0
VERTEX
  5
301
  8
0
 10
143.68399305444879
 20
121.0633783400273
 30
0.0
  0
VERTEX
  5
302
  8
0
 10
143.59865599977931
 20
121.1232572313975
 30
0.0
  0
VERTEX
  5
303
  8
0
 10
143.51204505745511
 20
121.1818079044143
 30
0.0
  0
VERTEX
  5
304
  8
0
 10
143.4682737636868
 20
121.21057143074481
 30
0.0
  0
VERTEX
  5
305
  8
0
 10
143.4241984375027
 20
121.23898664279641
 30
0.0
  0
VERTEX
  5
306
  8
0
 10
143.3351559372889
 20
121.2947513410638
 30
0.0
  0
VERTEX
  5
307
  8
0
 10
143.2449591674893
 20
121.3490613971026
 30
0.0
  0
VERTEX
  5
308
  8
0
 10
143.15365141600671
 20
121.4018778457409
 30
0.0
  0
VERTEX
  5
309
  8
0
 10
143.06127749649769
 20
121.453163484313
 30
0.0
  0
VERTEX
  5
30A
  8
0
 10
142.9678835883262
 20
121.5028829854455
 30
0.0
  0
VERTEX
  5
30B
  8
0
 10
142.92081890153369
 20
121.52714493235111
 30
0.0
  0
VERTEX
  5
30C
  8
0
 10
142.87351706734771
 20
121.5510029972218
 30
0.0
  0
VERTEX
  5
30D
  8
0
 10
142.77822632691641
 20
121.59749223073401
 30
0.0
  0
VERTEX
  5
30E
  8
0
 10
142.6820605884987
 20
121.6423215348765
 30
0.0
  0
VERTEX
  5
30F
  8
0
 10
142.5850697013019
 20
121.6854639580847
 30
0.0
  0
VERTEX
  5
310
  8
0
 10
142.48730380181061
 20
121.72689484970491
 30
0.0
  0
VERTEX
  5
311
  8
0
 10
142.38879650125281
 20
121.7665983969144
 30
0.0
  0
VERTEX
  5
312
  8
0
 10
142.3392763337142
 20
121.7857973423028
 30
0.0
  0
VERTEX
  5
313
  8
0
 10
142.2895871743269
 20
121.80455755741581
 30
0.0
  0
VERTEX
  5
314
  8
0
 10
142.18972851525419
 20
121.8407519386358
 30
0.0
  0
VERTEX
  5
315
  8
0
 10
142.0892746654674
 20
121.8751630188742
 30
0.0
  0
VERTEX
  5
316
  8
0
 10
141.98828103025809
 20
121.9077742732034
 30
0.0
  0
VERTEX
  5
317
  8
0
 10
141.88680408790049
 20
121.9385712833119
 30
0.0
  0
VERTEX
  5
318
  8
0
 10
141.78490119100809
 20
121.967541831242
 30
0.0
  0
VERTEX
  5
319
  8
0
 10
141.7338081206826
 20
121.9813389848467
 30
0.0
  0
VERTEX
  5
31A
  8
0
 10
141.6826303598319
 20
121.9946759768909
 30
0.0
  0
VERTEX
  5
31B
  8
0
 10
141.58005006717531
 20
122.0199661190357
 30
0.0
  0
VERTEX
  5
31C
  8
0
 10
141.47721901457351
 20
122.0434070395508
 30
0.0
  0
VERTEX
  5
31D
  8
0
 10
141.37419589937721
 20
122.0649959303756
 30
0.0
  0
VERTEX
  5
31E
  8
0
 10
141.27103919870601
 20
122.084732397894
 30
0.0
  0
VERTEX
  5
31F
  8
0
 10
141.16780761029349
 20
122.102618342193
 30
0.0
  0
VERTEX
  5
320
  8
0
 10
141.11618240047369
 20
122.11086854732051
 30
0.0
  0
VERTEX
  5
321
  8
0
 10
141.06456102599219
 20
122.1186578117553
 30
0.0
  0
VERTEX
  5
322
  8
0
 10
140.96136052066419
 20
122.1328570932083
 30
0.0
  0
VERTEX
  5
323
  8
0
 10
140.8582681202067
 20
122.14522482720039
 30
0.0
  0
VERTEX
  5
324
  8
0
 10
140.75534656704221
 20
122.1557721030472
 30
0.0
  0
VERTEX
  5
325
  8
0
 10
140.65265908360621
 20
122.16451253240329
 30
0.0
  0
VERTEX
  5
326
  8
0
 10
140.55026913388451
 20
122.17146230222561
 30
0.0
  0
VERTEX
  5
327
  8
0
 10
140.49920557356819
 20
122.1742714608246
 30
0.0
  0
VERTEX
  5
328
  8
0
 10
140.4482401829008
 20
122.17664020722469
 30
0.0
  0
VERTEX
  5
329
  8
0
 10
140.34663545389611
 20
122.1800676619128
 30
0.0
  0
VERTEX
  5
32A
  8
0
 10
140.24551768279889
 20
122.1817686922556
 30
0.0
  0
VERTEX
  5
32B
  8
0
 10
140.19516081704501
 20
122.18198001380441
 30
0.0
  0
VERTEX
  5
32C
  8
0
 10
140.14480395129121
 20
122.1817686922556
 30
0.0
  0
VERTEX
  5
32D
  8
0
 10
140.04368618019379
 20
122.1800676619128
 30
0.0
  0
VERTEX
  5
32E
  8
0
 10
139.94208145118921
 20
122.17664020722469
 30
0.0
  0
VERTEX
  5
32F
  8
0
 10
139.89111606052191
 20
122.1742714608246
 30
0.0
  0
VERTEX
  5
330
  8
0
 10
139.84005250020559
 20
122.17146230222561
 30
0.0
  0
VERTEX
  5
331
  8
0
 10
139.7376625504838
 20
122.16451253240329
 30
0.0
  0
VERTEX
  5
332
  8
0
 10
139.6349750670478
 20
122.1557721030472
 30
0.0
  0
VERTEX
  5
333
  8
0
 10
139.5320535138834
 20
122.14522482720039
 30
0.0
  0
VERTEX
  5
334
  8
0
 10
139.42896111342569
 20
122.1328570932082
 30
0.0
  0
VERTEX
  5
335
  8
0
 10
139.32576060809771
 20
122.1186578117553
 30
0.0
  0
VERTEX
  5
336
  8
0
 10
139.2741392336163
 20
122.11086854732051
 30
0.0
  0
VERTEX
  5
337
  8
0
 10
139.22251402379649
 20
122.102618342193
 30
0.0
  0
VERTEX
  5
338
  8
0
 10
139.11928243538409
 20
122.0847323978939
 30
0.0
  0
VERTEX
  5
339
  8
0
 10
139.01612573471289
 20
122.0649959303756
 30
0.0
  0
VERTEX
  5
33A
  8
0
 10
138.91310261951651
 20
122.0434070395508
 30
0.0
  0
VERTEX
  5
33B
  8
0
 10
138.81027156691479
 20
122.0199661190357
 30
0.0
  0
VERTEX
  5
33C
  8
0
 10
138.70769127425811
 20
121.9946759768909
 30
0.0
  0
VERTEX
  5
33D
  8
0
 10
138.6565135134075
 20
121.9813389848467
 30
0.0
  0
VERTEX
  5
33E
  8
0
 10
138.6054204430819
 20
121.967541831242
 30
0.0
  0
VERTEX
  5
33F
  8
0
 10
138.50351754618961
 20
121.9385712833119
 30
0.0
  0
VERTEX
  5
340
  8
0
 10
138.40204060383201
 20
121.9077742732034
 30
0.0
  0
VERTEX
  5
341
  8
0
 10
138.3010469686227
 20
121.8751630188742
 30
0.0
  0
VERTEX
  5
342
  8
0
 10
138.2005931188358
 20
121.8407519386358
 30
0.0
  0
VERTEX
  5
343
  8
0
 10
138.1007344597632
 20
121.80455755741581
 30
0.0
  0
VERTEX
  5
344
  8
0
 10
138.0510453003759
 20
121.7857973423028
 30
0.0
  0
VERTEX
  5
345
  8
0
 10
138.00152513283709
 20
121.7665983969144
 30
0.0
  0
VERTEX
  5
346
  8
0
 10
137.90301783227949
 20
121.72689484970491
 30
0.0
  0
VERTEX
  5
347
  8
0
 10
137.8052519327882
 20
121.6854639580847
 30
0.0
  0
VERTEX
  5
348
  8
0
 10
137.70826104559131
 20
121.6423215348765
 30
0.0
  0
VERTEX
  5
349
  8
0
 10
137.61209530717369
 20
121.59749223073401
 30
0.0
  0
VERTEX
  5
34A
  8
0
 10
137.51680456674231
 20
121.5510029972218
 30
0.0
  0
VERTEX
  5
34B
  8
0
 10
137.46950273255641
 20
121.52714493235111
 30
0.0
  0
VERTEX
  5
34C
  8
0
 10
137.4224380457639
 20
121.5028829854455
 30
0.0
  0
VERTEX
  5
34D
  8
0
 10
137.32904413759229
 20
121.453163484313
 30
0.0
  0
VERTEX
  5
34E
  8
0
 10
137.2366702180833
 20
121.4018778457409
 30
0.0
  0
VERTEX
  5
34F
  8
0
 10
137.1453624666006
 20
121.3490613971026
 30
0.0
  0
VERTEX
  5
350
  8
0
 10
137.05516569680111
 20
121.2947513410638
 30
0.0
  0
VERTEX
  5
351
  8
0
 10
136.9661231965874
 20
121.23898664279641
 30
0.0
  0
VERTEX
  5
352
  8
0
 10
136.92204787040319
 20
121.21057143074481
 30
0.0
  0
VERTEX
  5
353
  8
0
 10
136.87827657663499
 20
121.1818079044143
 30
0.0
  0
VERTEX
  5
354
  8
0
 10
136.79166563431079
 20
121.1232572313975
 30
0.0
  0
VERTEX
  5
355
  8
0
 10
136.70632857964131
 20
121.0633783400273
 30
0.0
  0
VERTEX
  5
356
  8
0
 10
136.66414946584371
 20
121.03295505369969
 30
0.0
  0
VERTEX
  5
357
  8
0
 10
136.62230277736151
 20
121.0022170855955
 30
0.0
  0
VERTEX
  5
358
  8
0
 10
136.53962478200819
 20
120.93982157238401
 30
0.0
  0
VERTEX
  5
359
  8
0
 10
136.45833013154501
 20
120.876242088711
 30
0.0
  0
VERTEX
  5
35A
  8
0
 10
136.4182123400056
 20
120.84402465127739
 30
0.0
  0
VERTEX
  5
35B
  8
0
 10
136.37845315220801
 20
120.8115310288786
 30
0.0
  0
VERTEX
  5
35C
  8
0
 10
136.30002677586671
 20
120.74574280357049
 30
0.0
  0
VERTEX
  5
35D
  8
0
 10
136.2230823692075
 20
120.67893373874151
 30
0.0
  0
VERTEX
  5
35E
  8
0
 10
136.1476495740215
 20
120.6111619628327
 30
0.0
  0
VERTEX
  5
35F
  8
0
 10
136.073756157871
 20
120.5424872819257
 30
0.0
  0
VERTEX
  5
360
  8
0
 10
136.00142787442309
 20
120.47297104222289
 30
0.0
  0
VERTEX
  5
361
  8
0
 10
135.96585812247301
 20
120.43791689276379
 30
0.0
  0
VERTEX
  5
362
  8
0
 10
135.93064655716839
 20
120.40263376971819
 30
0.0
  0
VERTEX
  5
363
  8
0
 10
135.86082939308079
 20
120.3309041041244
 30
0.0
  0
VERTEX
  5
364
  8
0
 10
135.79183164126019
 20
120.2576017049924
 30
0.0
  0
VERTEX
  5
365
  8
0
 10
135.72371546729039
 20
120.1827519998288
 30
0.0
  0
VERTEX
  5
366
  8
0
 10
135.65654138573191
 20
120.1063823450782
 30
0.0
  0
VERTEX
  5
367
  8
0
 10
135.5903681297693
 20
120.0285218772464
 30
0.0
  0
VERTEX
  5
368
  8
0
 10
135.55767464921911
 20
119.98904214138039
 30
0.0
  0
VERTEX
  5
369
  8
0
 10
135.5252525336135
 20
119.949201353776
 30
0.0
  0
VERTEX
  5
36A
  8
0
 10
135.461249427138
 20
119.8684529829862
 30
0.0
  0
VERTEX
  5
36B
  8
0
 10
135.398411542454
 20
119.7863102423921
 30
0.0
  0
VERTEX
  5
36C
  8
0
 10
135.3674454431449
 20
119.7447267447142
 30
0.0
  0
SEQEND
  5
36D
  8
0
  0
POLYLINE
  5
164
  8
0
 66
     1
 10
0.0
 20
0.0
 30
0.0
  0
VERTEX
  5
36E
  8
0
 10
135.3674454431449
 20
112.6192332828946
 30
0.0
  0
VERTEX
  5
36F
  8
0
 10
135.39841154285941
 20
112.5776497846774
 30
0.0
  0
VERTEX
  5
370
  8
0
 10
135.4612494283773
 20
112.4955070430312
 30
0.0
  0
VERTEX
  5
371
  8
0
 10
135.52525253571611
 20
112.41475867122639
 30
0.0
  0
VERTEX
  5
372
  8
0
 10
135.55767465176379
 20
112.3749178831287
 30
0.0
  0
VERTEX
  5
373
  8
0
 10
135.59036813276259
 20
112.3354381467791
 30
0.0
  0
VERTEX
  5
374
  8
0
 10
135.65654138964061
 20
112.25757767801009
 30
0.0
  0
VERTEX
  5
375
  8
0
 10
135.7237154721374
 20
112.1812080223628
 30
0.0
  0
VERTEX
  5
376
  8
0
 10
135.79183164706581
 20
112.1063583163441
 30
0.0
  0
VERTEX
  5
377
  8
0
 10
135.86082939986269
 20
112.0330559163996
 30
0.0
  0
VERTEX
  5
378
  8
0
 10
135.93064656494161
 20
111.96132625003661
 30
0.0
  0
VERTEX
  5
379
  8
0
 10
135.96585813076609
 20
111.9260431266038
 30
0.0
  0
VERTEX
  5
37A
  8
0
 10
136.00142788327571
 20
111.89098897673399
 30
0.0
  0
VERTEX
  5
37B
  8
0
 10
136.07375616787121
 20
111.8214727362313
 30
0.0
  0
VERTEX
  5
37C
  8
0
 10
136.14764958520661
 20
111.7527980545548
 30
0.0
  0
VERTEX
  5
37D
  8
0
 10
136.22308238161369
 20
111.6850262779092
 30
0.0
  0
VERTEX
  5
37E
  8
0
 10
136.3000267895286
 20
111.6182172123779
 30
0.0
  0
VERTEX
  5
37F
  8
0
 10
136.37845316715899
 20
111.55242898640429
 30
0.0
  0
VERTEX
  5
380
  8
0
 10
136.41821235561309
 20
111.5199353636871
 30
0.0
  0
VERTEX
  5
381
  8
0
 10
136.4583301478167
 20
111.48771792594501
 30
0.0
  0
VERTEX
  5
382
  8
0
 10
136.5396247996307
 20
111.4241384416852
 30
0.0
  0
VERTEX
  5
383
  8
0
 10
136.62230279636341
 20
111.3617429279288
 30
0.0
  0
VERTEX
  5
384
  8
0
 10
136.66414948554541
 20
111.3310049595684
 30
0.0
  0
VERTEX
  5
385
  8
0
 10
136.70632860004929
 20
111.30058167299541
 30
0.0
  0
VERTEX
  5
386
  8
0
 10
136.79166565615029
 20
111.24070278116849
 30
0.0
  0
VERTEX
  5
387
  8
0
 10
136.87827659992979
 20
111.1821521077409
 30
0.0
  0
VERTEX
  5
388
  8
0
 10
136.9220478944338
 20
111.1533885812226
 30
0.0
  0
VERTEX
  5
389
  8
0
 10
136.966123221359
 20
111.1249733689951
 30
0.0
  0
VERTEX
  5
38A
  8
0
 10
137.05516572306939
 20
111.06920867041261
 30
0.0
  0
VERTEX
  5
38B
  8
0
 10
137.14536249438319
 20
111.01489861410801
 30
0.0
  0
VERTEX
  5
38C
  8
0
 10
137.23667024739561
 20
110.9620821652546
 30
0.0
  0
VERTEX
  5
38D
  8
0
 10
137.32904416844761
 20
110.91079652651879
 30
0.0
  0
VERTEX
  5
38E
  8
0
 10
137.422438078173
 20
110.86107702527489
 30
0.0
  0
VERTEX
  5
38F
  8
0
 10
137.469502765746
 20
110.8368150783335
 30
0.0
  0
VERTEX
  5
390
  8
0
 10
137.51680460071429
 20
110.81295701344
 30
0.0
  0
VERTEX
  5
391
  8
0
 10
137.61209534271501
 20
110.76646777992249
 30
0.0
  0
VERTEX
  5
392
  8
0
 10
137.70826108270651
 20
110.7216384758283
 30
0.0
  0
VERTEX
  5
393
  8
0
 10
137.80525197147941
 20
110.67849605272239
 30
0.0
  0
VERTEX
  5
394
  8
0
 10
137.90301787254779
 20
110.63706516125779
 30
0.0
  0
VERTEX
  5
395
  8
0
 10
138.00152517469209
 20
110.5973616142539
 30
0.0
  0
VERTEX
  5
396
  8
0
 10
138.05104534302279
 20
110.5781626689887
 30
0.0
  0
VERTEX
  5
397
  8
0
 10
138.10073450320081
 20
110.5594024540124
 30
0.0
  0
VERTEX
  5
398
  8
0
 10
138.2005931638499
 20
110.5232080731067
 30
0.0
  0
VERTEX
  5
399
  8
0
 10
138.30104701520389
 20
110.4887969932371
 30
0.0
  0
VERTEX
  5
39A
  8
0
 10
138.4020406519688
 20
110.45618573933061
 30
0.0
  0
VERTEX
  5
39B
  8
0
 10
138.50351759586741
 20
110.4253887296986
 30
0.0
  0
VERTEX
  5
39C
  8
0
 10
138.60542049428349
 20
110.39641818229789
 30
0.0
  0
VERTEX
  5
39D
  8
0
 10
138.6565135653637
 20
110.3826210289774
 30
0.0
  0
VERTEX
  5
39E
  8
0
 10
138.70769132696401
 20
110.3692840372306
 30
0.0
  0
VERTEX
  5
39F
  8
0
 10
138.81027162110269
 20
110.3439938957186
 30
0.0
  0
VERTEX
  5
3A0
  8
0
 10
138.91310267516209
 20
110.3205529758869
 30
0.0
  0
VERTEX
  5
3A1
  8
0
 10
139.01612579178931
 20
110.2989640857944
 30
0.0
  0
VERTEX
  5
3A2
  8
0
 10
139.11928249386261
 20
110.2792276190561
 30
0.0
  0
VERTEX
  5
3A3
  8
0
 10
139.22251408364571
 20
110.26134167558391
 30
0.0
  0
VERTEX
  5
3A4
  8
0
 10
139.27413929413791
 20
110.2530914708867
 30
0.0
  0
VERTEX
  5
3A5
  8
0
 10
139.32576066928269
 20
110.2453022068933
 30
0.0
  0
VERTEX
  5
3A6
  8
0
 10
139.42896117590891
 20
110.2311029263556
 30
0.0
  0
VERTEX
  5
3A7
  8
0
 10
139.53205357762391
 20
110.2187351933206
 30
0.0
  0
VERTEX
  5
3A8
  8
0
 10
139.63497513200241
 20
110.2081879184705
 30
0.0
  0
VERTEX
  5
3A9
  8
0
 10
139.7376626166064
 20
110.199447490149
 30
0.0
  0
VERTEX
  5
3AA
  8
0
 10
139.84005256744729
 20
110.19249772139661
 30
0.0
  0
VERTEX
  5
3AB
  8
0
 10
139.89111612830411
 20
110.1896885633451
 30
0.0
  0
VERTEX
  5
3AC
  8
0
 10
139.94208151949911
 20
110.1873198175003
 30
0.0
  0
VERTEX
  5
3AD
  8
0
 10
140.04368624951849
 20
110.1838923639453
 30
0.0
  0
VERTEX
  5
3AE
  8
0
 10
140.1448040215752
 20
110.1821913347633
 30
0.0
  0
VERTEX
  5
3AF
  8
0
 10
140.19516088778741
 20
110.18198001380441
 30
0.0
  0
VERTEX
  5
3B0
  8
0
 10
140.24551775439659
 20
110.1821913359541
 30
0.0
  0
VERTEX
  5
3B1
  8
0
 10
140.3466355271822
 20
110.1838923675468
 30
0.0
  0
VERTEX
  5
3B2
  8
0
 10
140.44824025784271
 20
110.18731982354799
 30
0.0
  0
VERTEX
  5
3B3
  8
0
 10
140.49920564932489
 20
110.18968857062811
 30
0.0
  0
VERTEX
  5
3B4
  8
0
 10
140.55026921044691
 20
110.19249772992249
 30
0.0
  0
VERTEX
  5
3B5
  8
0
 10
140.65265916175099
 20
110.1994475011814
 30
0.0
  0
VERTEX
  5
3B6
  8
0
 10
140.75534664672881
 20
110.20818793203409
 30
0.0
  0
VERTEX
  5
3B7
  8
0
 10
140.85826820139209
 20
110.2187352094363
 30
0.0
  0
VERTEX
  5
3B8
  8
0
 10
140.96136060330321
 20
110.2311029450407
 30
0.0
  0
VERTEX
  5
3B9
  8
0
 10
141.0645611100376
 20
110.24530222816161
 30
0.0
  0
VERTEX
  5
3BA
  8
0
 10
141.11618248520401
 20
110.2530914934508
 30
0.0
  0
VERTEX
  5
3BB
  8
0
 10
141.1678076956963
 20
110.26134169944601
 30
0.0
  0
VERTEX
  5
3BC
  8
0
 10
141.2710392854157
 20
110.2792276455193
 30
0.0
  0
VERTEX
  5
3BD
  8
0
 10
141.3741959873422
 20
110.2989641148626
 30
0.0
  0
VERTEX
  5
3BE
  8
0
 10
141.47721910374051
 20
110.3205530075614
 30
0.0
  0
VERTEX
  5
3BF
  8
0
 10
141.58005015748839
 20
110.3439939299972
 30
0.0
  0
VERTEX
  5
3C0
  8
0
 10
141.68263045123319
 20
110.3692840741076
 30
0.0
  0
VERTEX
  5
3C1
  8
0
 10
141.73380821260531
 20
110.3826210671504
 30
0.0
  0
VERTEX
  5
3C2
  8
0
 10
141.78490128343691
 20
110.39641822176409
 30
0.0
  0
VERTEX
  5
3C3
  8
0
 10
141.88680418129471
 20
110.42538877174201
 30
0.0
  0
VERTEX
  5
3C4
  8
0
 10
141.9882811245534
 20
110.4561857839354
 30
0.0
  0
VERTEX
  5
3C5
  8
0
 10
142.0892747605983
 20
110.4887970403847
 30
0.0
  0
VERTEX
  5
3C6
  8
0
 10
142.1897286111537
 20
110.5232081227751
 30
0.0
  0
VERTEX
  5
3C7
  8
0
 10
142.2895872709272
 20
110.55940250617689
 30
0.0
  0
VERTEX
  5
3C8
  8
0
 10
142.3392764306391
 20
110.5781627223912
 30
0.0
  0
VERTEX
  5
3C9
  8
0
 10
142.38879659848499
 20
110.5973616688871
 30
0.0
  0
VERTEX
  5
3CA
  8
0
 10
142.48730389960531
 20
110.63706521832999
 30
0.0
  0
VERTEX
  5
3CB
  8
0
 10
142.5850697996153
 20
110.6784961122172
 30
0.0
  0
VERTEX
  5
3CC
  8
0
 10
142.68206068726269
 20
110.7216385377141
 30
0.0
  0
VERTEX
  5
3CD
  8
0
 10
142.77822642605801
 20
110.7664678441629
 30
0.0
  0
VERTEX
  5
3CE
  8
0
 10
142.87351716679299
 20
110.8129570799957
 30
0.0
  0
VERTEX
  5
3CF
  8
0
 10
142.92081900110259
 20
110.8368151460309
 30
0.0
  0
VERTEX
  5
3D0
  8
0
 10
142.9678836879998
 20
110.86107709410319
 30
0.0
  0
VERTEX
  5
3D1
  8
0
 10
143.06127759632349
 20
110.9107965975743
 30
0.0
  0
VERTEX
  5
3D2
  8
0
 10
143.1536515159076
 20
110.962082238489
 30
0.0
  0
VERTEX
  5
3D3
  8
0
 10
143.2449592673882
 20
111.0148986894702
 30
0.0
  0
VERTEX
  5
3D4
  8
0
 10
143.33515603710839
 20
111.069208747849
 30
0.0
  0
VERTEX
  5
3D5
  8
0
 10
143.42419853716521
 20
111.12497344844969
 30
0.0
  0
VERTEX
  5
3D6
  8
0
 10
143.4682738632421
 20
111.15338866166471
 30
0.0
  0
VERTEX
  5
3D7
  8
0
 10
143.51204515688369
 20
111.1821521891556
 30
0.0
  0
VERTEX
  5
3D8
  8
0
 10
143.59865609889749
 20
111.2407028644829
 30
0.0
  0
VERTEX
  5
3D9
  8
0
 10
143.68399315318001
 20
111.30058175814661
 30
0.0
  0
VERTEX
  5
3DA
  8
0
 10
143.7261722667551
 20
111.3310050456134
 30
0.0
  0
VERTEX
  5
3DB
  8
0
 10
143.7680189549954
 20
111.3617430148508
 30
0.0
  0
VERTEX
  5
3DC
  8
0
 10
143.85069694980669
 20
111.4241385303087
 30
0.0
  0
VERTEX
  5
3DD
  8
0
 10
143.9319915996501
 20
111.4877180161977
 30
0.0
  0
VERTEX
  5
3DE
  8
0
 10
143.97210939085051
 20
111.51993545472639
 30
0.0
  0
VERTEX
  5
3DF
  8
0
 10
144.01186857828989
 20
111.55242907821111
 30
0.0
  0
VERTEX
  5
3E0
  8
0
 10
144.0902949538571
 20
111.61821730566091
 30
0.0
  0
VERTEX
  5
3E1
  8
0
 10
144.1672393596659
 20
111.6850263725879
 30
0.0
  0
VERTEX
  5
3E2
  8
0
 10
144.24267215392649
 20
111.7527981505461
 30
0.0
  0
VERTEX
  5
3E3
  8
0
 10
144.31656556907771
 20
111.82147283345
 30
0.0
  0
VERTEX
  5
3E4
  8
0
 10
144.38889385145421
 20
111.8909890750928
 30
0.0
  0
VERTEX
  5
3E5
  8
0
 10
144.42446360284211
 20
111.9260432254993
 30
0.0
  0
VERTEX
  5
3E6
  8
0
 10
144.4596751679145
 20
111.96132634982909
 30
0.0
  0
VERTEX
  5
3E7
  8
0
 10
144.52949233188511
 20
112.03305601842141
 30
0.0
  0
VERTEX
  5
3E8
  8
0
 10
144.5984900834849
 20
112.1063584205608
 30
0.0
  0
VERTEX
  5
3E9
  8
0
 10
144.6666062571299
 20
112.1812081287373
 30
0.0
  0
VERTEX
  5
3EA
  8
0
 10
144.73378033825969
 20
112.25757778650301
 30
0.0
  0
VERTEX
  5
3EB
  8
0
 10
144.79995359368979
 20
112.3354382573484
 30
0.0
  0
VERTEX
  5
3EC
  8
0
 10
144.83264707393491
 20
112.3749179947196
 30
0.0
  0
VERTEX
  5
3ED
  8
0
 10
144.86506918920961
 20
112.41475878382769
 30
0.0
  0
VERTEX
  5
3EE
  8
0
 10
144.9290722949462
 20
112.49550715761841
 30
0.0
  0
VERTEX
  5
3EF
  8
0
 10
144.99191017878891
 20
112.57764990120231
 30
0.0
  0
VERTEX
  5
3F0
  8
0
 10
145.02287627763931
 20
112.61923340036989
 30
0.0
  0
SEQEND
  5
3F1
  8
0
  0
POLYLINE
  5
165
  8
0
 66
     1
 10
0.0
 20
0.0
 30
0.0
  0
VERTEX
  5
3F2
  8
0
 10
148.20489311382369
 20
114.0217909903195
 30
0.0
  0
VERTEX
  5
3F3
  8
0
 10
148.25497811394021
 20
114.01652684468409
 30
0.0
  0
VERTEX
  5
3F4
  8
0
 10
148.3550032078343
 20
114.0060137836829
 30
0.0
  0
VERTEX
  5
3F5
  8
0
 10
148.45483309973551
 20
113.9955212392379
 30
0.0
  0
VERTEX
  5
3F6
  8
0
 10
148.5046740984555
 20
113.9902827391827
 30
0.0
  0
SEQEND
  5
3F7
  8
0
  0
POLYLINE
  5
166
  8
0
 66
     1
 10
0.0
 20
0.0
 30
0.0
  0
VERTEX
  5
3F8
  8
0
 10
148.5046740984555
 20
113.9902827391827
 30
0.0
  0
VERTEX
  5
3F9
  8
0
 10
148.5545916701368
 20
113.9850361909848
 30
0.0
  0
VERTEX
  5
3FA
  8
0
 10
148.65505947055681
 20
113.9744765996528
 30
0.0
  0
VERTEX
  5
3FB
  8
0
 10
148.7563320104494
 20
113.963832426794
 30
0.0
  0
VERTEX
  5
3FC
  8
0
 10
148.80725541914441
 20
113.9584801608659
 30
0.0
  0
VERTEX
  5
3FD
  8
0
 10
148.8583624017661
 20
113.9531086005408
 30
0.0
  0
VERTEX
  5
3FE
  8
0
 10
148.9611034055815
 20
113.9423100859044
 30
0.0
  0
VERTEX
  5
3FF
  8
0
 10
149.06450745396461
 20
113.9314418824757
 30
0.0
  0
VERTEX
  5
400
  8
0
 10
149.16852667200251
 20
113.92050902211081
 30
0.0
  0
VERTEX
  5
401
  8
0
 10
149.27311289996521
 20
113.9095165666014
 30
0.0
  0
VERTEX
  5
402
  8
0
 10
149.37821771560399
 20
113.8984696053311
 30
0.0
  0
VERTEX
  5
403
  8
0
 10
149.43094939558119
 20
113.89292728243269
 30
0.0
  0
VERTEX
  5
404
  8
0
 10
149.4837924565694
 20
113.88737325291849
 30
0.0
  0
VERTEX
  5
405
  8
0
 10
149.58978824294201
 20
113.8762326468504
 30
0.0
  0
VERTEX
  5
406
  8
0
 10
149.69615599986329
 20
113.86505294510231
 30
0.0
  0
VERTEX
  5
407
  8
0
 10
149.80284648025631
 20
113.85383932375041
 30
0.0
  0
VERTEX
  5
408
  8
0
 10
149.9098102876269
 20
113.8425969745757
 30
0.0
  0
VERTEX
  5
409
  8
0
 10
150.01699789893331
 20
113.83133110265941
 30
0.0
  0
VERTEX
  5
40A
  8
0
 10
150.07066012615081
 20
113.82569097530499
 30
0.0
  0
VERTEX
  5
40B
  8
0
 10
150.12435968751549
 20
113.82004692397361
 30
0.0
  0
VERTEX
  5
40C
  8
0
 10
150.23184594607099
 20
113.8087496629666
 30
0.0
  0
VERTEX
  5
40D
  8
0
 10
150.33940690966921
 20
113.7974445501432
 30
0.0
  0
VERTEX
  5
40E
  8
0
 10
150.39319984423059
 20
113.7917906848934
 30
0.0
  0
SEQEND
  5
40F
  8
0
  0
LINE
  5
167
  8
0
 10
150.39319984423059
 20
113.7917906848934
 30
0.0
 11
150.91986656636169
 21
113.7364357818239
 31
0.0
  0
POLYLINE
  5
168
  8
0
 66
     1
 10
0.0
 20
0.0
 30
0.0
  0
VERTEX
  5
410
  8
0
 10
150.91986656636169
 20
113.7364357818239
 30
0.0
  0
VERTEX
  5
411
  8
0
 10
151.0504551554221
 20
113.7227103680363
 30
0.0
  0
VERTEX
  5
412
  8
0
 10
151.3192990927306
 20
113.69445373159969
 30
0.0
  0
VERTEX
  5
413
  8
0
 10
151.5944943252602
 20
113.6655295471359
 30
0.0
  0
VERTEX
  5
414
  8
0
 10
151.73302495781269
 20
113.6509693909406
 30
0.0
  0
VERTEX
  5
415
  8
0
 10
151.8714257538212
 20
113.63642288111591
 30
0.0
  0
VERTEX
  5
416
  8
0
 10
152.1456976918742
 20
113.60759573881209
 30
0.0
  0
VERTEX
  5
417
  8
0
 10
152.41309486660299
 20
113.57949116325
 30
0.0
  0
VERTEX
  5
418
  8
0
 10
152.66948613385091
 20
113.55254335517709
 30
0.0
  0
VERTEX
  5
419
  8
0
 10
152.91222831272759
 20
113.5270301240996
 30
0.0
  0
VERTEX
  5
41A
  8
0
 10
153.1548322668246
 20
113.5015314210318
 30
0.0
  0
VERTEX
  5
41B
  8
0
 10
153.276737552925
 20
113.48871865916129
 30
0.0
  0
VERTEX
  5
41C
  8
0
 10
153.39826031211641
 20
113.4759461024891
 30
0.0
  0
VERTEX
  5
41D
  8
0
 10
153.6379542217926
 20
113.4507532574148
 30
0.0
  0
VERTEX
  5
41E
  8
0
 10
153.86985227550861
 20
113.42637978981929
 30
0.0
  0
VERTEX
  5
41F
  8
0
 10
154.09040513250051
 20
113.4031987504496
 30
0.0
  0
VERTEX
  5
420
  8
0
 10
154.2964603927777
 20
113.38154146989569
 30
0.0
  0
VERTEX
  5
421
  8
0
 10
154.48565804117561
 20
113.3616559957467
 30
0.0
  0
VERTEX
  5
422
  8
0
 10
154.57685212549319
 20
113.35207111125381
 30
0.0
  0
VERTEX
  5
423
  8
0
 10
154.6672878143446
 20
113.3425659373364
 30
0.0
  0
VERTEX
  5
424
  8
0
 10
154.84377311927881
 20
113.32401658432561
 30
0.0
  0
VERTEX
  5
425
  8
0
 10
155.0112675799131
 20
113.3064122071294
 30
0.0
  0
VERTEX
  5
426
  8
0
 10
155.09063235377741
 20
113.2980706332654
 30
0.0
  0
SEQEND
  5
427
  8
0
  0
POLYLINE
  5
169
  8
0
 66
     1
 10
0.0
 20
0.0
 30
0.0
  0
VERTEX
  5
428
  8
0
 10
155.09063235377741
 20
113.2980706332654
 30
0.0
  0
VERTEX
  5
429
  8
0
 10
155.13879241795419
 20
113.2941824908316
 30
0.0
  0
VERTEX
  5
42A
  8
0
 10
155.23217771631471
 20
113.2932778889088
 30
0.0
  0
VERTEX
  5
42B
  8
0
 10
155.32137519337289
 20
113.30058953911789
 30
0.0
  0
VERTEX
  5
42C
  8
0
 10
155.3642727625458
 20
113.30699567906029
 30
0.0
  0
VERTEX
  5
42D
  8
0
 10
155.40597179591791
 20
113.3150656844055
 30
0.0
  0
VERTEX
  5
42E
  8
0
 10
155.4853085477458
 20
113.3356106613189
 30
0.0
  0
VERTEX
  5
42F
  8
0
 10
155.55889697213399
 20
113.3610905106643
 30
0.0
  0
VERTEX
  5
430
  8
0
 10
155.62673182614259
 20
113.39051356085621
 30
0.0
  0
VERTEX
  5
431
  8
0
 10
155.68881341515851
 20
113.4229333354001
 30
0.0
  0
VERTEX
  5
432
  8
0
 10
155.7451484741228
 20
113.4574197458742
 30
0.0
  0
VERTEX
  5
433
  8
0
 10
155.77116555515951
 20
113.4751461746326
 30
0.0
  0
VERTEX
  5
434
  8
0
 10
155.795752696172
 20
113.4930367802791
 30
0.0
  0
VERTEX
  5
435
  8
0
 10
155.8406523329862
 20
113.5288250883431
 30
0.0
  0
VERTEX
  5
436
  8
0
 10
155.87988428937271
 20
113.563789560443
 30
0.0
  0
VERTEX
  5
437
  8
0
 10
155.91349506743001
 20
113.5968943866757
 30
0.0
  0
VERTEX
  5
438
  8
0
 10
155.94176105626499
 20
113.6273195900613
 30
0.0
  0
VERTEX
  5
439
  8
0
 10
155.96495648676051
 20
113.6543021347789
 30
0.0
  0
VERTEX
  5
43A
  8
0
 10
155.97454479161729
 20
113.6660459460239
 30
0.0
  0
VERTEX
  5
43B
  8
0
 10
155.9827363208523
 20
113.6763743645045
 30
0.0
  0
VERTEX
  5
43C
  8
0
 10
155.99480105489741
 20
113.6921131451344
 30
0.0
  0
VERTEX
  5
43D
  8
0
 10
156.00093280794951
 20
113.7003666437942
 30
0.0
  0
VERTEX
  5
43E
  8
0
 10
156.00170405905121
 20
113.70141742870619
 30
0.0
  0
SEQEND
  5
43F
  8
0
  0
POLYLINE
  5
16A
  8
0
 66
     1
 10
0.0
 20
0.0
 30
0.0
  0
VERTEX
  5
440
  8
0
 10
148.20489311382369
 20
118.34216903728939
 30
0.0
  0
VERTEX
  5
441
  8
0
 10
148.10593015369389
 20
118.3331860043463
 30
0.0
  0
VERTEX
  5
442
  8
0
 10
147.9060880063048
 20
118.3236378681159
 30
0.0
  0
VERTEX
  5
443
  8
0
 10
147.70495235631881
 20
118.3255652475776
 30
0.0
  0
VERTEX
  5
444
  8
0
 10
147.604343294524
 20
118.3308737062661
 30
0.0
  0
VERTEX
  5
445
  8
0
 10
147.503960064908
 20
118.33907272465289
 30
0.0
  0
VERTEX
  5
446
  8
0
 10
147.30466121664321
 20
118.3640311463439
 30
0.0
  0
VERTEX
  5
447
  8
0
 10
147.1086210918964
 20
118.4000608021592
 30
0.0
  0
VERTEX
  5
448
  8
0
 10
146.91737601277339
 20
118.44652872217701
 30
0.0
  0
VERTEX
  5
449
  8
0
 10
146.73244865621879
 20
118.5025366864549
 30
0.0
  0
VERTEX
  5
44A
  8
0
 10
146.55062179630929
 20
118.5687723331562
 30
0.0
  0
VERTEX
  5
44B
  8
0
 10
146.45922774040909
 20
118.60645894804929
 30
0.0
  0
VERTEX
  5
44C
  8
0
 10
146.36784579454331
 20
118.647215871744
 30
0.0
  0
VERTEX
  5
44D
  8
0
 10
146.1860995490776
 20
118.7379063173841
 30
0.0
  0
VERTEX
  5
44E
  8
0
 10
146.0072652364031
 20
118.840616013673
 30
0.0
  0
VERTEX
  5
44F
  8
0
 10
145.83312237551749
 20
118.95484635960629
 30
0.0
  0
VERTEX
  5
450
  8
0
 10
145.6652963673543
 20
119.0798545087586
 30
0.0
  0
VERTEX
  5
451
  8
0
 10
145.50517345059791
 20
119.2147298433605
 30
0.0
  0
VERTEX
  5
452
  8
0
 10
145.42842338880459
 20
119.285494791038
 30
0.0
  0
VERTEX
  5
453
  8
0
 10
145.35408582897929
 20
119.3582471218198
 30
0.0
  0
VERTEX
  5
454
  8
0
 10
145.21317622882739
 20
119.5089470298075
 30
0.0
  0
VERTEX
  5
455
  8
0
 10
145.08337638417561
 20
119.66514980338459
 30
0.0
  0
VERTEX
  5
456
  8
0
 10
145.02287619094511
 20
119.7447267447142
 30
0.0
  0
SEQEND
  5
457
  8
0
  0
POLYLINE
  5
16B
  8
0
 66
     1
 10
0.0
 20
0.0
 30
0.0
  0
VERTEX
  5
458
  8
0
 10
132.18542852026641
 20
118.34216903728939
 30
0.0
  0
VERTEX
  5
459
  8
0
 10
132.13534352014989
 20
118.3474331829248
 30
0.0
  0
VERTEX
  5
45A
  8
0
 10
132.0353184262558
 20
118.35794624392589
 30
0.0
  0
VERTEX
  5
45B
  8
0
 10
131.9354885343545
 20
118.3684387883709
 30
0.0
  0
VERTEX
  5
45C
  8
0
 10
131.8856475356346
 20
118.37367728842619
 30
0.0
  0
SEQEND
  5
45D
  8
0
  0
POLYLINE
  5
16C
  8
0
 66
     1
 10
0.0
 20
0.0
 30
0.0
  0
VERTEX
  5
45E
  8
0
 10
131.8856475356346
 20
118.37367728842619
 30
0.0
  0
VERTEX
  5
45F
  8
0
 10
131.8357299639533
 20
118.3789238366241
 30
0.0
  0
VERTEX
  5
460
  8
0
 10
131.73526216353329
 20
118.38948342795609
 30
0.0
  0
VERTEX
  5
461
  8
0
 10
131.6339896236407
 20
118.4001276008149
 30
0.0
  0
VERTEX
  5
462
  8
0
 10
131.58306621494569
 20
118.40547986674299
 30
0.0
  0
VERTEX
  5
463
  8
0
 10
131.53195923232391
 20
118.4108514270682
 30
0.0
  0
VERTEX
  5
464
  8
0
 10
131.4292182285086
 20
118.4216499417045
 30
0.0
  0
VERTEX
  5
465
  8
0
 10
131.32581418012541
 20
118.4325181451332
 30
0.0
  0
VERTEX
  5
466
  8
0
 10
131.22179496208761
 20
118.44345100549801
 30
0.0
  0
VERTEX
  5
467
  8
0
 10
131.1172087341248
 20
118.4544434610074
 30
0.0
  0
VERTEX
  5
468
  8
0
 10
131.0121039184861
 20
118.4654904222778
 30
0.0
  0
VERTEX
  5
469
  8
0
 10
130.95937223850891
 20
118.4710327451762
 30
0.0
  0
VERTEX
  5
46A
  8
0
 10
130.9065291775207
 20
118.4765867746904
 30
0.0
  0
VERTEX
  5
46B
  8
0
 10
130.80053339114801
 20
118.4877273807585
 30
0.0
  0
VERTEX
  5
46C
  8
0
 10
130.69416563422669
 20
118.49890708250661
 30
0.0
  0
VERTEX
  5
46D
  8
0
 10
130.58747515383371
 20
118.5101207038585
 30
0.0
  0
VERTEX
  5
46E
  8
0
 10
130.4805113464632
 20
118.5213630530332
 30
0.0
  0
VERTEX
  5
46F
  8
0
 10
130.3733237351567
 20
118.53262892494951
 30
0.0
  0
VERTEX
  5
470
  8
0
 10
130.3196615079392
 20
118.5382690523039
 30
0.0
  0
VERTEX
  5
471
  8
0
 10
130.26596194657449
 20
118.5439131036353
 30
0.0
  0
VERTEX
  5
472
  8
0
 10
130.158475688019
 20
118.55521036464231
 30
0.0
  0
VERTEX
  5
473
  8
0
 10
130.05091472442081
 20
118.5665154774657
 30
0.0
  0
VERTEX
  5
474
  8
0
 10
129.99712178985939
 20
118.5721693427154
 30
0.0
  0
SEQEND
  5
475
  8
0
  0
LINE
  5
16D
  8
0
 10
129.99712178985939
 20
118.5721693427154
 30
0.0
 11
129.47045506772841
 21
118.627524245785
 31
0.0
  0
POLYLINE
  5
16E
  8
0
 66
     1
 10
0.0
 20
0.0
 30
0.0
  0
VERTEX
  5
476
  8
0
 10
129.47045506772841
 20
118.627524245785
 30
0.0
  0
VERTEX
  5
477
  8
0
 10
129.339866478668
 20
118.64124965957259
 30
0.0
  0
VERTEX
  5
478
  8
0
 10
129.07102254135941
 20
118.6695062960092
 30
0.0
  0
VERTEX
  5
479
  8
0
 10
128.7958273088299
 20
118.69843048047289
 30
0.0
  0
VERTEX
  5
47A
  8
0
 10
128.65729667627741
 20
118.71299063666829
 30
0.0
  0
VERTEX
  5
47B
  8
0
 10
128.5188958802689
 20
118.72753714649291
 30
0.0
  0
VERTEX
  5
47C
  8
0
 10
128.24462394221581
 20
118.7563642887968
 30
0.0
  0
VERTEX
  5
47D
  8
0
 10
127.9772267674869
 20
118.7844688643589
 30
0.0
  0
VERTEX
  5
47E
  8
0
 10
127.7208355002391
 20
118.8114166724318
 30
0.0
  0
VERTEX
  5
47F
  8
0
 10
127.47809332136239
 20
118.8369299035093
 30
0.0
  0
VERTEX
  5
480
  8
0
 10
127.2354893672654
 20
118.8624286065771
 30
0.0
  0
VERTEX
  5
481
  8
0
 10
127.113584081165
 20
118.8752413684476
 30
0.0
  0
VERTEX
  5
482
  8
0
 10
126.99206132197359
 20
118.88801392511979
 30
0.0
  0
VERTEX
  5
483
  8
0
 10
126.7523674122975
 20
118.91320677019409
 30
0.0
  0
VERTEX
  5
484
  8
0
 10
126.52046935858149
 20
118.9375802377895
 30
0.0
  0
VERTEX
  5
485
  8
0
 10
126.29991650158949
 20
118.96076127715931
 30
0.0
  0
VERTEX
  5
486
  8
0
 10
126.0938612413123
 20
118.9824185577132
 30
0.0
  0
VERTEX
  5
487
  8
0
 10
125.9046635929144
 20
119.0023040318621
 30
0.0
  0
VERTEX
  5
488
  8
0
 10
125.8134695085969
 20
119.0118889163551
 30
0.0
  0
VERTEX
  5
489
  8
0
 10
125.7230338197455
 20
119.02139409027249
 30
0.0
  0
VERTEX
  5
48A
  8
0
 10
125.54654851481131
 20
119.03994344328321
 30
0.0
  0
VERTEX
  5
48B
  8
0
 10
125.3790540541769
 20
119.0575478204795
 30
0.0
  0
VERTEX
  5
48C
  8
0
 10
125.29968928031271
 20
119.0658893943435
 30
0.0
  0
SEQEND
  5
48D
  8
0
  0
POLYLINE
  5
16F
  8
0
 66
     1
 10
0.0
 20
0.0
 30
0.0
  0
VERTEX
  5
48E
  8
0
 10
125.29968928031271
 20
113.2980706332654
 30
0.0
  0
VERTEX
  5
48F
  8
0
 10
125.3790540541786
 20
113.3064122071296
 30
0.0
  0
VERTEX
  5
490
  8
0
 10
125.546548514813
 20
113.3240165843258
 30
0.0
  0
VERTEX
  5
491
  8
0
 10
125.7230338197472
 20
113.3425659373365
 30
0.0
  0
VERTEX
  5
492
  8
0
 10
125.8134695085985
 20
113.35207111125391
 30
0.0
  0
VERTEX
  5
493
  8
0
 10
125.90466359291609
 20
113.361655995747
 30
0.0
  0
VERTEX
  5
494
  8
0
 10
126.093861241314
 20
113.38154146989579
 30
0.0
  0
VERTEX
  5
495
  8
0
 10
126.2999165015911
 20
113.4031987504497
 30
0.0
  0
VERTEX
  5
496
  8
0
 10
126.5204693585831
 20
113.42637978981961
 30
0.0
  0
VERTEX
  5
497
  8
0
 10
126.75236741229899
 20
113.450753257415
 30
0.0
  0
VERTEX
  5
498
  8
0
 10
126.992061321975
 20
113.4759461024893
 30
0.0
  0
VERTEX
  5
499
  8
0
 10
127.11358408116629
 20
113.48871865916151
 30
0.0
  0
VERTEX
  5
49A
  8
0
 10
127.23548936726669
 20
113.5015314210319
 30
0.0
  0
VERTEX
  5
49B
  8
0
 10
127.4780933213635
 20
113.5270301240997
 30
0.0
  0
VERTEX
  5
49C
  8
0
 10
127.7208355002401
 20
113.55254335517721
 30
0.0
  0
VERTEX
  5
49D
  8
0
 10
127.97722676748791
 20
113.5794911632501
 30
0.0
  0
VERTEX
  5
49E
  8
0
 10
128.24462394221649
 20
113.60759573881209
 30
0.0
  0
VERTEX
  5
49F
  8
0
 10
128.5188958802695
 20
113.6364228811161
 30
0.0
  0
VERTEX
  5
4A0
  8
0
 10
128.65729667627789
 20
113.6509693909407
 30
0.0
  0
VERTEX
  5
4A1
  8
0
 10
128.79582730883021
 20
113.6655295471359
 30
0.0
  0
VERTEX
  5
4A2
  8
0
 10
129.07102254135961
 20
113.69445373159969
 30
0.0
  0
VERTEX
  5
4A3
  8
0
 10
129.33986647866811
 20
113.7227103680363
 30
0.0
  0
VERTEX
  5
4A4
  8
0
 10
129.47045506772841
 20
113.7364357818239
 30
0.0
  0
SEQEND
  5
4A5
  8
0
  0
LINE
  5
170
  8
0
 10
129.47045506772841
 20
113.7364357818239
 30
0.0
 11
129.99712178985939
 21
113.7917906848934
 31
0.0
  0
POLYLINE
  5
171
  8
0
 66
     1
 10
0.0
 20
0.0
 30
0.0
  0
VERTEX
  5
4A6
  8
0
 10
129.99712178985939
 20
113.7917906848934
 30
0.0
  0
VERTEX
  5
4A7
  8
0
 10
130.05091472442081
 20
113.7974445501432
 30
0.0
  0
VERTEX
  5
4A8
  8
0
 10
130.158475688019
 20
113.8087496629666
 30
0.0
  0
VERTEX
  5
4A9
  8
0
 10
130.26596194657449
 20
113.82004692397361
 30
0.0
  0
VERTEX
  5
4AA
  8
0
 10
130.3196615079392
 20
113.82569097530499
 30
0.0
  0
VERTEX
  5
4AB
  8
0
 10
130.3733237351567
 20
113.83133110265941
 30
0.0
  0
VERTEX
  5
4AC
  8
0
 10
130.4805113464632
 20
113.8425969745757
 30
0.0
  0
VERTEX
  5
4AD
  8
0
 10
130.58747515383371
 20
113.85383932375041
 30
0.0
  0
VERTEX
  5
4AE
  8
0
 10
130.69416563422669
 20
113.86505294510231
 30
0.0
  0
VERTEX
  5
4AF
  8
0
 10
130.80053339114801
 20
113.8762326468504
 30
0.0
  0
VERTEX
  5
4B0
  8
0
 10
130.9065291775207
 20
113.88737325291849
 30
0.0
  0
VERTEX
  5
4B1
  8
0
 10
130.95937223850891
 20
113.89292728243269
 30
0.0
  0
VERTEX
  5
4B2
  8
0
 10
131.0121039184861
 20
113.8984696053311
 30
0.0
  0
VERTEX
  5
4B3
  8
0
 10
131.1172087341248
 20
113.9095165666014
 30
0.0
  0
VERTEX
  5
4B4
  8
0
 10
131.22179496208761
 20
113.92050902211081
 30
0.0
  0
VERTEX
  5
4B5
  8
0
 10
131.32581418012541
 20
113.9314418824757
 30
0.0
  0
VERTEX
  5
4B6
  8
0
 10
131.4292182285086
 20
113.9423100859044
 30
0.0
  0
VERTEX
  5
4B7
  8
0
 10
131.53195923232391
 20
113.9531086005407
 30
0.0
  0
VERTEX
  5
4B8
  8
0
 10
131.58306621494569
 20
113.9584801608659
 30
0.0
  0
VERTEX
  5
4B9
  8
0
 10
131.6339896236407
 20
113.963832426794
 30
0.0
  0
VERTEX
  5
4BA
  8
0
 10
131.73526216353329
 20
113.9744765996528
 30
0.0
  0
VERTEX
  5
4BB
  8
0
 10
131.8357299639533
 20
113.9850361909848
 30
0.0
  0
VERTEX
  5
4BC
  8
0
 10
131.8856475356346
 20
113.9902827391827
 30
0.0
  0
SEQEND
  5
4BD
  8
0
  0
POLYLINE
  5
172
  8
0
 66
     1
 10
0.0
 20
0.0
 30
0.0
  0
VERTEX
  5
4BE
  8
0
 10
131.8856475356346
 20
113.9902827391827
 30
0.0
  0
VERTEX
  5
4BF
  8
0
 10
131.9354885343545
 20
113.9955212392379
 30
0.0
  0
VERTEX
  5
4C0
  8
0
 10
132.0353184262558
 20
114.0060137836829
 30
0.0
  0
VERTEX
  5
4C1
  8
0
 10
132.13534352014989
 20
114.01652684468409
 30
0.0
  0
VERTEX
  5
4C2
  8
0
 10
132.18542852026641
 20
114.0217909903195
 30
0.0
  0
SEQEND
  5
4C3
  8
0
  0
POLYLINE
  5
173
  8
0
 66
     1
 10
0.0
 20
0.0
 30
0.0
  0
VERTEX
  5
4C4
  8
0
 10
124.38861757503889
 20
113.70141742870619
 30
0.0
  0
VERTEX
  5
4C5
  8
0
 10
124.3893989021078
 20
113.70035293485709
 30
0.0
  0
VERTEX
  5
4C6
  8
0
 10
124.395608235368
 20
113.6919964337965
 30
0.0
  0
VERTEX
  5
4C7
  8
0
 10
124.407864301711
 20
113.67601796141329
 30
0.0
  0
VERTEX
  5
4C8
  8
0
 10
124.416248549917
 20
113.6654596239655
 30
0.0
  0
VERTEX
  5
4C9
  8
0
 10
124.4261334406268
 20
113.6533766853387
 30
0.0
  0
VERTEX
  5
4CA
  8
0
 10
124.4503694902032
 20
113.625295084115
 30
0.0
  0
VERTEX
  5
4CB
  8
0
 10
124.4805014268391
 20
113.5931199015849
 30
0.0
  0
VERTEX
  5
4CC
  8
0
 10
124.51646690802779
 20
113.5581712749495
 30
0.0
  0
VERTEX
  5
4CD
  8
0
 10
124.5582147999952
 20
113.5216841220351
 30
0.0
  0
VERTEX
  5
4CE
  8
0
 10
124.60569339594571
 20
113.4848003774818
 30
0.0
  0
VERTEX
  5
4CF
  8
0
 10
124.63147576479849
 20
113.4666027212668
 30
0.0
  0
VERTEX
  5
4D0
  8
0
 10
124.6585532991247
 20
113.4487605716
 30
0.0
  0
VERTEX
  5
4D1
  8
0
 10
124.71652324779861
 20
113.41457995622611
 30
0.0
  0
VERTEX
  5
4D2
  8
0
 10
124.7794652559638
 20
113.3830887075877
 30
0.0
  0
VERTEX
  5
4D3
  8
0
 10
124.8472446839571
 20
113.3550668680051
 30
0.0
  0
VERTEX
  5
4D4
  8
0
 10
124.919729281307
 20
113.3312718385822
 30
0.0
  0
VERTEX
  5
4D5
  8
0
 10
124.9967909529837
 20
113.3124652935094
 30
0.0
  0
VERTEX
  5
4D6
  8
0
 10
125.0370024286411
 20
113.3051787733226
 30
0.0
  0
VERTEX
  5
4D7
  8
0
 10
125.0782950873887
 20
113.2994448048625
 30
0.0
  0
VERTEX
  5
4D8
  8
0
 10
125.1639650720265
 20
113.2930792343284
 30
0.0
  0
VERTEX
  5
4D9
  8
0
 10
125.2535537734865
 20
113.2942988530862
 30
0.0
  0
VERTEX
  5
4DA
  8
0
 10
125.29968928031271
 20
113.2980706332654
 30
0.0
  0
SEQEND
  5
4DB
  8
0
  0
POLYLINE
  5
174
  8
0
 66
     1
 10
0.0
 20
0.0
 30
0.0
  0
VERTEX
  5
4DC
  8
0
 10
156.00170405905121
 20
118.6625425989027
 30
0.0
  0
VERTEX
  5
4DD
  8
0
 10
156.00092273198231
 20
118.6636070927518
 30
0.0
  0
VERTEX
  5
4DE
  8
0
 10
155.99471339872201
 20
118.67196359381229
 30
0.0
  0
VERTEX
  5
4DF
  8
0
 10
155.98245733237911
 20
118.6879420661955
 30
0.0
  0
VERTEX
  5
4E0
  8
0
 10
155.97407308417311
 20
118.69850040364329
 30
0.0
  0
VERTEX
  5
4E1
  8
0
 10
155.9641881934634
 20
118.7105833422701
 30
0.0
  0
VERTEX
  5
4E2
  8
0
 10
155.93995214388701
 20
118.7386649434938
 30
0.0
  0
VERTEX
  5
4E3
  8
0
 10
155.9098202072511
 20
118.7708401260239
 30
0.0
  0
VERTEX
  5
4E4
  8
0
 10
155.87385472606229
 20
118.8057887526592
 30
0.0
  0
VERTEX
  5
4E5
  8
0
 10
155.8321068340949
 20
118.8422759055738
 30
0.0
  0
VERTEX
  5
4E6
  8
0
 10
155.78462823814439
 20
118.87915965012699
 30
0.0
  0
VERTEX
  5
4E7
  8
0
 10
155.7588458692916
 20
118.897357306342
 30
0.0
  0
VERTEX
  5
4E8
  8
0
 10
155.73176833496549
 20
118.91519945600891
 30
0.0
  0
VERTEX
  5
4E9
  8
0
 10
155.67379838629159
 20
118.94938007138281
 30
0.0
  0
VERTEX
  5
4EA
  8
0
 10
155.61085637812641
 20
118.98087132002119
 30
0.0
  0
VERTEX
  5
4EB
  8
0
 10
155.54307695013301
 20
119.0088931596038
 30
0.0
  0
VERTEX
  5
4EC
  8
0
 10
155.4705923527832
 20
119.0326881890266
 30
0.0
  0
VERTEX
  5
4ED
  8
0
 10
155.39353068110651
 20
119.05149473409941
 30
0.0
  0
VERTEX
  5
4EE
  8
0
 10
155.353319205449
 20
119.0587812542863
 30
0.0
  0
VERTEX
  5
4EF
  8
0
 10
155.3120265467015
 20
119.06451522274639
 30
0.0
  0
VERTEX
  5
4F0
  8
0
 10
155.22635656206359
 20
119.07088079328039
 30
0.0
  0
VERTEX
  5
4F1
  8
0
 10
155.1367678606035
 20
119.06966117452269
 30
0.0
  0
VERTEX
  5
4F2
  8
0
 10
155.09063235377741
 20
119.0658893943435
 30
0.0
  0
SEQEND
  5
4F3
  8
0
  0
POLYLINE
  5
175
  8
0
 66
     1
 10
0.0
 20
0.0
 30
0.0
  0
VERTEX
  5
4F4
  8
0
 10
125.29968928031271
 20
119.0658893943435
 30
0.0
  0
VERTEX
  5
4F5
  8
0
 10
125.25152921613569
 20
119.06977753677729
 30
0.0
  0
VERTEX
  5
4F6
  8
0
 10
125.15814391777531
 20
119.07068213870011
 30
0.0
  0
VERTEX
  5
4F7
  8
0
 10
125.068946440717
 20
119.063370488491
 30
0.0
  0
VERTEX
  5
4F8
  8
0
 10
125.02604887154401
 20
119.0569643485486
 30
0.0
  0
VERTEX
  5
4F9
  8
0
 10
124.98434983817189
 20
119.0488943432034
 30
0.0
  0
VERTEX
  5
4FA
  8
0
 10
124.905013086344
 20
119.0283493662899
 30
0.0
  0
VERTEX
  5
4FB
  8
0
 10
124.83142466195579
 20
119.0028695169446
 30
0.0
  0
VERTEX
  5
4FC
  8
0
 10
124.7635898079472
 20
118.97344646675261
 30
0.0
  0
VERTEX
  5
4FD
  8
0
 10
124.70150821893129
 20
118.94102669220869
 30
0.0
  0
VERTEX
  5
4FE
  8
0
 10
124.6451731599669
 20
118.90654028173439
 30
0.0
  0
VERTEX
  5
4FF
  8
0
 10
124.6191560789303
 20
118.8888138529762
 30
0.0
  0
VERTEX
  5
500
  8
0
 10
124.5945689379178
 20
118.8709232473296
 30
0.0
  0
VERTEX
  5
501
  8
0
 10
124.54966930110351
 20
118.8351349392655
 30
0.0
  0
VERTEX
  5
502
  8
0
 10
124.5104373447171
 20
118.8001704671657
 30
0.0
  0
VERTEX
  5
503
  8
0
 10
124.4768265666598
 20
118.767065640933
 30
0.0
  0
VERTEX
  5
504
  8
0
 10
124.44856057782479
 20
118.73664043754751
 30
0.0
  0
VERTEX
  5
505
  8
0
 10
124.4253651473294
 20
118.7096578928299
 30
0.0
  0
VERTEX
  5
506
  8
0
 10
124.4157768424726
 20
118.6979140815848
 30
0.0
  0
VERTEX
  5
507
  8
0
 10
124.4075853132376
 20
118.6875856631042
 30
0.0
  0
VERTEX
  5
508
  8
0
 10
124.39552057919261
 20
118.6718468824743
 30
0.0
  0
VERTEX
  5
509
  8
0
 10
124.3893888261406
 20
118.6635933838147
 30
0.0
  0
VERTEX
  5
50A
  8
0
 10
124.38861757503889
 20
118.6625425989027
 30
0.0
  0
SEQEND
  5
50B
  8
0
  0
POLYLINE
  5
176
  8
0
 66
     1
 10
0.0
 20
0.0
 30
0.0
  0
VERTEX
  5
50C
  8
0
 10
145.02287627763931
 20
112.61923340036989
 30
0.0
  0
VERTEX
  5
50D
  8
0
 10
145.08337647274141
 20
112.6988103373268
 30
0.0
  0
VERTEX
  5
50E
  8
0
 10
145.2131763200824
 20
112.8550131013529
 30
0.0
  0
VERTEX
  5
50F
  8
0
 10
145.35408592145899
 20
113.0057129990271
 30
0.0
  0
VERTEX
  5
510
  8
0
 10
145.4284234813415
 20
113.0784653244806
 30
0.0
  0
VERTEX
  5
511
  8
0
 10
145.5051735428199
 20
113.1492302667683
 30
0.0
  0
VERTEX
  5
512
  8
0
 10
145.6652964578401
 20
113.28410559055391
 30
0.0
  0
VERTEX
  5
513
  8
0
 10
145.83312246288619
 20
113.40911372910629
 30
0.0
  0
VERTEX
  5
514
  8
0
 10
146.00726531938449
 20
113.5233440649031
 30
0.0
  0
VERTEX
  5
515
  8
0
 10
146.18609962647949
 20
113.62605375169559
 30
0.0
  0
VERTEX
  5
516
  8
0
 10
146.36784586534571
 20
113.71674418866451
 30
0.0
  0
VERTEX
  5
517
  8
0
 10
146.45922780758571
 20
113.7575011083767
 30
0.0
  0
VERTEX
  5
518
  8
0
 10
146.55062185967489
 20
113.79518771954061
 30
0.0
  0
VERTEX
  5
519
  8
0
 10
146.73244871171411
 20
113.8614233596487
 30
0.0
  0
VERTEX
  5
51A
  8
0
 10
146.9173760627429
 20
113.91743131907199
 30
0.0
  0
VERTEX
  5
51B
  8
0
 10
147.10862113542709
 20
113.9638992347387
 30
0.0
  0
VERTEX
  5
51C
  8
0
 10
147.3046612529991
 20
113.9999288868817
 30
0.0
  0
VERTEX
  5
51D
  8
0
 10
147.50396009353949
 20
114.0248873057097
 30
0.0
  0
VERTEX
  5
51E
  8
0
 10
147.6043433191447
 20
114.03308632299751
 30
0.0
  0
VERTEX
  5
51F
  8
0
 10
147.704952376862
 20
114.0383947808189
 30
0.0
  0
VERTEX
  5
520
  8
0
 10
147.9060880185956
 20
114.0403221592574
 30
0.0
  0
VERTEX
  5
521
  8
0
 10
148.1059301577491
 20
114.0307740229525
 30
0.0
  0
VERTEX
  5
522
  8
0
 10
148.20489311382369
 20
114.0217909903195
 30
0.0
  0
SEQEND
  5
523
  8
0
  0
POLYLINE
  5
177
  8
0
 66
     1
 10
0.0
 20
0.0
 30
0.0
  0
VERTEX
  5
524
  8
0
 10
155.09063235377741
 20
119.0658893943435
 30
0.0
  0
VERTEX
  5
525
  8
0
 10
155.01126757991139
 20
119.0575478204793
 30
0.0
  0
VERTEX
  5
526
  8
0
 10
154.84377311927699
 20
119.03994344328309
 30
0.0
  0
VERTEX
  5
527
  8
0
 10
154.6672878143429
 20
119.0213940902723
 30
0.0
  0
VERTEX
  5
528
  8
0
 10
154.57685212549151
 20
119.01188891635491
 30
0.0
  0
VERTEX
  5
529
  8
0
 10
154.48565804117399
 20
119.0023040318619
 30
0.0
  0
VERTEX
  5
52A
  8
0
 10
154.29646039277611
 20
118.9824185577131
 30
0.0
  0
VERTEX
  5
52B
  8
0
 10
154.090405132499
 20
118.96076127715909
 30
0.0
  0
VERTEX
  5
52C
  8
0
 10
153.86985227550699
 20
118.93758023778931
 30
0.0
  0
VERTEX
  5
52D
  8
0
 10
153.63795422179101
 20
118.9132067701939
 30
0.0
  0
VERTEX
  5
52E
  8
0
 10
153.3982603121151
 20
118.88801392511949
 30
0.0
  0
VERTEX
  5
52F
  8
0
 10
153.27673755292369
 20
118.8752413684474
 30
0.0
  0
VERTEX
  5
530
  8
0
 10
153.15483226682329
 20
118.862428606577
 30
0.0
  0
VERTEX
  5
531
  8
0
 10
152.9122283127266
 20
118.8369299035092
 30
0.0
  0
VERTEX
  5
532
  8
0
 10
152.66948613385
 20
118.8114166724317
 30
0.0
  0
VERTEX
  5
533
  8
0
 10
152.41309486660219
 20
118.7844688643588
 30
0.0
  0
VERTEX
  5
534
  8
0
 10
152.14569769187341
 20
118.7563642887968
 30
0.0
  0
VERTEX
  5
535
  8
0
 10
151.8714257538206
 20
118.72753714649281
 30
0.0
  0
VERTEX
  5
536
  8
0
 10
151.73302495781221
 20
118.7129906366682
 30
0.0
  0
VERTEX
  5
537
  8
0
 10
151.59449432525989
 20
118.69843048047289
 30
0.0
  0
VERTEX
  5
538
  8
0
 10
151.3192990927304
 20
118.6695062960092
 30
0.0
  0
VERTEX
  5
539
  8
0
 10
151.05045515542199
 20
118.64124965957259
 30
0.0
  0
VERTEX
  5
53A
  8
0
 10
150.91986656636169
 20
118.627524245785
 30
0.0
  0
SEQEND
  5
53B
  8
0
  0
LINE
  5
178
  8
0
 10
150.91986656636169
 20
118.627524245785
 30
0.0
 11
150.39319984423059
 21
118.5721693427154
 31
0.0
  0
POLYLINE
  5
179
  8
0
 66
     1
 10
0.0
 20
0.0
 30
0.0
  0
VERTEX
  5
53C
  8
0
 10
150.39319984423059
 20
118.5721693427154
 30
0.0
  0
VERTEX
  5
53D
  8
0
 10
150.33940690966921
 20
118.5665154774657
 30
0.0
  0
VERTEX
  5
53E
  8
0
 10
150.23184594607099
 20
118.55521036464231
 30
0.0
  0
VERTEX
  5
53F
  8
0
 10
150.12435968751549
 20
118.5439131036353
 30
0.0
  0
VERTEX
  5
540
  8
0
 10
150.07066012615081
 20
118.5382690523039
 30
0.0
  0
VERTEX
  5
541
  8
0
 10
150.01699789893331
 20
118.53262892494951
 30
0.0
  0
VERTEX
  5
542
  8
0
 10
149.9098102876269
 20
118.5213630530332
 30
0.0
  0
VERTEX
  5
543
  8
0
 10
149.80284648025631
 20
118.5101207038585
 30
0.0
  0
VERTEX
  5
544
  8
0
 10
149.69615599986329
 20
118.49890708250661
 30
0.0
  0
VERTEX
  5
545
  8
0
 10
149.58978824294201
 20
118.4877273807585
 30
0.0
  0
VERTEX
  5
546
  8
0
 10
149.4837924565694
 20
118.4765867746904
 30
0.0
  0
VERTEX
  5
547
  8
0
 10
149.43094939558119
 20
118.4710327451762
 30
0.0
  0
VERTEX
  5
548
  8
0
 10
149.37821771560399
 20
118.4654904222778
 30
0.0
  0
VERTEX
  5
549
  8
0
 10
149.27311289996521
 20
118.4544434610074
 30
0.0
  0
VERTEX
  5
54A
  8
0
 10
149.16852667200251
 20
118.44345100549801
 30
0.0
  0
VERTEX
  5
54B
  8
0
 10
149.06450745396461
 20
118.4325181451332
 30
0.0
  0
VERTEX
  5
54C
  8
0
 10
148.9611034055815
 20
118.4216499417045
 30
0.0
  0
VERTEX
  5
54D
  8
0
 10
148.8583624017661
 20
118.4108514270682
 30
0.0
  0
VERTEX
  5
54E
  8
0
 10
148.80725541914441
 20
118.40547986674299
 30
0.0
  0
VERTEX
  5
54F
  8
0
 10
148.7563320104494
 20
118.4001276008149
 30
0.0
  0
VERTEX
  5
550
  8
0
 10
148.65505947055681
 20
118.38948342795609
 30
0.0
  0
VERTEX
  5
551
  8
0
 10
148.5545916701368
 20
118.3789238366241
 30
0.0
  0
VERTEX
  5
552
  8
0
 10
148.5046740984555
 20
118.37367728842619
 30
0.0
  0
SEQEND
  5
553
  8
0
  0
POLYLINE
  5
17A
  8
0
 66
     1
 10
0.0
 20
0.0
 30
0.0
  0
VERTEX
  5
554
  8
0
 10
148.5046740984555
 20
118.37367728842619
 30
0.0
  0
VERTEX
  5
555
  8
0
 10
148.45483309973551
 20
118.3684387883709
 30
0.0
  0
VERTEX
  5
556
  8
0
 10
148.3550032078343
 20
118.35794624392589
 30
0.0
  0
VERTEX
  5
557
  8
0
 10
148.25497811394021
 20
118.3474331829248
 30
0.0
  0
VERTEX
  5
558
  8
0
 10
148.20489311382369
 20
118.34216903728939
 30
0.0
  0
SEQEND
  5
559
  8
0
  0
POLYLINE
  5
17B
  8
0
 66
     1
 10
0.0
 20
0.0
 30
0.0
  0
VERTEX
  5
55A
  8
0
 10
135.3674454431449
 20
119.7447267447142
 30
0.0
  0
VERTEX
  5
55B
  8
0
 10
135.30694524991441
 20
119.66514980338459
 30
0.0
  0
VERTEX
  5
55C
  8
0
 10
135.17714540526259
 20
119.5089470298075
 30
0.0
  0
VERTEX
  5
55D
  8
0
 10
135.03623580511069
 20
119.3582471218198
 30
0.0
  0
VERTEX
  5
55E
  8
0
 10
134.96189824528551
 20
119.2854947910382
 30
0.0
  0
VERTEX
  5
55F
  8
0
 10
134.88514818349219
 20
119.2147298433605
 30
0.0
  0
VERTEX
  5
560
  8
0
 10
134.72502526673571
 20
119.0798545087586
 30
0.0
  0
VERTEX
  5
561
  8
0
 10
134.55719925857261
 20
118.95484635960629
 30
0.0
  0
VERTEX
  5
562
  8
0
 10
134.383056397687
 20
118.840616013673
 30
0.0
  0
VERTEX
  5
563
  8
0
 10
134.2042220850125
 20
118.7379063173841
 30
0.0
  0
VERTEX
  5
564
  8
0
 10
134.02247583954679
 20
118.647215871744
 30
0.0
  0
VERTEX
  5
565
  8
0
 10
133.93109389368101
 20
118.60645894804929
 30
0.0
  0
VERTEX
  5
566
  8
0
 10
133.83969983778081
 20
118.5687723331562
 30
0.0
  0
VERTEX
  5
567
  8
0
 10
133.65787297787131
 20
118.5025366864549
 30
0.0
  0
VERTEX
  5
568
  8
0
 10
133.47294562131671
 20
118.44652872217701
 30
0.0
  0
VERTEX
  5
569
  8
0
 10
133.2817005421937
 20
118.4000608021592
 30
0.0
  0
VERTEX
  5
56A
  8
0
 10
133.08566041744689
 20
118.3640311463439
 30
0.0
  0
VERTEX
  5
56B
  8
0
 10
132.88636156918199
 20
118.33907272465289
 30
0.0
  0
VERTEX
  5
56C
  8
0
 10
132.7859783395661
 20
118.3308737062662
 30
0.0
  0
VERTEX
  5
56D
  8
0
 10
132.68536927777129
 20
118.3255652475776
 30
0.0
  0
VERTEX
  5
56E
  8
0
 10
132.48423362778519
 20
118.3236378681159
 30
0.0
  0
VERTEX
  5
56F
  8
0
 10
132.28439148039601
 20
118.3331860043463
 30
0.0
  0
VERTEX
  5
570
  8
0
 10
132.18542852026641
 20
118.34216903728939
 30
0.0
  0
SEQEND
  5
571
  8
0
  0
POLYLINE
  5
17C
  8
0
 66
     1
 10
0.0
 20
0.0
 30
0.0
  0
VERTEX
  5
572
  8
0
 10
132.18542852026641
 20
114.0217909903195
 30
0.0
  0
VERTEX
  5
573
  8
0
 10
132.28439148039601
 20
114.03077402326259
 30
0.0
  0
VERTEX
  5
574
  8
0
 10
132.48423362778519
 20
114.040322159493
 30
0.0
  0
VERTEX
  5
575
  8
0
 10
132.68536927777129
 20
114.0383947800313
 30
0.0
  0
VERTEX
  5
576
  8
0
 10
132.7859783395661
 20
114.03308632134259
 30
0.0
  0
VERTEX
  5
577
  8
0
 10
132.88636156918199
 20
114.024887302956
 30
0.0
  0
VERTEX
  5
578
  8
0
 10
133.08566041744689
 20
113.99992888126501
 30
0.0
  0
VERTEX
  5
579
  8
0
 10
133.2817005421937
 20
113.96389922544969
 30
0.0
  0
VERTEX
  5
57A
  8
0
 10
133.47294562131671
 20
113.9174313054319
 30
0.0
  0
VERTEX
  5
57B
  8
0
 10
133.65787297787131
 20
113.86142334115399
 30
0.0
  0
VERTEX
  5
57C
  8
0
 10
133.83969983778081
 20
113.79518769445259
 30
0.0
  0
VERTEX
  5
57D
  8
0
 10
133.93109389368101
 20
113.7575010795595
 30
0.0
  0
VERTEX
  5
57E
  8
0
 10
134.02247583954679
 20
113.7167441558649
 30
0.0
  0
VERTEX
  5
57F
  8
0
 10
134.2042220850125
 20
113.6260537102248
 30
0.0
  0
VERTEX
  5
580
  8
0
 10
134.383056397687
 20
113.5233440139359
 30
0.0
  0
VERTEX
  5
581
  8
0
 10
134.55719925857261
 20
113.4091136680026
 30
0.0
  0
VERTEX
  5
582
  8
0
 10
134.72502526673571
 20
113.2841055188503
 30
0.0
  0
VERTEX
  5
583
  8
0
 10
134.88514818349219
 20
113.1492301842483
 30
0.0
  0
VERTEX
  5
584
  8
0
 10
134.96189824528551
 20
113.07846523657069
 30
0.0
  0
VERTEX
  5
585
  8
0
 10
135.03623580511069
 20
113.005712905789
 30
0.0
  0
VERTEX
  5
586
  8
0
 10
135.17714540526259
 20
112.8550129978013
 30
0.0
  0
VERTEX
  5
587
  8
0
 10
135.30694524991441
 20
112.6988102242242
 30
0.0
  0
VERTEX
  5
588
  8
0
 10
135.3674454431449
 20
112.6192332828946
 30
0.0
  0
SEQEND
  5
589
  8
0
  0
CIRCLE
  5
17D
  8
0
 10
140.19516081704501
 20
116.18198001380451
 30
0.0
 40
4.5
  0
LINE
  5
17E
  8
1
 10
140.19516081704501
 20
108.1819624038383
 30
0.0
 11
140.19516081704501
 21
124.1819976241661
 31
0.0
  0
LINE
  5
17F
  8
1
 10
158.19516081704501
 20
116.18198001380451
 30
0.0
 11
122.19516081704499
 21
116.18198001380441
 31
0.0
  0
LINE
  5
180
  8
0
 10
135.19516081704501
 20
55.011000231887088
 30
0.0
 11
135.19516081704501
 21
54.81100023188705
 31
0.0
  0
LINE
  5
181
  8
0
 10
145.19516081704501
 20
54.81100023188705
 30
0.0
 11
145.19516081704501
 21
55.011000231887088
 31
0.0
  0
ARC
  5
188
  8
0
 10
129.19516081704501
 20
66.311000231887064
 30
0.0
 40
4.9999999999999956
 50
90.0
 51
244.0107664161666
  0
ARC
  5
189
  8
0
 10
151.19516081704501
 20
66.311000231887064
 30
0.0
 40
4.9999999999999973
 50
295.98923358383342
 51
90.0
  0
LINE
  5
18A
  8
0
 10
127.00414958109
 20
61.816618209415168
 30
0.0
 11
134.19516081704501
 21
58.31100023188705
 31
0.0
  0
LINE
  5
18B
  8
0
 10
146.19516081704501
 20
58.31100023188705
 30
0.0
 11
153.38617205300011
 21
61.816618209415168
 31
0.0
  0
LINE
  5
18C
  8
0
 10
134.19516081704501
 20
58.31100023188705
 30
0.0
 11
134.19516081704501
 21
55.011000231887088
 31
0.0
  0
LINE
  5
18D
  8
0
 10
146.19516081704501
 20
55.011000231887088
 30
0.0
 11
146.19516081704501
 21
58.31100023188705
 31
0.0
  0
ARC
  5
18E
  8
0
 10
140.19516081704501
 20
62.65100023188711
 30
0.0
 40
8.6599999999999593
 50
58.692531574649891
 51
121.30746842535009
  0
LINE
  5
18F
  8
0
 10
135.69516081704501
 20
70.050027194941066
 30
0.0
 11
135.69516081704501
 21
69.776154205818074
 31
0.0
  0
LINE
  5
190
  8
0
 10
144.69516081704501
 20
69.776154205826828
 30
0.0
 11
144.69516081704501
 21
70.050027194941066
 31
0.0
  0
LINE
  5
191
  8
0
 10
145.19516081704501
 20
54.81100023188705
 30
0.0
 11
135.19516081704501
 21
54.81100023188705
 31
0.0
  0
LINE
  5
194
  8
0
 10
129.99712178985939
 20
71.31100023188705
 30
0.0
 11
129.19516081704501
 21
71.31100023188705
 31
0.0
  0
LINE
  5
195
  8
0
 10
151.19516081704501
 20
71.31100023188705
 30
0.0
 11
150.39319984423059
 21
71.31100023188705
 31
0.0
  0
POLYLINE
  5
196
  8
0
 66
     1
 10
0.0
 20
0.0
 30
0.0
  0
VERTEX
  5
58A
  8
0
 10
135.3674454431449
 20
69.847236250035934
 30
0.0
  0
VERTEX
  5
58B
  8
0
 10
135.39841154285941
 20
69.840294691532762
 30
0.0
  0
VERTEX
  5
58C
  8
0
 10
135.4612494283773
 20
69.826352620994243
 30
0.0
  0
VERTEX
  5
58D
  8
0
 10
135.52525253571611
 20
69.812350119752722
 30
0.0
  0
VERTEX
  5
58E
  8
0
 10
135.55767465176379
 20
69.805333023757356
 30
0.0
  0
VERTEX
  5
58F
  8
0
 10
135.59036813276251
 20
69.798308993114091
 30
0.0
  0
VERTEX
  5
590
  8
0
 10
135.65654138964061
 20
69.784250972112844
 30
0.0
  0
VERTEX
  5
591
  8
0
 10
135.7237154721374
 20
69.770197634780715
 30
0.0
  0
VERTEX
  5
592
  8
0
 10
135.79183164706569
 20
69.756170327181025
 30
0.0
  0
VERTEX
  5
593
  8
0
 10
135.86082939986269
 20
69.742190084685461
 30
0.0
  0
VERTEX
  5
594
  8
0
 10
135.93064656494161
 20
69.728277553929928
 30
0.0
  0
VERTEX
  5
595
  8
0
 10
135.96585813076609
 20
69.721349961726759
 30
0.0
  0
VERTEX
  5
596
  8
0
 10
136.00142788327571
 20
69.714412443992927
 30
0.0
  0
VERTEX
  5
597
  8
0
 10
136.07375616787121
 20
69.700492979215568
 30
0.0
  0
VERTEX
  5
598
  8
0
 10
136.14764958520661
 20
69.686531386892483
 30
0.0
  0
VERTEX
  5
599
  8
0
 10
136.22308238161369
 20
69.67254851040795
 30
0.0
  0
VERTEX
  5
59A
  8
0
 10
136.3000267895286
 20
69.658565474851429
 30
0.0
  0
VERTEX
  5
59B
  8
0
 10
136.37845316715899
 20
69.644603606806498
 30
0.0
  0
VERTEX
  5
59C
  8
0
 10
136.41821235561309
 20
69.637637310556983
 30
0.0
  0
VERTEX
  5
59D
  8
0
 10
136.4583301478167
 20
69.630684354356248
 30
0.0
  0
VERTEX
  5
59E
  8
0
 10
136.5396247996307
 20
69.616829207729751
 30
0.0
  0
VERTEX
  5
59F
  8
0
 10
136.6223027963633
 20
69.603059621040273
 30
0.0
  0
VERTEX
  5
5A0
  8
0
 10
136.66414948554541
 20
69.596213588292784
 30
0.0
  0
VERTEX
  5
5A1
  8
0
 10
136.70632860004929
 20
69.589396935591111
 30
0.0
  0
VERTEX
  5
5A2
  8
0
 10
136.79166565615029
 20
69.575862305253935
 30
0.0
  0
VERTEX
  5
5A3
  8
0
 10
136.87827659992971
 20
69.562476624748768
 30
0.0
  0
VERTEX
  5
5A4
  8
0
 10
136.92204789443369
 20
69.555846088653851
 30
0.0
  0
VERTEX
  5
5A5
  8
0
 10
136.966123221359
 20
69.549260498914322
 30
0.0
  0
VERTEX
  5
5A6
  8
0
 10
137.05516572306939
 20
69.536234313287395
 30
0.0
  0
VERTEX
  5
5A7
  8
0
 10
137.14536249438319
 20
69.523418213886742
 30
0.0
  0
VERTEX
  5
5A8
  8
0
 10
137.23667024739561
 20
69.510832031864055
 30
0.0
  0
VERTEX
  5
5A9
  8
0
 10
137.32904416844761
 20
69.49849520938605
 30
0.0
  0
VERTEX
  5
5AA
  8
0
 10
137.422438078173
 20
69.48642672830303
 30
0.0
  0
VERTEX
  5
5AB
  8
0
 10
137.469502765746
 20
69.480498904904465
 30
0.0
  0
VERTEX
  5
5AC
  8
0
 10
137.51680460071429
 20
69.474645042010678
 30
0.0
  0
VERTEX
  5
5AD
  8
0
 10
137.61209534271501
 20
69.463168010924591
 30
0.0
  0
VERTEX
  5
5AE
  8
0
 10
137.70826108270651
 20
69.452012841997629
 30
0.0
  0
VERTEX
  5
5AF
  8
0
 10
137.80525197147921
 20
69.441196032720399
 30
0.0
  0
VERTEX
  5
5B0
  8
0
 10
137.90301787254779
 20
69.430733306595897
 30
0.0
  0
VERTEX
  5
5B1
  8
0
 10
138.00152517469209
 20
69.420637908056023
 30
0.0
  0
VERTEX
  5
5B2
  8
0
 10
138.05104534302271
 20
69.41573204823473
 30
0.0
  0
VERTEX
  5
5B3
  8
0
 10
138.10073450320081
 20
69.410923099240307
 30
0.0
  0
VERTEX
  5
5B4
  8
0
 10
138.2005931638499
 20
69.401602707609271
 30
0.0
  0
VERTEX
  5
5B5
  8
0
 10
138.30104701520389
 20
69.39268978364143
 30
0.0
  0
VERTEX
  5
5B6
  8
0
 10
138.40204065196869
 20
69.384196541572436
 30
0.0
  0
VERTEX
  5
5B7
  8
0
 10
138.50351759586721
 20
69.376134305416343
 30
0.0
  0
VERTEX
  5
5B8
  8
0
 10
138.60542049428349
 20
69.368513460643811
 30
0.0
  0
VERTEX
  5
5B9
  8
0
 10
138.6565135653637
 20
69.364871538313494
 30
0.0
  0
VERTEX
  5
5BA
  8
0
 10
138.7076913269639
 20
69.361343411880142
 30
0.0
  0
VERTEX
  5
5BB
  8
0
 10
138.81027162110269
 20
69.354632546977044
 30
0.0
  0
VERTEX
  5
5BC
  8
0
 10
138.91310267516209
 20
69.348388207794159
 30
0.0
  0
VERTEX
  5
5BD
  8
0
 10
139.01612579178931
 20
69.34261666801919
 30
0.0
  0
VERTEX
  5
5BE
  8
0
 10
139.11928249386261
 20
69.337323119630554
 30
0.0
  0
VERTEX
  5
5BF
  8
0
 10
139.22251408364571
 20
69.332511695775082
 30
0.0
  0
VERTEX
  5
5C0
  8
0
 10
139.27413929413791
 20
69.330287792242615
 30
0.0
  0
VERTEX
  5
5C1
  8
0
 10
139.32576066928269
 20
69.328185503489038
 30
0.0
  0
VERTEX
  5
5C2
  8
0
 10
139.4289611759088
 20
69.32434659587588
 30
0.0
  0
VERTEX
  5
5C3
  8
0
 10
139.53205357762391
 20
69.320995939276571
 30
0.0
  0
VERTEX
  5
5C4
  8
0
 10
139.63497513200241
 20
69.318133388333621
 30
0.0
  0
VERTEX
  5
5C5
  8
0
 10
139.7376626166064
 20
69.315757669082785
 30
0.0
  0
VERTEX
  5
5C6
  8
0
 10
139.84005256744729
 20
69.313866370152567
 30
0.0
  0
VERTEX
  5
5C7
  8
0
 10
139.89111612830411
 20
69.313101313416453
 30
0.0
  0
VERTEX
  5
5C8
  8
0
 10
139.94208151949911
 20
69.312455942112905
 30
0.0
  0
VERTEX
  5
5C9
  8
0
 10
140.04368624951849
 20
69.311521704990213
 30
0.0
  0
VERTEX
  5
5CA
  8
0
 10
140.1448040215752
 20
69.311057863936384
 30
0.0
  0
VERTEX
  5
5CB
  8
0
 10
140.19516088778741
 20
69.311000231887036
 30
0.0
  0
VERTEX
  5
5CC
  8
0
 10
140.24551775439659
 20
69.311057864261187
 30
0.0
  0
VERTEX
  5
5CD
  8
0
 10
140.3466355271822
 20
69.31152170597224
 30
0.0
  0
VERTEX
  5
5CE
  8
0
 10
140.44824025784271
 20
69.312455943760909
 30
0.0
  0
VERTEX
  5
5CF
  8
0
 10
140.49920564932489
 20
69.313101315400417
 30
0.0
  0
VERTEX
  5
5D0
  8
0
 10
140.55026921044691
 20
69.313866372474052
 30
0.0
  0
VERTEX
  5
5D1
  8
0
 10
140.65265916175099
 20
69.315757672083549
 30
0.0
  0
VERTEX
  5
5D2
  8
0
 10
140.75534664672881
 20
69.318133392017756
 30
0.0
  0
VERTEX
  5
5D3
  8
0
 10
140.85826820139209
 20
69.320995943646807
 30
0.0
  0
VERTEX
  5
5D4
  8
0
 10
140.96136060330321
 20
69.324346600933126
 30
0.0
  0
VERTEX
  5
5D5
  8
0
 10
141.0645611100376
 20
69.328185509232839
 30
0.0
  0
VERTEX
  5
5D6
  8
0
 10
141.11618248520401
 20
69.33028779832884
 30
0.0
  0
VERTEX
  5
5D7
  8
0
 10
141.1678076956963
 20
69.33251170220305
 30
0.0
  0
VERTEX
  5
5D8
  8
0
 10
141.2710392854157
 20
69.337323126739278
 30
0.0
  0
VERTEX
  5
5D9
  8
0
 10
141.3741959873422
 20
69.342616675803441
 30
0.0
  0
VERTEX
  5
5DA
  8
0
 10
141.47721910374051
 20
69.348388216247457
 30
0.0
  0
VERTEX
  5
5DB
  8
0
 10
141.58005015748839
 20
69.354632556091332
 30
0.0
  0
VERTEX
  5
5DC
  8
0
 10
141.68263045123311
 20
69.361343421645842
 30
0.0
  0
VERTEX
  5
5DD
  8
0
 10
141.7338082126052
 20
69.364871548400828
 30
0.0
  0
VERTEX
  5
5DE
  8
0
 10
141.78490128343691
 20
69.368513471049795
 30
0.0
  0
VERTEX
  5
5DF
  8
0
 10
141.88680418129451
 20
69.376134316450219
 30
0.0
  0
VERTEX
  5
5E0
  8
0
 10
141.9882811245534
 20
69.384196553220107
 30
0.0
  0
VERTEX
  5
5E1
  8
0
 10
142.0892747605983
 20
69.392689795887776
 30
0.0
  0
VERTEX
  5
5E2
  8
0
 10
142.1897286111537
 20
69.401602720437694
 30
0.0
  0
VERTEX
  5
5E3
  8
0
 10
142.28958727092709
 20
69.410923112632958
 30
0.0
  0
VERTEX
  5
5E4
  8
0
 10
142.3392764306391
 20
69.415732061902389
 30
0.0
  0
VERTEX
  5
5E5
  8
0
 10
142.38879659848499
 20
69.420637921994029
 30
0.0
  0
VERTEX
  5
5E6
  8
0
 10
142.48730389960531
 20
69.430733321059137
 30
0.0
  0
VERTEX
  5
5E7
  8
0
 10
142.5850697996153
 20
69.441196047692159
 30
0.0
  0
VERTEX
  5
5E8
  8
0
 10
142.68206068726269
 20
69.452012857456523
 30
0.0
  0
VERTEX
  5
5E9
  8
0
 10
142.77822642605801
 20
69.463168026848138
 30
0.0
  0
VERTEX
  5
5EA
  8
0
 10
142.87351716679299
 20
69.474645058375103
 30
0.0
  0
VERTEX
  5
5EB
  8
0
 10
142.92081900110259
 20
69.48049892148012
 30
0.0
  0
VERTEX
  5
5EC
  8
0
 10
142.9678836879998
 20
69.486426745083548
 30
0.0
  0
VERTEX
  5
5ED
  8
0
 10
143.06127759632341
 20
69.498495226557196
 30
0.0
  0
VERTEX
  5
5EE
  8
0
 10
143.1536515159076
 20
69.510832049399454
 30
0.0
  0
VERTEX
  5
5EF
  8
0
 10
143.2449592673882
 20
69.52341823175945
 30
0.0
  0
VERTEX
  5
5F0
  8
0
 10
143.33515603710839
 20
69.536234331469672
 30
0.0
  0
VERTEX
  5
5F1
  8
0
 10
143.42419853716521
 20
69.549260517377974
 30
0.0
  0
VERTEX
  5
5F2
  8
0
 10
143.4682738632421
 20
69.555846107247675
 30
0.0
  0
VERTEX
  5
5F3
  8
0
 10
143.51204515688369
 20
69.562476643465374
 30
0.0
  0
VERTEX
  5
5F4
  8
0
 10
143.59865609889749
 20
69.575862324194617
 30
0.0
  0
VERTEX
  5
5F5
  8
0
 10
143.68399315318001
 20
69.589396954726766
 30
0.0
  0
VERTEX
  5
5F6
  8
0
 10
143.7261722667551
 20
69.596213607514841
 30
0.0
  0
VERTEX
  5
5F7
  8
0
 10
143.76801895499531
 20
69.603059640341229
 30
0.0
  0
VERTEX
  5
5F8
  8
0
 10
143.85069694980669
 20
69.616829227166107
 30
0.0
  0
VERTEX
  5
5F9
  8
0
 10
143.9319915996501
 20
69.630684373897878
 30
0.0
  0
VERTEX
  5
5FA
  8
0
 10
143.97210939085051
 20
69.637637330139881
 30
0.0
  0
VERTEX
  5
5FB
  8
0
 10
144.01186857828989
 20
69.644603626423276
 30
0.0
  0
VERTEX
  5
5FC
  8
0
 10
144.0902949538571
 20
69.658565494512999
 30
0.0
  0
VERTEX
  5
5FD
  8
0
 10
144.1672393596659
 20
69.672548530084299
 30
0.0
  0
VERTEX
  5
5FE
  8
0
 10
144.24267215392649
 20
69.686531406553598
 30
0.0
  0
VERTEX
  5
5FF
  8
0
 10
144.31656556907771
 20
69.700492998832004
 30
0.0
  0
VERTEX
  5
600
  8
0
 10
144.38889385145421
 20
69.714412463535695
 30
0.0
  0
VERTEX
  5
601
  8
0
 10
144.42446360284211
 20
69.721349981221891
 30
0.0
  0
VERTEX
  5
602
  8
0
 10
144.4596751679145
 20
69.728277573444956
 30
0.0
  0
VERTEX
  5
603
  8
0
 10
144.52949233188491
 20
69.742190104310083
 30
0.0
  0
VERTEX
  5
604
  8
0
 10
144.5984900834849
 20
69.756170346886478
 30
0.0
  0
VERTEX
  5
605
  8
0
 10
144.6666062571299
 20
69.770197654537668
 30
0.0
  0
VERTEX
  5
606
  8
0
 10
144.73378033825969
 20
69.784250991891525
 30
0.0
  0
VERTEX
  5
607
  8
0
 10
144.79995359368979
 20
69.798309012884232
 30
0.0
  0
VERTEX
  5
608
  8
0
 10
144.83264707393479
 20
69.805333043511808
 30
0.0
  0
VERTEX
  5
609
  8
0
 10
144.86506918920961
 20
69.812350139483868
 30
0.0
  0
VERTEX
  5
60A
  8
0
 10
144.9290722949462
 20
69.826352640655927
 30
0.0
  0
VERTEX
  5
60B
  8
0
 10
144.99191017878891
 20
69.84029471109406
 30
0.0
  0
VERTEX
  5
60C
  8
0
 10
145.02287627763931
 20
69.8472362695355
 30
0.0
  0
SEQEND
  5
60D
  8
0
  0
LINE
  5
197
  8
0
 10
146.19516081704501
 20
55.011000231887088
 30
0.0
 11
134.19516081704501
 21
55.011000231887088
 31
0.0
  0
POLYLINE
  5
198
  8
0
 66
     1
 10
0.0
 20
0.0
 30
0.0
  0
VERTEX
  5
60E
  8
0
 10
148.20489311382369
 20
70.820900463122115
 30
0.0
  0
VERTEX
  5
60F
  8
0
 10
148.25497811394021
 20
70.8405496960373
 30
0.0
  0
VERTEX
  5
610
  8
0
 10
148.35500320783419
 20
70.880215318979793
 30
0.0
  0
VERTEX
  5
611
  8
0
 10
148.45483309973551
 20
70.920369692775324
 30
0.0
  0
VERTEX
  5
612
  8
0
 10
148.5046740984555
 20
70.940629861516726
 30
0.0
  0
SEQEND
  5
613
  8
0
  0
POLYLINE
  5
199
  8
0
 66
     1
 10
0.0
 20
0.0
 30
0.0
  0
VERTEX
  5
614
  8
0
 10
148.5046740984555
 20
70.940629861516726
 30
0.0
  0
VERTEX
  5
615
  8
0
 10
148.5545916701368
 20
70.960679788819419
 30
0.0
  0
VERTEX
  5
616
  8
0
 10
148.65505947055681
 20
70.999162776147344
 30
0.0
  0
VERTEX
  5
617
  8
0
 10
148.7563320104494
 20
71.035475196868077
 30
0.0
  0
VERTEX
  5
618
  8
0
 10
148.80725541914441
 20
71.052812151453026
 30
0.0
  0
VERTEX
  5
619
  8
0
 10
148.85836240176599
 20
71.06960023873873
 30
0.0
  0
VERTEX
  5
61A
  8
0
 10
148.9611034055815
 20
71.10152210224814
 30
0.0
  0
VERTEX
  5
61B
  8
0
 10
149.06450745396461
 20
71.131226007932099
 30
0.0
  0
VERTEX
  5
61C
  8
0
 10
149.16852667200251
 20
71.158698203215835
 30
0.0
  0
VERTEX
  5
61D
  8
0
 10
149.27311289996521
 20
71.183925968781267
 30
0.0
  0
VERTEX
  5
61E
  8
0
 10
149.37821771560399
 20
71.206897624456559
 30
0.0
  0
VERTEX
  5
61F
  8
0
 10
149.43094939558119
 20
71.217534046513563
 30
0.0
  0
VERTEX
  5
620
  8
0
 10
149.4837924565694
 20
71.227602534622832
 30
0.0
  0
VERTEX
  5
621
  8
0
 10
149.58978824294201
 20
71.246031113139423
 30
0.0
  0
VERTEX
  5
622
  8
0
 10
149.69615599986329
 20
71.262174827781422
 30
0.0
  0
VERTEX
  5
623
  8
0
 10
149.80284648025631
 20
71.276026204190174
 30
0.0
  0
VERTEX
  5
624
  8
0
 10
149.9098102876269
 20
71.28757882933391
 30
0.0
  0
VERTEX
  5
625
  8
0
 10
150.01699789893331
 20
71.296827354477131
 30
0.0
  0
VERTEX
  5
626
  8
0
 10
150.07066012615081
 20
71.300586199706544
 30
0.0
  0
VERTEX
  5
627
  8
0
 10
150.12435968751549
 20
71.303767497656366
 30
0.0
  0
VERTEX
  5
628
  8
0
 10
150.23184594607099
 20
71.308396045663315
 30
0.0
  0
VERTEX
  5
629
  8
0
 10
150.33940690966909
 20
71.310710855532264
 30
0.0
  0
VERTEX
  5
62A
  8
0
 10
150.39319984423059
 20
71.31100023188705
 30
0.0
  0
SEQEND
  5
62B
  8
0
  0
POLYLINE
  5
19A
  8
0
 66
     1
 10
0.0
 20
0.0
 30
0.0
  0
VERTEX
  5
62C
  8
0
 10
129.99712178985939
 20
71.31100023188705
 30
0.0
  0
VERTEX
  5
62D
  8
0
 10
130.05091472442081
 20
71.310710855532264
 30
0.0
  0
VERTEX
  5
62E
  8
0
 10
130.158475688019
 20
71.308396045663315
 30
0.0
  0
VERTEX
  5
62F
  8
0
 10
130.26596194657449
 20
71.303767497656366
 30
0.0
  0
VERTEX
  5
630
  8
0
 10
130.3196615079392
 20
71.300586199706544
 30
0.0
  0
VERTEX
  5
631
  8
0
 10
130.3733237351567
 20
71.296827354477131
 30
0.0
  0
VERTEX
  5
632
  8
0
 10
130.48051134646309
 20
71.28757882933391
 30
0.0
  0
VERTEX
  5
633
  8
0
 10
130.58747515383371
 20
71.276026204190174
 30
0.0
  0
VERTEX
  5
634
  8
0
 10
130.69416563422669
 20
71.262174827781422
 30
0.0
  0
VERTEX
  5
635
  8
0
 10
130.80053339114801
 20
71.246031113139423
 30
0.0
  0
VERTEX
  5
636
  8
0
 10
130.9065291775207
 20
71.227602534622832
 30
0.0
  0
VERTEX
  5
637
  8
0
 10
130.95937223850891
 20
71.217534046513563
 30
0.0
  0
VERTEX
  5
638
  8
0
 10
131.0121039184861
 20
71.206897624456559
 30
0.0
  0
VERTEX
  5
639
  8
0
 10
131.1172087341248
 20
71.183925968781267
 30
0.0
  0
VERTEX
  5
63A
  8
0
 10
131.22179496208761
 20
71.158698203215835
 30
0.0
  0
VERTEX
  5
63B
  8
0
 10
131.32581418012541
 20
71.131226007932099
 30
0.0
  0
VERTEX
  5
63C
  8
0
 10
131.4292182285086
 20
71.10152210224814
 30
0.0
  0
VERTEX
  5
63D
  8
0
 10
131.53195923232391
 20
71.06960023873873
 30
0.0
  0
VERTEX
  5
63E
  8
0
 10
131.58306621494549
 20
71.052812151453026
 30
0.0
  0
VERTEX
  5
63F
  8
0
 10
131.6339896236407
 20
71.035475196868077
 30
0.0
  0
VERTEX
  5
640
  8
0
 10
131.73526216353329
 20
70.999162776147344
 30
0.0
  0
VERTEX
  5
641
  8
0
 10
131.8357299639533
 20
70.960679788819419
 30
0.0
  0
VERTEX
  5
642
  8
0
 10
131.8856475356346
 20
70.940629861516726
 30
0.0
  0
SEQEND
  5
643
  8
0
  0
POLYLINE
  5
19B
  8
0
 66
     1
 10
0.0
 20
0.0
 30
0.0
  0
VERTEX
  5
644
  8
0
 10
131.8856475356346
 20
70.940629861516726
 30
0.0
  0
VERTEX
  5
645
  8
0
 10
131.9354885343545
 20
70.920369692775324
 30
0.0
  0
VERTEX
  5
646
  8
0
 10
132.0353184262558
 20
70.880215318979793
 30
0.0
  0
VERTEX
  5
647
  8
0
 10
132.13534352014989
 20
70.8405496960373
 30
0.0
  0
VERTEX
  5
648
  8
0
 10
132.18542852026641
 20
70.820900463122115
 30
0.0
  0
SEQEND
  5
649
  8
0
  0
POLYLINE
  5
19C
  8
0
 66
     1
 10
0.0
 20
0.0
 30
0.0
  0
VERTEX
  5
64A
  8
0
 10
145.02287627763911
 20
69.8472362695355
 30
0.0
  0
VERTEX
  5
64B
  8
0
 10
145.08337647274141
 20
69.860933851957014
 30
0.0
  0
VERTEX
  5
64C
  8
0
 10
145.2131763200824
 20
69.890927393278929
 30
0.0
  0
VERTEX
  5
64D
  8
0
 10
145.35408592145899
 20
69.924427533882152
 30
0.0
  0
VERTEX
  5
64E
  8
0
 10
145.4284234813415
 20
69.942496262575531
 30
0.0
  0
VERTEX
  5
64F
  8
0
 10
145.5051735428199
 20
69.961438998641341
 30
0.0
  0
VERTEX
  5
650
  8
0
 10
145.66529645783999
 20
70.001903205703542
 30
0.0
  0
VERTEX
  5
651
  8
0
 10
145.83312246288619
 20
70.045690723675733
 30
0.0
  0
VERTEX
  5
652
  8
0
 10
146.00726531938449
 20
70.092625146742392
 30
0.0
  0
VERTEX
  5
653
  8
0
 10
146.18609962647949
 20
70.142423232437835
 30
0.0
  0
VERTEX
  5
654
  8
0
 10
146.36784586534571
 20
70.194704171865354
 30
0.0
  0
VERTEX
  5
655
  8
0
 10
146.45922780758571
 20
70.221631707959631
 30
0.0
  0
VERTEX
  5
656
  8
0
 10
146.55062185967489
 20
70.24899380002941
 30
0.0
  0
VERTEX
  5
657
  8
0
 10
146.73244871171411
 20
70.304718624181845
 30
0.0
  0
VERTEX
  5
658
  8
0
 10
146.9173760627429
 20
70.363164491875494
 30
0.0
  0
VERTEX
  5
659
  8
0
 10
147.108621135427
 20
70.425501281032297
 30
0.0
  0
VERTEX
  5
65A
  8
0
 10
147.3046612529991
 20
70.491418018231315
 30
0.0
  0
VERTEX
  5
65B
  8
0
 10
147.50396009353949
 20
70.560543534842694
 30
0.0
  0
VERTEX
  5
65C
  8
0
 10
147.6043433191447
 20
70.596174269533861
 30
0.0
  0
VERTEX
  5
65D
  8
0
 10
147.704952376862
 20
70.632435708978235
 30
0.0
  0
VERTEX
  5
65E
  8
0
 10
147.9060880185956
 20
70.70659289529064
 30
0.0
  0
VERTEX
  5
65F
  8
0
 10
148.1059301577491
 20
70.782490095051088
 30
0.0
  0
VERTEX
  5
660
  8
0
 10
148.20489311382369
 20
70.820900463122115
 30
0.0
  0
SEQEND
  5
661
  8
0
  0
POLYLINE
  5
19D
  8
0
 66
     1
 10
0.0
 20
0.0
 30
0.0
  0
VERTEX
  5
662
  8
0
 10
148.20489311382369
 20
64.902972767557884
 30
0.0
  0
VERTEX
  5
663
  8
0
 10
148.18269594223909
 20
64.954590784481155
 30
0.0
  0
VERTEX
  5
664
  8
0
 10
148.1414537093786
 20
65.061942288127014
 30
0.0
  0
VERTEX
  5
665
  8
0
 10
148.1045836319679
 20
65.17447550575443
 30
0.0
  0
VERTEX
  5
666
  8
0
 10
148.08787272803869
 20
65.232494407289067
 30
0.0
  0
VERTEX
  5
667
  8
0
 10
148.07238837902409
 20
65.291428365871255
 30
0.0
  0
VERTEX
  5
668
  8
0
 10
148.0451481083212
 20
65.411789160633674
 30
0.0
  0
VERTEX
  5
669
  8
0
 10
148.02295214657761
 20
65.535078082411104
 30
0.0
  0
VERTEX
  5
66A
  8
0
 10
148.005886583223
 20
65.66082044128288
 30
0.0
  0
VERTEX
  5
66B
  8
0
 10
147.9940356952269
 20
65.788541599557064
 30
0.0
  0
VERTEX
  5
66C
  8
0
 10
147.98748261861371
 20
65.917766986742407
 30
0.0
  0
VERTEX
  5
66D
  8
0
 10
147.9862187567596
 20
65.982795482868227
 30
0.0
  0
VERTEX
  5
66E
  8
0
 10
147.98631074961139
 20
66.048022090327748
 30
0.0
  0
VERTEX
  5
66F
  8
0
 10
147.99060629960951
 20
66.178839114502551
 30
0.0
  0
VERTEX
  5
670
  8
0
 10
148.0004806422221
 20
66.30993995749597
 30
0.0
  0
VERTEX
  5
671
  8
0
 10
148.01605930560791
 20
66.440827293783371
 30
0.0
  0
VERTEX
  5
672
  8
0
 10
148.03745841876619
 20
66.570874006148841
 30
0.0
  0
VERTEX
  5
673
  8
0
 10
148.06479394931529
 20
66.699453678769572
 30
0.0
  0
VERTEX
  5
674
  8
0
 10
148.08072633174271
 20
66.762997089593881
 30
0.0
  0
VERTEX
  5
675
  8
0
 10
148.09816790215129
 20
66.825857814043474
 30
0.0
  0
VERTEX
  5
676
  8
0
 10
148.1370729476879
 20
66.947618991409826
 30
0.0
  0
VERTEX
  5
677
  8
0
 10
148.18106635752471
 20
67.063466077439756
 30
0.0
  0
VERTEX
  5
678
  8
0
 10
148.20489311382369
 20
67.119027696216193
 30
0.0
  0
SEQEND
  5
679
  8
0
  0
POLYLINE
  5
19E
  8
0
 66
     1
 10
0.0
 20
0.0
 30
0.0
  0
VERTEX
  5
67A
  8
0
 10
148.20489311382369
 20
67.119027696216193
 30
0.0
  0
VERTEX
  5
67B
  8
0
 10
148.233186372364
 20
67.180393642125722
 30
0.0
  0
VERTEX
  5
67C
  8
0
 10
148.292909116988
 20
67.298338085697281
 30
0.0
  0
VERTEX
  5
67D
  8
0
 10
148.35852463540701
 20
67.413633429705754
 30
0.0
  0
VERTEX
  5
67E
  8
0
 10
148.3942021374846
 20
67.471277205927066
 30
0.0
  0
VERTEX
  5
67F
  8
0
 10
148.43174551016099
 20
67.528671441750106
 30
0.0
  0
VERTEX
  5
680
  8
0
 10
148.5122110384111
 20
67.642004296182762
 30
0.0
  0
VERTEX
  5
681
  8
0
 10
148.5993669257744
 20
67.752298869429609
 30
0.0
  0
VERTEX
  5
682
  8
0
 10
148.6924973361605
 20
67.85838216370243
 30
0.0
  0
VERTEX
  5
683
  8
0
 10
148.79075238897531
 20
67.959260405475646
 30
0.0
  0
VERTEX
  5
684
  8
0
 10
148.8931036207118
 20
68.054064054932581
 30
0.0
  0
VERTEX
  5
685
  8
0
 10
148.94544211566361
 20
68.098950292406101
 30
0.0
  0
VERTEX
  5
686
  8
0
 10
148.9983367819662
 20
68.142052664497186
 30
0.0
  0
VERTEX
  5
687
  8
0
 10
149.1050901572234
 20
68.222654675446805
 30
0.0
  0
VERTEX
  5
688
  8
0
 10
149.2134778326153
 20
68.296514458325277
 30
0.0
  0
VERTEX
  5
689
  8
0
 10
149.3284746552813
 20
68.366930081559033
 30
0.0
  0
VERTEX
  5
68A
  8
0
 10
149.44968286679179
 20
68.433062083263593
 30
0.0
  0
VERTEX
  5
68B
  8
0
 10
149.5759361852736
 20
68.493824558585942
 30
0.0
  0
VERTEX
  5
68C
  8
0
 10
149.64056181818361
 20
68.521915756110474
 30
0.0
  0
VERTEX
  5
68D
  8
0
 10
149.7059701805899
 20
68.548363923901974
 30
0.0
  0
VERTEX
  5
68E
  8
0
 10
149.83846937550351
 20
68.596073417932388
 30
0.0
  0
VERTEX
  5
68F
  8
0
 10
149.9720172403654
 20
68.636566719540241
 30
0.0
  0
VERTEX
  5
690
  8
0
 10
150.0387066026793
 20
68.654045947690264
 30
0.0
  0
VERTEX
  5
691
  8
0
 10
150.10507402056589
 20
68.669677038959179
 30
0.0
  0
VERTEX
  5
692
  8
0
 10
150.2360315771927
 20
68.695476938612131
 30
0.0
  0
VERTEX
  5
693
  8
0
 10
150.365829121898
 20
68.714597056148222
 30
0.0
  0
VERTEX
  5
694
  8
0
 10
150.43263604041709
 20
68.721981911158394
 30
0.0
  0
VERTEX
  5
695
  8
0
 10
150.50061350108061
 20
68.727802632866059
 30
0.0
  0
VERTEX
  5
696
  8
0
 10
150.639211553264
 20
68.73442200066367
 30
0.0
  0
VERTEX
  5
697
  8
0
 10
150.77987277212861
 20
68.733979996355146
 30
0.0
  0
VERTEX
  5
698
  8
0
 10
150.92087496465669
 20
68.726297965464894
 30
0.0
  0
VERTEX
  5
699
  8
0
 10
151.06054265946611
 20
68.711486885212452
 30
0.0
  0
VERTEX
  5
69A
  8
0
 10
151.19717565555669
 20
68.689951950331846
 30
0.0
  0
VERTEX
  5
69B
  8
0
 10
151.263824422238
 20
68.676870968838642
 30
0.0
  0
VERTEX
  5
69C
  8
0
 10
151.32908653936761
 20
68.662394336460423
 30
0.0
  0
VERTEX
  5
69D
  8
0
 10
151.45603096917461
 20
68.629403636573073
 30
0.0
  0
VERTEX
  5
69E
  8
0
 10
151.5850553441642
 20
68.58911905260706
 30
0.0
  0
VERTEX
  5
69F
  8
0
 10
151.71554545575771
 20
68.541125882121236
 30
0.0
  0
VERTEX
  5
6A0
  8
0
 10
151.84535320749399
 20
68.485734867893115
 30
0.0
  0
VERTEX
  5
6A1
  8
0
 10
151.97250150788929
 20
68.423581278134492
 30
0.0
  0
VERTEX
  5
6A2
  8
0
 10
152.03450972237971
 20
68.390253581388464
 30
0.0
  0
VERTEX
  5
6A3
  8
0
 10
152.0951839358529
 20
68.355621520924345
 30
0.0
  0
VERTEX
  5
6A4
  8
0
 10
152.21171368337809
 20
68.283161333264701
 30
0.0
  0
VERTEX
  5
6A5
  8
0
 10
152.32061752090141
 20
68.207797730448846
 30
0.0
  0
VERTEX
  5
6A6
  8
0
 10
152.4267496236773
 20
68.126480216364683
 30
0.0
  0
VERTEX
  5
6A7
  8
0
 10
152.53250420312031
 20
68.036790107197902
 30
0.0
  0
VERTEX
  5
6A8
  8
0
 10
152.63552989931139
 20
67.939953981284333
 30
0.0
  0
VERTEX
  5
6A9
  8
0
 10
152.68537221685381
 20
67.889328358663278
 30
0.0
  0
VERTEX
  5
6AA
  8
0
 10
152.73380180133151
 20
67.837518062523799
 30
0.0
  0
VERTEX
  5
6AB
  8
0
 10
152.82563581279709
 20
67.731338370222119
 30
0.0
  0
VERTEX
  5
6AC
  8
0
 10
152.90965119702659
 20
67.623623628172794
 30
0.0
  0
VERTEX
  5
6AD
  8
0
 10
152.9856010361608
 20
67.515699899473219
 30
0.0
  0
VERTEX
  5
6AE
  8
0
 10
153.0585169114166
 20
67.400429196213139
 30
0.0
  0
VERTEX
  5
6AF
  8
0
 10
153.1275808697595
 20
67.277864865231862
 30
0.0
  0
VERTEX
  5
6B0
  8
0
 10
153.16005873346739
 20
67.214588560498413
 30
0.0
  0
VERTEX
  5
6B1
  8
0
 10
153.19090656857799
 20
67.150404624021533
 30
0.0
  0
VERTEX
  5
6B2
  8
0
 10
153.24712183990829
 20
67.020662771957603
 30
0.0
  0
VERTEX
  5
6B3
  8
0
 10
153.29534407219191
 20
66.891527103006268
 30
0.0
  0
VERTEX
  5
6B4
  8
0
 10
153.33543373587889
 20
66.76528856355921
 30
0.0
  0
VERTEX
  5
6B5
  8
0
 10
153.3701658023586
 20
66.633593515590718
 30
0.0
  0
VERTEX
  5
6B6
  8
0
 10
153.39905689152121
 20
66.495766232052318
 30
0.0
  0
VERTEX
  5
6B7
  8
0
 10
153.41092427217279
 20
66.425529766586436
 30
0.0
  0
VERTEX
  5
6B8
  8
0
 10
153.4209435992444
 20
66.3549392673211
 30
0.0
  0
VERTEX
  5
6B9
  8
0
 10
153.43528192464831
 20
66.214307490672425
 30
0.0
  0
VERTEX
  5
6BA
  8
0
 10
153.44214021500119
 20
66.077188163456725
 30
0.0
  0
VERTEX
  5
6BB
  8
0
 10
153.44295215244449
 20
66.011000231887095
 30
0.0
  0
VERTEX
  5
6BC
  8
0
 10
153.44214021500119
 20
65.944812300317352
 30
0.0
  0
VERTEX
  5
6BD
  8
0
 10
153.43528192464831
 20
65.807692973101638
 30
0.0
  0
VERTEX
  5
6BE
  8
0
 10
153.4209435992444
 20
65.667061196453091
 30
0.0
  0
VERTEX
  5
6BF
  8
0
 10
153.41092427217279
 20
65.596470697187641
 30
0.0
  0
VERTEX
  5
6C0
  8
0
 10
153.39905689152121
 20
65.526234231721759
 30
0.0
  0
VERTEX
  5
6C1
  8
0
 10
153.3701658023588
 20
65.388406948183473
 30
0.0
  0
VERTEX
  5
6C2
  8
0
 10
153.33543373587889
 20
65.256711900214867
 30
0.0
  0
VERTEX
  5
6C3
  8
0
 10
153.29534407219191
 20
65.130473360767795
 30
0.0
  0
VERTEX
  5
6C4
  8
0
 10
153.24712183990829
 20
65.001337691816474
 30
0.0
  0
VERTEX
  5
6C5
  8
0
 10
153.19090656857799
 20
64.87159583975253
 30
0.0
  0
VERTEX
  5
6C6
  8
0
 10
153.16005873346739
 20
64.807411903275764
 30
0.0
  0
VERTEX
  5
6C7
  8
0
 10
153.1275808697595
 20
64.744135598542215
 30
0.0
  0
VERTEX
  5
6C8
  8
0
 10
153.0585169114166
 20
64.621571267560924
 30
0.0
  0
VERTEX
  5
6C9
  8
0
 10
152.9856010361608
 20
64.506300564300844
 30
0.0
  0
VERTEX
  5
6CA
  8
0
 10
152.90965119702659
 20
64.398376835601397
 30
0.0
  0
VERTEX
  5
6CB
  8
0
 10
152.82563581279709
 20
64.290662093552072
 30
0.0
  0
VERTEX
  5
6CC
  8
0
 10
152.73380180133151
 20
64.184482401250392
 30
0.0
  0
VERTEX
  5
6CD
  8
0
 10
152.68537221685381
 20
64.132672105110785
 30
0.0
  0
VERTEX
  5
6CE
  8
0
 10
152.63552989931139
 20
64.082046482489744
 30
0.0
  0
VERTEX
  5
6CF
  8
0
 10
152.53250420312031
 20
63.985210356576168
 30
0.0
  0
VERTEX
  5
6D0
  8
0
 10
152.4267496236773
 20
63.895520247409401
 30
0.0
  0
VERTEX
  5
6D1
  8
0
 10
152.32061752090141
 20
63.814202733325232
 30
0.0
  0
VERTEX
  5
6D2
  8
0
 10
152.21171368337809
 20
63.738839130509383
 30
0.0
  0
VERTEX
  5
6D3
  8
0
 10
152.0951839358529
 20
63.666378942849718
 30
0.0
  0
VERTEX
  5
6D4
  8
0
 10
152.03450972237971
 20
63.63174688238572
 30
0.0
  0
VERTEX
  5
6D5
  8
0
 10
151.97250150788929
 20
63.598419185639578
 30
0.0
  0
VERTEX
  5
6D6
  8
0
 10
151.84535320749399
 20
63.536265595881069
 30
0.0
  0
VERTEX
  5
6D7
  8
0
 10
151.71554545575771
 20
63.480874581652841
 30
0.0
  0
VERTEX
  5
6D8
  8
0
 10
151.5850553441642
 20
63.432881411167131
 30
0.0
  0
VERTEX
  5
6D9
  8
0
 10
151.45603096917461
 20
63.392596827201011
 30
0.0
  0
VERTEX
  5
6DA
  8
0
 10
151.32908653936761
 20
63.35960612731364
 30
0.0
  0
VERTEX
  5
6DB
  8
0
 10
151.263824422238
 20
63.345129494935428
 30
0.0
  0
VERTEX
  5
6DC
  8
0
 10
151.19717565555669
 20
63.332048513442231
 30
0.0
  0
VERTEX
  5
6DD
  8
0
 10
151.06054265946611
 20
63.310513578561618
 30
0.0
  0
VERTEX
  5
6DE
  8
0
 10
150.92087496465669
 20
63.295702498309169
 30
0.0
  0
VERTEX
  5
6DF
  8
0
 10
150.77987277212881
 20
63.288020467418932
 30
0.0
  0
VERTEX
  5
6E0
  8
0
 10
150.639211553264
 20
63.28757846311052
 30
0.0
  0
VERTEX
  5
6E1
  8
0
 10
150.50061350108061
 20
63.294197830908018
 30
0.0
  0
VERTEX
  5
6E2
  8
0
 10
150.43263604041709
 20
63.300018552615789
 30
0.0
  0
VERTEX
  5
6E3
  8
0
 10
150.365829121898
 20
63.307403407625849
 30
0.0
  0
VERTEX
  5
6E4
  8
0
 10
150.2360315771927
 20
63.326523525162052
 30
0.0
  0
VERTEX
  5
6E5
  8
0
 10
150.10507402056601
 20
63.352323424814891
 30
0.0
  0
VERTEX
  5
6E6
  8
0
 10
150.0387066026793
 20
63.367954516083813
 30
0.0
  0
VERTEX
  5
6E7
  8
0
 10
149.97201724036549
 20
63.385433744233843
 30
0.0
  0
VERTEX
  5
6E8
  8
0
 10
149.83846937550351
 20
63.425927045841689
 30
0.0
  0
VERTEX
  5
6E9
  8
0
 10
149.7059701805899
 20
63.473636539872103
 30
0.0
  0
VERTEX
  5
6EA
  8
0
 10
149.64056181818361
 20
63.500084707663603
 30
0.0
  0
VERTEX
  5
6EB
  8
0
 10
149.5759361852736
 20
63.528175905188242
 30
0.0
  0
VERTEX
  5
6EC
  8
0
 10
149.44968286679179
 20
63.588938380510491
 30
0.0
  0
VERTEX
  5
6ED
  8
0
 10
149.3284746552813
 20
63.65507038221503
 30
0.0
  0
VERTEX
  5
6EE
  8
0
 10
149.2134778326153
 20
63.725486005448801
 30
0.0
  0
VERTEX
  5
6EF
  8
0
 10
149.1050901572234
 20
63.799345788327258
 30
0.0
  0
VERTEX
  5
6F0
  8
0
 10
148.9983367819662
 20
63.879947799276891
 30
0.0
  0
VERTEX
  5
6F1
  8
0
 10
148.94544211566361
 20
63.923050171367983
 30
0.0
  0
VERTEX
  5
6F2
  8
0
 10
148.8931036207118
 20
63.967936408841489
 30
0.0
  0
VERTEX
  5
6F3
  8
0
 10
148.79075238897531
 20
64.062740058298431
 30
0.0
  0
VERTEX
  5
6F4
  8
0
 10
148.6924973361605
 20
64.163618300071647
 30
0.0
  0
VERTEX
  5
6F5
  8
0
 10
148.5993669257744
 20
64.269701594344582
 30
0.0
  0
VERTEX
  5
6F6
  8
0
 10
148.5122110384111
 20
64.379996167591315
 30
0.0
  0
VERTEX
  5
6F7
  8
0
 10
148.43174551016099
 20
64.493329022023971
 30
0.0
  0
VERTEX
  5
6F8
  8
0
 10
148.3942021374846
 20
64.550723257847011
 30
0.0
  0
VERTEX
  5
6F9
  8
0
 10
148.35852463540701
 20
64.608367034068436
 30
0.0
  0
VERTEX
  5
6FA
  8
0
 10
148.292909116988
 20
64.723662378076796
 30
0.0
  0
VERTEX
  5
6FB
  8
0
 10
148.233186372364
 20
64.841606821648355
 30
0.0
  0
VERTEX
  5
6FC
  8
0
 10
148.20489311382369
 20
64.902972767557884
 30
0.0
  0
SEQEND
  5
6FD
  8
0
  0
POLYLINE
  5
19F
  8
0
 66
     1
 10
0.0
 20
0.0
 30
0.0
  0
VERTEX
  5
6FE
  8
0
 10
132.18542852026641
 20
70.820900463122115
 30
0.0
  0
VERTEX
  5
6FF
  8
0
 10
132.28439148039601
 20
70.782490093488462
 30
0.0
  0
VERTEX
  5
700
  8
0
 10
132.48423362778519
 20
70.706592890690985
 30
0.0
  0
VERTEX
  5
701
  8
0
 10
132.68536927777129
 20
70.632435701517664
 30
0.0
  0
VERTEX
  5
702
  8
0
 10
132.7859783395661
 20
70.596174260727679
 30
0.0
  0
VERTEX
  5
703
  8
0
 10
132.88636156918199
 20
70.560543524758003
 30
0.0
  0
VERTEX
  5
704
  8
0
 10
133.08566041744689
 20
70.491418005816485
 30
0.0
  0
VERTEX
  5
705
  8
0
 10
133.2817005421937
 20
70.425501266622831
 30
0.0
  0
VERTEX
  5
706
  8
0
 10
133.47294562131671
 20
70.36316447584008
 30
0.0
  0
VERTEX
  5
707
  8
0
 10
133.65787297787131
 20
70.304718606911337
 30
0.0
  0
VERTEX
  5
708
  8
0
 10
133.8396998377807
 20
70.248993780908762
 30
0.0
  0
VERTEX
  5
709
  8
0
 10
133.93109389368101
 20
70.221631688006553
 30
0.0
  0
VERTEX
  5
70A
  8
0
 10
134.02247583954679
 20
70.194704151168565
 30
0.0
  0
VERTEX
  5
70B
  8
0
 10
134.2042220850125
 20
70.142423210532201
 30
0.0
  0
VERTEX
  5
70C
  8
0
 10
134.38305639768689
 20
70.092625124012301
 30
0.0
  0
VERTEX
  5
70D
  8
0
 10
134.55719925857261
 20
70.045690700512026
 30
0.0
  0
VERTEX
  5
70E
  8
0
 10
134.72502526673571
 20
70.001903182475388
 30
0.0
  0
VERTEX
  5
70F
  8
0
 10
134.88514818349219
 20
69.961438975704112
 30
0.0
  0
VERTEX
  5
710
  8
0
 10
134.96189824528551
 20
69.942496239912742
 30
0.0
  0
VERTEX
  5
711
  8
0
 10
135.03623580511069
 20
69.924427511573953
 30
0.0
  0
VERTEX
  5
712
  8
0
 10
135.17714540526259
 20
69.890927371900915
 30
0.0
  0
VERTEX
  5
713
  8
0
 10
135.30694524991441
 20
69.860933831773963
 30
0.0
  0
VERTEX
  5
714
  8
0
 10
135.3674454431449
 20
69.847236250035934
 30
0.0
  0
SEQEND
  5
715
  8
0
  0
POLYLINE
  5
1A0
  8
0
 66
     1
 10
0.0
 20
0.0
 30
0.0
  0
VERTEX
  5
716
  8
0
 10
132.18542852026641
 20
67.119027696216307
 30
0.0
  0
VERTEX
  5
717
  8
0
 10
132.20762569185101
 20
67.067409679292922
 30
0.0
  0
VERTEX
  5
718
  8
0
 10
132.2488679247115
 20
66.960058175646935
 30
0.0
  0
VERTEX
  5
719
  8
0
 10
132.28573800212229
 20
66.84752495801942
 30
0.0
  0
VERTEX
  5
71A
  8
0
 10
132.30244890605141
 20
66.789506056484782
 30
0.0
  0
VERTEX
  5
71B
  8
0
 10
132.31793325506601
 20
66.730572097902581
 30
0.0
  0
VERTEX
  5
71C
  8
0
 10
132.3451735257689
 20
66.610211303140289
 30
0.0
  0
VERTEX
  5
71D
  8
0
 10
132.36736948751249
 20
66.486922381362973
 30
0.0
  0
VERTEX
  5
71E
  8
0
 10
132.38443505086701
 20
66.361180022491183
 30
0.0
  0
VERTEX
  5
71F
  8
0
 10
132.3962859388632
 20
66.233458864217113
 30
0.0
  0
VERTEX
  5
720
  8
0
 10
132.40283901547619
 20
66.104233477031784
 30
0.0
  0
VERTEX
  5
721
  8
0
 10
132.40410287733039
 20
66.039204980906078
 30
0.0
  0
VERTEX
  5
722
  8
0
 10
132.40401088447871
 20
65.973978373446442
 30
0.0
  0
VERTEX
  5
723
  8
0
 10
132.3997153344805
 20
65.843161349271625
 30
0.0
  0
VERTEX
  5
724
  8
0
 10
132.38984099186791
 20
65.712060506278334
 30
0.0
  0
VERTEX
  5
725
  8
0
 10
132.37426232848219
 20
65.581173169990933
 30
0.0
  0
VERTEX
  5
726
  8
0
 10
132.35286321532379
 20
65.451126457625463
 30
0.0
  0
VERTEX
  5
727
  8
0
 10
132.32552768477481
 20
65.322546785004732
 30
0.0
  0
VERTEX
  5
728
  8
0
 10
132.3095953023473
 20
65.259003374180537
 30
0.0
  0
VERTEX
  5
729
  8
0
 10
132.29215373193881
 20
65.196142649730831
 30
0.0
  0
VERTEX
  5
72A
  8
0
 10
132.2532486864022
 20
65.074381472364479
 30
0.0
  0
VERTEX
  5
72B
  8
0
 10
132.20925527656539
 20
64.958534386334321
 30
0.0
  0
VERTEX
  5
72C
  8
0
 10
132.18542852026641
 20
64.902972767557884
 30
0.0
  0
SEQEND
  5
72D
  8
0
  0
POLYLINE
  5
1A1
  8
0
 66
     1
 10
0.0
 20
0.0
 30
0.0
  0
VERTEX
  5
72E
  8
0
 10
132.18542852026641
 20
64.902972767557884
 30
0.0
  0
VERTEX
  5
72F
  8
0
 10
132.1571352617261
 20
64.841606821648242
 30
0.0
  0
VERTEX
  5
730
  8
0
 10
132.0974125171021
 20
64.723662378076796
 30
0.0
  0
VERTEX
  5
731
  8
0
 10
132.03179699868309
 20
64.608367034068323
 30
0.0
  0
VERTEX
  5
732
  8
0
 10
131.9961194966055
 20
64.550723257847011
 30
0.0
  0
VERTEX
  5
733
  8
0
 10
131.95857612392911
 20
64.493329022023971
 30
0.0
  0
VERTEX
  5
734
  8
0
 10
131.878110595679
 20
64.379996167591202
 30
0.0
  0
VERTEX
  5
735
  8
0
 10
131.7909547083155
 20
64.269701594344454
 30
0.0
  0
VERTEX
  5
736
  8
0
 10
131.6978242979296
 20
64.163618300071647
 30
0.0
  0
VERTEX
  5
737
  8
0
 10
131.59956924511471
 20
64.062740058298431
 30
0.0
  0
VERTEX
  5
738
  8
0
 10
131.49721801337819
 20
63.967936408841382
 30
0.0
  0
VERTEX
  5
739
  8
0
 10
131.4448795184264
 20
63.923050171367862
 30
0.0
  0
VERTEX
  5
73A
  8
0
 10
131.39198485212381
 20
63.879947799276891
 30
0.0
  0
VERTEX
  5
73B
  8
0
 10
131.2852314768665
 20
63.799345788327258
 30
0.0
  0
VERTEX
  5
73C
  8
0
 10
131.1768438014748
 20
63.725486005448687
 30
0.0
  0
VERTEX
  5
73D
  8
0
 10
131.06184697880869
 20
63.65507038221503
 30
0.0
  0
VERTEX
  5
73E
  8
0
 10
130.9406387672982
 20
63.588938380510491
 30
0.0
  0
VERTEX
  5
73F
  8
0
 10
130.81438544881641
 20
63.528175905188142
 30
0.0
  0
VERTEX
  5
740
  8
0
 10
130.74975981590649
 20
63.500084707663603
 30
0.0
  0
VERTEX
  5
741
  8
0
 10
130.68435145350011
 20
63.473636539872103
 30
0.0
  0
VERTEX
  5
742
  8
0
 10
130.55185225858651
 20
63.425927045841689
 30
0.0
  0
VERTEX
  5
743
  8
0
 10
130.41830439372461
 20
63.385433744233843
 30
0.0
  0
VERTEX
  5
744
  8
0
 10
130.3516150314108
 20
63.367954516083813
 30
0.0
  0
VERTEX
  5
745
  8
0
 10
130.28524761352409
 20
63.352323424814891
 30
0.0
  0
VERTEX
  5
746
  8
0
 10
130.15429005689731
 20
63.326523525161953
 30
0.0
  0
VERTEX
  5
747
  8
0
 10
130.0244925121919
 20
63.307403407625742
 30
0.0
  0
VERTEX
  5
748
  8
0
 10
129.95768559367301
 20
63.300018552615683
 30
0.0
  0
VERTEX
  5
749
  8
0
 10
129.88970813300941
 20
63.294197830908018
 30
0.0
  0
VERTEX
  5
74A
  8
0
 10
129.75111008082601
 20
63.287578463110407
 30
0.0
  0
VERTEX
  5
74B
  8
0
 10
129.61044886196129
 20
63.288020467418932
 30
0.0
  0
VERTEX
  5
74C
  8
0
 10
129.4694466694333
 20
63.295702498309048
 30
0.0
  0
VERTEX
  5
74D
  8
0
 10
129.32977897462379
 20
63.310513578561618
 30
0.0
  0
VERTEX
  5
74E
  8
0
 10
129.19314597853321
 20
63.332048513442231
 30
0.0
  0
VERTEX
  5
74F
  8
0
 10
129.12649721185201
 20
63.345129494935321
 30
0.0
  0
VERTEX
  5
750
  8
0
 10
129.06123509472241
 20
63.35960612731364
 30
0.0
  0
VERTEX
  5
751
  8
0
 10
128.93429066491541
 20
63.392596827201011
 30
0.0
  0
VERTEX
  5
752
  8
0
 10
128.80526628992581
 20
63.43288141116701
 30
0.0
  0
VERTEX
  5
753
  8
0
 10
128.67477617833231
 20
63.480874581652841
 30
0.0
  0
VERTEX
  5
754
  8
0
 10
128.544968426596
 20
63.536265595880963
 30
0.0
  0
VERTEX
  5
755
  8
0
 10
128.4178201262007
 20
63.598419185639578
 30
0.0
  0
VERTEX
  5
756
  8
0
 10
128.35581191171019
 20
63.63174688238562
 30
0.0
  0
VERTEX
  5
757
  8
0
 10
128.29513769823711
 20
63.666378942849718
 30
0.0
  0
VERTEX
  5
758
  8
0
 10
128.17860795071189
 20
63.738839130509383
 30
0.0
  0
VERTEX
  5
759
  8
0
 10
128.06970411318861
 20
63.814202733325232
 30
0.0
  0
VERTEX
  5
75A
  8
0
 10
127.9635720104127
 20
63.895520247409401
 30
0.0
  0
VERTEX
  5
75B
  8
0
 10
127.8578174309697
 20
63.985210356576168
 30
0.0
  0
VERTEX
  5
75C
  8
0
 10
127.75479173477849
 20
64.082046482489744
 30
0.0
  0
VERTEX
  5
75D
  8
0
 10
127.70494941723619
 20
64.132672105110785
 30
0.0
  0
VERTEX
  5
75E
  8
0
 10
127.65651983275841
 20
64.184482401250278
 30
0.0
  0
VERTEX
  5
75F
  8
0
 10
127.5646858212929
 20
64.290662093552072
 30
0.0
  0
VERTEX
  5
760
  8
0
 10
127.4806704370634
 20
64.398376835601397
 30
0.0
  0
VERTEX
  5
761
  8
0
 10
127.4047205979293
 20
64.506300564300844
 30
0.0
  0
VERTEX
  5
762
  8
0
 10
127.3318047226735
 20
64.621571267560924
 30
0.0
  0
VERTEX
  5
763
  8
0
 10
127.2627407643305
 20
64.744135598542215
 30
0.0
  0
VERTEX
  5
764
  8
0
 10
127.23026290062261
 20
64.807411903275764
 30
0.0
  0
VERTEX
  5
765
  8
0
 10
127.199415065512
 20
64.87159583975253
 30
0.0
  0
VERTEX
  5
766
  8
0
 10
127.1431997941816
 20
65.001337691816474
 30
0.0
  0
VERTEX
  5
767
  8
0
 10
127.09497756189801
 20
65.130473360767795
 30
0.0
  0
VERTEX
  5
768
  8
0
 10
127.05488789821101
 20
65.256711900214867
 30
0.0
  0
VERTEX
  5
769
  8
0
 10
127.0201558317313
 20
65.388406948183473
 30
0.0
  0
VERTEX
  5
76A
  8
0
 10
126.9912647425687
 20
65.526234231721759
 30
0.0
  0
VERTEX
  5
76B
  8
0
 10
126.97939736191719
 20
65.596470697187641
 30
0.0
  0
VERTEX
  5
76C
  8
0
 10
126.9693780348456
 20
65.667061196453091
 30
0.0
  0
VERTEX
  5
76D
  8
0
 10
126.95503970944171
 20
65.807692973101638
 30
0.0
  0
VERTEX
  5
76E
  8
0
 10
126.9481814190887
 20
65.944812300317352
 30
0.0
  0
VERTEX
  5
76F
  8
0
 10
126.94736948164559
 20
66.011000231887095
 30
0.0
  0
VERTEX
  5
770
  8
0
 10
126.9481814190887
 20
66.077188163456725
 30
0.0
  0
VERTEX
  5
771
  8
0
 10
126.95503970944171
 20
66.214307490672425
 30
0.0
  0
VERTEX
  5
772
  8
0
 10
126.9693780348456
 20
66.3549392673211
 30
0.0
  0
VERTEX
  5
773
  8
0
 10
126.97939736191719
 20
66.425529766586436
 30
0.0
  0
VERTEX
  5
774
  8
0
 10
126.9912647425687
 20
66.495766232052318
 30
0.0
  0
VERTEX
  5
775
  8
0
 10
127.0201558317313
 20
66.633593515590718
 30
0.0
  0
VERTEX
  5
776
  8
0
 10
127.05488789821101
 20
66.76528856355921
 30
0.0
  0
VERTEX
  5
777
  8
0
 10
127.09497756189801
 20
66.891527103006268
 30
0.0
  0
VERTEX
  5
778
  8
0
 10
127.1431997941816
 20
67.020662771957603
 30
0.0
  0
VERTEX
  5
779
  8
0
 10
127.199415065512
 20
67.150404624021533
 30
0.0
  0
VERTEX
  5
77A
  8
0
 10
127.23026290062261
 20
67.214588560498413
 30
0.0
  0
VERTEX
  5
77B
  8
0
 10
127.2627407643306
 20
67.277864865231862
 30
0.0
  0
VERTEX
  5
77C
  8
0
 10
127.3318047226735
 20
67.400429196213139
 30
0.0
  0
VERTEX
  5
77D
  8
0
 10
127.4047205979293
 20
67.515699899473219
 30
0.0
  0
VERTEX
  5
77E
  8
0
 10
127.4806704370634
 20
67.623623628172794
 30
0.0
  0
VERTEX
  5
77F
  8
0
 10
127.5646858212929
 20
67.731338370222119
 30
0.0
  0
VERTEX
  5
780
  8
0
 10
127.65651983275841
 20
67.837518062523799
 30
0.0
  0
VERTEX
  5
781
  8
0
 10
127.70494941723619
 20
67.889328358663278
 30
0.0
  0
VERTEX
  5
782
  8
0
 10
127.75479173477849
 20
67.939953981284447
 30
0.0
  0
VERTEX
  5
783
  8
0
 10
127.8578174309697
 20
68.036790107197902
 30
0.0
  0
VERTEX
  5
784
  8
0
 10
127.9635720104127
 20
68.126480216364683
 30
0.0
  0
VERTEX
  5
785
  8
0
 10
128.06970411318861
 20
68.207797730448846
 30
0.0
  0
VERTEX
  5
786
  8
0
 10
128.17860795071189
 20
68.283161333264701
 30
0.0
  0
VERTEX
  5
787
  8
0
 10
128.29513769823711
 20
68.355621520924345
 30
0.0
  0
VERTEX
  5
788
  8
0
 10
128.35581191171019
 20
68.390253581388464
 30
0.0
  0
VERTEX
  5
789
  8
0
 10
128.4178201262007
 20
68.423581278134492
 30
0.0
  0
VERTEX
  5
78A
  8
0
 10
128.544968426596
 20
68.485734867893115
 30
0.0
  0
VERTEX
  5
78B
  8
0
 10
128.67477617833231
 20
68.541125882121236
 30
0.0
  0
VERTEX
  5
78C
  8
0
 10
128.80526628992581
 20
68.58911905260706
 30
0.0
  0
VERTEX
  5
78D
  8
0
 10
128.93429066491541
 20
68.629403636573073
 30
0.0
  0
VERTEX
  5
78E
  8
0
 10
129.06123509472241
 20
68.662394336460423
 30
0.0
  0
VERTEX
  5
78F
  8
0
 10
129.12649721185201
 20
68.676870968838756
 30
0.0
  0
VERTEX
  5
790
  8
0
 10
129.19314597853321
 20
68.689951950331846
 30
0.0
  0
VERTEX
  5
791
  8
0
 10
129.32977897462379
 20
68.711486885212565
 30
0.0
  0
VERTEX
  5
792
  8
0
 10
129.4694466694333
 20
68.726297965465022
 30
0.0
  0
VERTEX
  5
793
  8
0
 10
129.61044886196129
 20
68.733979996355259
 30
0.0
  0
VERTEX
  5
794
  8
0
 10
129.75111008082601
 20
68.73442200066367
 30
0.0
  0
VERTEX
  5
795
  8
0
 10
129.88970813300941
 20
68.727802632866059
 30
0.0
  0
VERTEX
  5
796
  8
0
 10
129.95768559367301
 20
68.721981911158394
 30
0.0
  0
VERTEX
  5
797
  8
0
 10
130.0244925121919
 20
68.714597056148335
 30
0.0
  0
VERTEX
  5
798
  8
0
 10
130.15429005689731
 20
68.695476938612131
 30
0.0
  0
VERTEX
  5
799
  8
0
 10
130.28524761352409
 20
68.669677038959293
 30
0.0
  0
VERTEX
  5
79A
  8
0
 10
130.3516150314108
 20
68.654045947690378
 30
0.0
  0
VERTEX
  5
79B
  8
0
 10
130.41830439372461
 20
68.636566719540241
 30
0.0
  0
VERTEX
  5
79C
  8
0
 10
130.55185225858651
 20
68.596073417932388
 30
0.0
  0
VERTEX
  5
79D
  8
0
 10
130.68435145350011
 20
68.548363923901974
 30
0.0
  0
VERTEX
  5
79E
  8
0
 10
130.74975981590649
 20
68.521915756110474
 30
0.0
  0
VERTEX
  5
79F
  8
0
 10
130.81438544881641
 20
68.493824558585942
 30
0.0
  0
VERTEX
  5
7A0
  8
0
 10
130.9406387672982
 20
68.433062083263593
 30
0.0
  0
VERTEX
  5
7A1
  8
0
 10
131.06184697880869
 20
68.366930081559033
 30
0.0
  0
VERTEX
  5
7A2
  8
0
 10
131.1768438014748
 20
68.29651445832539
 30
0.0
  0
VERTEX
  5
7A3
  8
0
 10
131.2852314768665
 20
68.222654675446805
 30
0.0
  0
VERTEX
  5
7A4
  8
0
 10
131.39198485212381
 20
68.142052664497186
 30
0.0
  0
VERTEX
  5
7A5
  8
0
 10
131.4448795184264
 20
68.098950292406215
 30
0.0
  0
VERTEX
  5
7A6
  8
0
 10
131.49721801337819
 20
68.054064054932695
 30
0.0
  0
VERTEX
  5
7A7
  8
0
 10
131.59956924511471
 20
67.959260405475646
 30
0.0
  0
VERTEX
  5
7A8
  8
0
 10
131.6978242979296
 20
67.858382163702544
 30
0.0
  0
VERTEX
  5
7A9
  8
0
 10
131.7909547083155
 20
67.752298869429609
 30
0.0
  0
VERTEX
  5
7AA
  8
0
 10
131.878110595679
 20
67.642004296182876
 30
0.0
  0
VERTEX
  5
7AB
  8
0
 10
131.95857612392911
 20
67.528671441750106
 30
0.0
  0
VERTEX
  5
7AC
  8
0
 10
131.9961194966055
 20
67.471277205927066
 30
0.0
  0
VERTEX
  5
7AD
  8
0
 10
132.03179699868309
 20
67.413633429705754
 30
0.0
  0
VERTEX
  5
7AE
  8
0
 10
132.0974125171021
 20
67.298338085697395
 30
0.0
  0
VERTEX
  5
7AF
  8
0
 10
132.1571352617261
 20
67.180393642125836
 30
0.0
  0
VERTEX
  5
7B0
  8
0
 10
132.18542852026641
 20
67.119027696216307
 30
0.0
  0
SEQEND
  5
7B1
  8
0
  0
LINE
  5
1A7
  8
1
 10
140.19516081704501
 20
52.81100023188705
 30
0.0
 11
140.19516081704501
 21
73.311000231887064
 31
0.0
  0
LINE
  5
1A8
  8
0
 10
66.129356968808224
 20
55.011000231887039
 30
0.0
 11
66.129356968808224
 21
54.81100023188705
 31
0.0
  0
LINE
  5
1A9
  8
0
 10
76.129356968808224
 20
54.81100023188705
 30
0.0
 11
76.129356968808224
 21
55.011000231887039
 31
0.0
  0
LINE
  5
1AA
  8
0
 10
65.129356968808224
 20
69.311000231887036
 30
0.0
 11
65.129356968808224
 21
55.011000231887039
 31
0.0
  0
LINE
  5
1AB
  8
0
 10
77.129356968808224
 20
55.011000231887039
 30
0.0
 11
77.129356968808224
 21
69.311000231887036
 31
0.0
  0
LINE
  5
1AC
  8
0
 10
74.018744453979025
 20
63.7190982688372
 30
0.0
 11
74.018744453979025
 21
68.902902194935024
 31
0.0
  0
LINE
  5
1AD
  8
0
 10
68.239969483637424
 20
68.9029021949369
 30
0.0
 11
68.239969483637424
 21
63.719098268839069
 31
0.0
  0
ARC
  5
1AE
  8
0
 10
77.779356968809338
 20
67.061000231887306
 30
0.0
 40
9.8600000000011487
 50
186.11306888818231
 51
194.65120340470889
  0
ARC
  5
1AF
  8
0
 10
77.779356968808486
 20
64.961000231887056
 30
0.0
 40
9.8600000000002819
 50
165.34879659529099
 51
173.88693111181769
  0
ARC
  5
1B0
  8
0
 10
64.479356968808474
 20
67.061000231887078
 30
0.0
 40
9.8599999999997987
 50
345.34879659529099
 51
353.88693111181772
  0
ARC
  5
1B1
  8
0
 10
64.479356968808304
 20
64.961000231887056
 30
0.0
 40
9.8599999999999497
 50
6.1130688881822941
 51
14.651203404708941
  0
ARC
  5
1B2
  8
0
 10
71.129356968808224
 20
62.65100023188711
 30
0.0
 40
8.6599999999999966
 50
58.692531574649891
 51
72.140717403043794
  0
ARC
  5
1B3
  8
0
 10
71.129356968808167
 20
62.651000231887281
 30
0.0
 40
8.6599999999997781
 50
107.85928259695621
 51
121.30746842535009
  0
LINE
  5
1B4
  8
0
 10
66.629356968808224
 20
70.050027194941066
 30
0.0
 11
66.629356968808224
 21
69.671900424031804
 31
0.0
  0
LINE
  5
1B5
  8
0
 10
75.629356968808224
 20
69.671900424031804
 30
0.0
 11
75.629356968808224
 21
70.050027194941066
 31
0.0
  0
LINE
  5
1B6
  8
0
 10
76.129356968808224
 20
54.81100023188705
 30
0.0
 11
66.129356968808224
 21
54.81100023188705
 31
0.0
  0
LINE
  5
1B7
  8
0
 10
73.574901200788759
 20
71.31100023188705
 30
0.0
 11
68.683812736827747
 21
71.31100023188705
 31
0.0
  0
POLYLINE
  5
1B8
  8
0
 66
     1
 10
0.0
 20
0.0
 30
0.0
  0
VERTEX
  5
7B2
  8
0
 10
65.129356968808224
 20
69.311000231887036
 30
0.0
  0
VERTEX
  5
7B3
  8
0
 10
65.131269320699857
 20
69.311521705467584
 30
0.0
  0
VERTEX
  5
7B4
  8
0
 10
65.146824450209351
 20
69.315757670458169
 30
0.0
  0
VERTEX
  5
7B5
  8
0
 10
65.178479889404457
 20
69.324346598053324
 30
0.0
  0
VERTEX
  5
7B6
  8
0
 10
65.20046843529218
 20
69.330287794778513
 30
0.0
  0
VERTEX
  5
7B7
  8
0
 10
65.226604584718757
 20
69.337323122493757
 30
0.0
  0
VERTEX
  5
7B8
  8
0
 10
65.291370863576958
 20
69.354632550394882
 30
0.0
  0
VERTEX
  5
7B9
  8
0
 10
65.372765699300771
 20
69.37613430924759
 30
0.0
  0
VERTEX
  5
7BA
  8
0
 10
65.470585043976826
 20
69.401602711707284
 30
0.0
  0
VERTEX
  5
7BB
  8
0
 10
65.584442132907725
 20
69.430733310814304
 30
0.0
  0
VERTEX
  5
7BC
  8
0
 10
65.713844751878696
 20
69.463168015126683
 30
0.0
  0
VERTEX
  5
7BD
  8
0
 10
65.784192050261595
 20
69.48049890904835
 30
0.0
  0
VERTEX
  5
7BE
  8
0
 10
65.858173498299664
 20
69.498495213440336
 30
0.0
  0
VERTEX
  5
7BF
  8
0
 10
66.016585641549
 20
69.536234317075383
 30
0.0
  0
VERTEX
  5
7C0
  8
0
 10
66.188079751215184
 20
69.575862308673749
 30
0.0
  0
VERTEX
  5
7C1
  8
0
 10
66.371515410228653
 20
69.616829210699194
 30
0.0
  0
VERTEX
  5
7C2
  8
0
 10
66.565594179042137
 20
69.658565477309111
 30
0.0
  0
VERTEX
  5
7C3
  8
0
 10
66.768849700686928
 20
69.700492981122665
 30
0.0
  0
VERTEX
  5
7C4
  8
0
 10
66.873420089848992
 20
69.721349963351287
 30
0.0
  0
VERTEX
  5
7C5
  8
0
 10
66.980432878488315
 20
69.742190086048282
 30
0.0
  0
VERTEX
  5
7C6
  8
0
 10
67.204954637534513
 20
69.784250972936974
 30
0.0
  0
VERTEX
  5
7C7
  8
0
 10
67.442883999626474
 20
69.826352621267318
 30
0.0
  0
VERTEX
  5
7C8
  8
0
 10
67.566610237898431
 20
69.847236250035934
 30
0.0
  0
SEQEND
  5
7C9
  8
0
  0
LINE
  5
1B9
  8
0
 10
74.692103699718004
 20
58.31100023188705
 30
0.0
 11
67.566610237898431
 21
58.31100023188705
 31
0.0
  0
POLYLINE
  5
1BA
  8
0
 66
     1
 10
0.0
 20
0.0
 30
0.0
  0
VERTEX
  5
7CA
  8
0
 10
74.692103699718004
 20
69.847236250035934
 30
0.0
  0
VERTEX
  5
7CB
  8
0
 10
74.815829937990031
 20
69.826352621267318
 30
0.0
  0
VERTEX
  5
7CC
  8
0
 10
75.053759300081992
 20
69.784250972936974
 30
0.0
  0
VERTEX
  5
7CD
  8
0
 10
75.278281059128176
 20
69.742190086048282
 30
0.0
  0
VERTEX
  5
7CE
  8
0
 10
75.385293847767571
 20
69.721349963351287
 30
0.0
  0
VERTEX
  5
7CF
  8
0
 10
75.489864236929577
 20
69.700492981122665
 30
0.0
  0
VERTEX
  5
7D0
  8
0
 10
75.693119758574312
 20
69.658565477309111
 30
0.0
  0
VERTEX
  5
7D1
  8
0
 10
75.887198527387795
 20
69.616829210699194
 30
0.0
  0
VERTEX
  5
7D2
  8
0
 10
76.070634186401321
 20
69.575862308673749
 30
0.0
  0
VERTEX
  5
7D3
  8
0
 10
76.242128296067563
 20
69.536234317075383
 30
0.0
  0
VERTEX
  5
7D4
  8
0
 10
76.400540439316842
 20
69.498495213440336
 30
0.0
  0
VERTEX
  5
7D5
  8
0
 10
76.474521887354854
 20
69.48049890904835
 30
0.0
  0
VERTEX
  5
7D6
  8
0
 10
76.544869185737795
 20
69.463168015126683
 30
0.0
  0
VERTEX
  5
7D7
  8
0
 10
76.674271804708781
 20
69.430733310814304
 30
0.0
  0
VERTEX
  5
7D8
  8
0
 10
76.788128893639666
 20
69.401602711707284
 30
0.0
  0
VERTEX
  5
7D9
  8
0
 10
76.885948238315677
 20
69.37613430924759
 30
0.0
  0
VERTEX
  5
7DA
  8
0
 10
76.967343074039533
 20
69.354632550394882
 30
0.0
  0
VERTEX
  5
7DB
  8
0
 10
77.032109352897805
 20
69.337323122493757
 30
0.0
  0
VERTEX
  5
7DC
  8
0
 10
77.058245502324326
 20
69.330287794778513
 30
0.0
  0
VERTEX
  5
7DD
  8
0
 10
77.080234048212105
 20
69.324346598053324
 30
0.0
  0
VERTEX
  5
7DE
  8
0
 10
77.111889487407211
 20
69.315757670458169
 30
0.0
  0
VERTEX
  5
7DF
  8
0
 10
77.127444616916705
 20
69.311521705467584
 30
0.0
  0
VERTEX
  5
7E0
  8
0
 10
77.129356968808224
 20
69.311000231887036
 30
0.0
  0
SEQEND
  5
7E1
  8
0
  0
LINE
  5
1BB
  8
0
 10
77.129356968808224
 20
55.011000231887039
 30
0.0
 11
65.129356968808224
 21
55.011000231887039
 31
0.0
  0
POLYLINE
  5
1BC
  8
0
 66
     1
 10
0.0
 20
0.0
 30
0.0
  0
VERTEX
  5
7E2
  8
0
 10
68.683812736827747
 20
71.31100023188705
 30
0.0
  0
VERTEX
  5
7E3
  8
0
 10
68.670087323040093
 20
71.309299974070285
 30
0.0
  0
VERTEX
  5
7E4
  8
0
 10
68.641830686603484
 20
71.295065104003498
 30
0.0
  0
VERTEX
  5
7E5
  8
0
 10
68.612906502139694
 20
71.265393198413932
 30
0.0
  0
VERTEX
  5
7E6
  8
0
 10
68.598346345944435
 20
71.244590571143107
 30
0.0
  0
VERTEX
  5
7E7
  8
0
 10
68.583799836119795
 20
71.219819246301569
 30
0.0
  0
VERTEX
  5
7E8
  8
0
 10
68.554972693815898
 20
71.158696634445249
 30
0.0
  0
VERTEX
  5
7E9
  8
0
 10
68.526868118253773
 20
71.083194784634856
 30
0.0
  0
VERTEX
  5
7EA
  8
0
 10
68.499920310180926
 20
70.995331201338871
 30
0.0
  0
VERTEX
  5
7EB
  8
0
 10
68.474407079103344
 20
70.897385003148216
 30
0.0
  0
VERTEX
  5
7EC
  8
0
 10
68.448908376035547
 20
70.784185942139089
 30
0.0
  0
VERTEX
  5
7ED
  8
0
 10
68.436095614165126
 20
70.721160789082802
 30
0.0
  0
VERTEX
  5
7EE
  8
0
 10
68.423323057492951
 20
70.654009244446542
 30
0.0
  0
VERTEX
  5
7EF
  8
0
 10
68.398130212418607
 20
70.508081754561573
 30
0.0
  0
VERTEX
  5
7F0
  8
0
 10
68.373756744823197
 20
70.348330222667101
 30
0.0
  0
VERTEX
  5
7F1
  8
0
 10
68.350575705453366
 20
70.17736053464634
 30
0.0
  0
VERTEX
  5
7F2
  8
0
 10
68.328918424899484
 20
69.998545537961974
 30
0.0
  0
VERTEX
  5
7F3
  8
0
 10
68.30903295075052
 20
69.815657139997555
 30
0.0
  0
VERTEX
  5
7F4
  8
0
 10
68.299448066257582
 20
69.720239528040651
 30
0.0
  0
VERTEX
  5
7F5
  8
0
 10
68.28994289234015
 20
69.620408621327016
 30
0.0
  0
VERTEX
  5
7F6
  8
0
 10
68.271393539329438
 20
69.408726420189197
 30
0.0
  0
VERTEX
  5
7F7
  8
0
 10
68.253789162133216
 20
69.183421779798351
 30
0.0
  0
VERTEX
  5
7F8
  8
0
 10
68.245447588269144
 20
69.066676210418535
 30
0.0
  0
SEQEND
  5
7F9
  8
0
  0
POLYLINE
  5
1BD
  8
0
 66
     1
 10
0.0
 20
0.0
 30
0.0
  0
VERTEX
  5
7FA
  8
0
 10
68.245447588269144
 20
63.555324253355572
 30
0.0
  0
VERTEX
  5
7FB
  8
0
 10
68.249890092444616
 20
63.492266946842648
 30
0.0
  0
VERTEX
  5
7FC
  8
0
 10
68.259060664109597
 20
63.368296803546151
 30
0.0
  0
VERTEX
  5
7FD
  8
0
 10
68.268573343377113
 20
63.247633016346718
 30
0.0
  0
VERTEX
  5
7FE
  8
0
 10
68.273441808177381
 20
63.188701926731
 30
0.0
  0
VERTEX
  5
7FF
  8
0
 10
68.278375563358281
 20
63.130786023318223
 30
0.0
  0
VERTEX
  5
800
  8
0
 10
68.288408256812772
 20
63.018227607160071
 30
0.0
  0
VERTEX
  5
801
  8
0
 10
68.298606584677827
 20
62.910383077401058
 30
0.0
  0
VERTEX
  5
802
  8
0
 10
68.308900779912264
 20
62.80762519433344
 30
0.0
  0
VERTEX
  5
803
  8
0
 10
68.31936438301318
 20
62.708918342945907
 30
0.0
  0
VERTEX
  5
804
  8
0
 10
68.330354687388876
 20
62.610971838004133
 30
0.0
  0
VERTEX
  5
805
  8
0
 10
68.336045378806489
 20
62.562412417146469
 30
0.0
  0
VERTEX
  5
806
  8
0
 10
68.341859882458948
 20
62.514238782655951
 30
0.0
  0
VERTEX
  5
807
  8
0
 10
68.353838616996086
 20
62.41936115342682
 30
0.0
  0
VERTEX
  5
808
  8
0
 10
68.36624433102088
 20
62.326930426883251
 30
0.0
  0
VERTEX
  5
809
  8
0
 10
68.379025961860975
 20
62.237480148633523
 30
0.0
  0
VERTEX
  5
80A
  8
0
 10
68.392128852149426
 20
62.151479494709953
 30
0.0
  0
VERTEX
  5
80B
  8
0
 10
68.40549616612816
 20
62.069326191444901
 30
0.0
  0
VERTEX
  5
80C
  8
0
 10
68.412259847332166
 20
62.029802504087598
 30
0.0
  0
VERTEX
  5
80D
  8
0
 10
68.419065850741447
 20
61.99136734988295
 30
0.0
  0
VERTEX
  5
80E
  8
0
 10
68.43277007175908
 20
61.91790012576169
 30
0.0
  0
VERTEX
  5
80F
  8
0
 10
68.446537033110189
 20
61.849159962071873
 30
0.0
  0
VERTEX
  5
810
  8
0
 10
68.453420772550999
 20
61.816618209415168
 30
0.0
  0
SEQEND
  5
811
  8
0
  0
POLYLINE
  5
1BE
  8
0
 66
     1
 10
0.0
 20
0.0
 30
0.0
  0
VERTEX
  5
812
  8
0
 10
68.453420772550999
 20
61.816618209415168
 30
0.0
  0
VERTEX
  5
813
  8
0
 10
68.558917637011291
 20
61.327239449215121
 30
0.0
  0
VERTEX
  5
814
  8
0
 10
68.743499102532041
 20
60.472227489940082
 30
0.0
  0
VERTEX
  5
815
  8
0
 10
68.899707852164894
 20
59.750436540869572
 30
0.0
  0
VERTEX
  5
816
  8
0
 10
68.969167945323363
 20
59.43025945242524
 30
0.0
  0
SEQEND
  5
817
  8
0
  0
POLYLINE
  5
1BF
  8
0
 66
     1
 10
0.0
 20
0.0
 30
0.0
  0
VERTEX
  5
818
  8
0
 10
73.289545992293142
 20
59.43025945242524
 30
0.0
  0
VERTEX
  5
819
  8
0
 10
73.359006085451597
 20
59.750436540869678
 30
0.0
  0
VERTEX
  5
81A
  8
0
 10
73.515214835084521
 20
60.472227489940423
 30
0.0
  0
VERTEX
  5
81B
  8
0
 10
73.699796300605271
 20
61.327239449215398
 30
0.0
  0
VERTEX
  5
81C
  8
0
 10
73.805293165065507
 20
61.816618209415168
 30
0.0
  0
SEQEND
  5
81D
  8
0
  0
POLYLINE
  5
1C0
  8
0
 66
     1
 10
0.0
 20
0.0
 30
0.0
  0
VERTEX
  5
81E
  8
0
 10
73.805293165065507
 20
61.816618209415168
 30
0.0
  0
VERTEX
  5
81F
  8
0
 10
73.812176904506316
 20
61.849159962071923
 30
0.0
  0
VERTEX
  5
820
  8
0
 10
73.825943865857425
 20
61.917900125761811
 30
0.0
  0
VERTEX
  5
821
  8
0
 10
73.839648086875059
 20
61.991367349883063
 30
0.0
  0
VERTEX
  5
822
  8
0
 10
73.84645409028434
 20
62.029802504087712
 30
0.0
  0
VERTEX
  5
823
  8
0
 10
73.853217771488346
 20
62.069326191445022
 30
0.0
  0
VERTEX
  5
824
  8
0
 10
73.866585085467136
 20
62.151479494710173
 30
0.0
  0
VERTEX
  5
825
  8
0
 10
73.879687975755587
 20
62.237480148633807
 30
0.0
  0
VERTEX
  5
826
  8
0
 10
73.892469606595682
 20
62.326930426883592
 30
0.0
  0
VERTEX
  5
827
  8
0
 10
73.904875320620476
 20
62.419361153427161
 30
0.0
  0
VERTEX
  5
828
  8
0
 10
73.916854055157614
 20
62.514238782656399
 30
0.0
  0
VERTEX
  5
829
  8
0
 10
73.922668558810074
 20
62.56241241714693
 30
0.0
  0
VERTEX
  5
82A
  8
0
 10
73.928359250227686
 20
62.610971838004637
 30
0.0
  0
VERTEX
  5
82B
  8
0
 10
73.939349554603382
 20
62.708918342946482
 30
0.0
  0
VERTEX
  5
82C
  8
0
 10
73.949813157704284
 20
62.807625194334058
 30
0.0
  0
VERTEX
  5
82D
  8
0
 10
73.960107352938735
 20
62.910383077401796
 30
0.0
  0
VERTEX
  5
82E
  8
0
 10
73.970305680803847
 20
63.018227607160917
 30
0.0
  0
VERTEX
  5
82F
  8
0
 10
73.980338374258281
 20
63.130786023319132
 30
0.0
  0
VERTEX
  5
830
  8
0
 10
73.985272129439181
 20
63.188701926731959
 30
0.0
  0
VERTEX
  5
831
  8
0
 10
73.990140594239506
 20
63.247633016347741
 30
0.0
  0
VERTEX
  5
832
  8
0
 10
73.999653273506965
 20
63.368296803547217
 30
0.0
  0
VERTEX
  5
833
  8
0
 10
74.008823845172003
 20
63.492266946843891
 30
0.0
  0
VERTEX
  5
834
  8
0
 10
74.013266349347305
 20
63.555324253355572
 30
0.0
  0
SEQEND
  5
835
  8
0
  0
POLYLINE
  5
1C1
  8
0
 66
     1
 10
0.0
 20
0.0
 30
0.0
  0
VERTEX
  5
836
  8
0
 10
74.013266349347305
 20
69.066676210418535
 30
0.0
  0
VERTEX
  5
837
  8
0
 10
74.004924775483104
 20
69.183421779800796
 30
0.0
  0
VERTEX
  5
838
  8
0
 10
73.987320398286897
 20
69.408726420191357
 30
0.0
  0
VERTEX
  5
839
  8
0
 10
73.968771045276185
 20
69.620408621328934
 30
0.0
  0
VERTEX
  5
83A
  8
0
 10
73.959265871358753
 20
69.72023952804247
 30
0.0
  0
VERTEX
  5
83B
  8
0
 10
73.949680986865815
 20
69.815657139999217
 30
0.0
  0
VERTEX
  5
83C
  8
0
 10
73.929795512716851
 20
69.998545537963452
 30
0.0
  0
VERTEX
  5
83D
  8
0
 10
73.908138232162969
 20
70.177360534647647
 30
0.0
  0
VERTEX
  5
83E
  8
0
 10
73.884957192793138
 20
70.348330222668295
 30
0.0
  0
VERTEX
  5
83F
  8
0
 10
73.860583725197728
 20
70.508081754562596
 30
0.0
  0
VERTEX
  5
840
  8
0
 10
73.835390880123384
 20
70.654009244447337
 30
0.0
  0
VERTEX
  5
841
  8
0
 10
73.822618323451252
 20
70.721160789083541
 30
0.0
  0
VERTEX
  5
842
  8
0
 10
73.809805561580774
 20
70.784185942139715
 30
0.0
  0
VERTEX
  5
843
  8
0
 10
73.784306858512991
 20
70.897385003148742
 30
0.0
  0
VERTEX
  5
844
  8
0
 10
73.758793627435466
 20
70.995331201339212
 30
0.0
  0
VERTEX
  5
845
  8
0
 10
73.731845819362604
 20
71.083194784635126
 30
0.0
  0
VERTEX
  5
846
  8
0
 10
73.70374124380055
 20
71.158696634445405
 30
0.0
  0
VERTEX
  5
847
  8
0
 10
73.674914101496654
 20
71.219819246301682
 30
0.0
  0
VERTEX
  5
848
  8
0
 10
73.660367591672014
 20
71.24459057114322
 30
0.0
  0
VERTEX
  5
849
  8
0
 10
73.64580743547674
 20
71.265393198413975
 30
0.0
  0
VERTEX
  5
84A
  8
0
 10
73.61688325101295
 20
71.295065104003498
 30
0.0
  0
VERTEX
  5
84B
  8
0
 10
73.588626614576356
 20
71.309299974070285
 30
0.0
  0
VERTEX
  5
84C
  8
0
 10
73.574901200788759
 20
71.31100023188705
 30
0.0
  0
SEQEND
  5
84D
  8
0
  0
POLYLINE
  5
1C2
  8
0
 66
     1
 10
0.0
 20
0.0
 30
0.0
  0
VERTEX
  5
84E
  8
0
 10
74.013266349347305
 20
63.555324253355572
 30
0.0
  0
VERTEX
  5
84F
  8
0
 10
74.014971481447333
 20
63.582378154033591
 30
0.0
  0
VERTEX
  5
850
  8
0
 10
74.017408280237589
 20
63.636782743542462
 30
0.0
  0
VERTEX
  5
851
  8
0
 10
74.018598327431903
 20
63.691562508156352
 30
0.0
  0
VERTEX
  5
852
  8
0
 10
74.018744453979025
 20
63.71909826890041
 30
0.0
  0
SEQEND
  5
853
  8
0
  0
POLYLINE
  5
1C3
  8
0
 66
     1
 10
0.0
 20
0.0
 30
0.0
  0
VERTEX
  5
854
  8
0
 10
74.018744453979025
 20
63.71909826890041
 30
0.0
  0
VERTEX
  5
855
  8
0
 10
74.018638853215563
 20
63.74275358854581
 30
0.0
  0
VERTEX
  5
856
  8
0
 10
74.017806801755285
 20
63.790265039562108
 30
0.0
  0
VERTEX
  5
857
  8
0
 10
74.016174855959889
 20
63.838032442812711
 30
0.0
  0
VERTEX
  5
858
  8
0
 10
74.015069210097067
 20
63.862007634787147
 30
0.0
  0
VERTEX
  5
859
  8
0
 10
74.013775852711433
 20
63.88604138668606
 30
0.0
  0
VERTEX
  5
85A
  8
0
 10
74.010642003034718
 20
63.934277151863881
 30
0.0
  0
VERTEX
  5
85B
  8
0
 10
74.006805009113975
 20
63.982724704913522
 30
0.0
  0
VERTEX
  5
85C
  8
0
 10
74.002296168242651
 20
64.031368702305571
 30
0.0
  0
VERTEX
  5
85D
  8
0
 10
73.997146464651394
 20
64.080193503369941
 30
0.0
  0
VERTEX
  5
85E
  8
0
 10
73.991390481743792
 20
64.129152139142519
 30
0.0
  0
VERTEX
  5
85F
  8
0
 10
73.988299584868855
 20
64.153641278301251
 30
0.0
  0
VERTEX
  5
860
  8
0
 10
73.985072632759966
 20
64.178133346908766
 30
0.0
  0
VERTEX
  5
861
  8
0
 10
73.97822696192253
 20
64.227123100863849
 30
0.0
  0
VERTEX
  5
862
  8
0
 10
73.970885695822119
 20
64.276114999520843
 30
0.0
  0
VERTEX
  5
863
  8
0
 10
73.963080239661451
 20
64.325102529419922
 30
0.0
  0
VERTEX
  5
864
  8
0
 10
73.954841302252305
 20
64.374079045253126
 30
0.0
  0
VERTEX
  5
865
  8
0
 10
73.946199010963767
 20
64.423037758335255
 30
0.0
  0
VERTEX
  5
866
  8
0
 10
73.941735889627637
 20
64.447508277008836
 30
0.0
  0
VERTEX
  5
867
  8
0
 10
73.937183017465586
 20
64.471971732409969
 30
0.0
  0
VERTEX
  5
868
  8
0
 10
73.927822595079533
 20
64.520873885840302
 30
0.0
  0
VERTEX
  5
869
  8
0
 10
73.918146728513193
 20
64.569736999289461
 30
0.0
  0
VERTEX
  5
86A
  8
0
 10
73.913199502983275
 20
64.594151625277135
 30
0.0
  0
VERTEX
  5
86B
  8
0
 10
73.882211594230384
 20
64.740343484469037
 30
0.0
  0
VERTEX
  5
86C
  8
0
 10
73.815983023585432
 20
65.030553760330434
 30
0.0
  0
VERTEX
  5
86D
  8
0
 10
73.749398890647853
 20
65.316506561216187
 30
0.0
  0
VERTEX
  5
86E
  8
0
 10
73.713063769861833
 20
65.480728200426285
 30
0.0
  0
VERTEX
  5
86F
  8
0
 10
73.703267575854682
 20
65.527295301228804
 30
0.0
  0
VERTEX
  5
870
  8
0
 10
73.693728116727414
 20
65.574016994055583
 30
0.0
  0
VERTEX
  5
871
  8
0
 10
73.689064137537045
 20
65.597450102349484
 30
0.0
  0
VERTEX
  5
872
  8
0
 10
73.684477988416063
 20
65.620929136921262
 30
0.0
  0
VERTEX
  5
873
  8
0
 10
73.675561603160233
 20
65.668018303535717
 30
0.0
  0
VERTEX
  5
874
  8
0
 10
73.667024389265123
 20
65.715271200621686
 30
0.0
  0
VERTEX
  5
875
  8
0
 10
73.658912466951222
 20
65.762674588453905
 30
0.0
  0
VERTEX
  5
876
  8
0
 10
73.651272240642697
 20
65.810215196909695
 30
0.0
  0
VERTEX
  5
877
  8
0
 10
73.644149900682237
 20
65.857879649774901
 30
0.0
  0
VERTEX
  5
878
  8
0
 10
73.640797182044537
 20
65.88175401076407
 30
0.0
  0
VERTEX
  5
879
  8
0
 10
73.637591778663136
 20
65.905647186481374
 30
0.0
  0
VERTEX
  5
87A
  8
0
 10
73.63164363404502
 20
65.953485843234347
 30
0.0
  0
VERTEX
  5
87B
  8
0
 10
73.626342381058862
 20
66.001417126158032
 30
0.0
  0
VERTEX
  5
87C
  8
0
 10
73.621723358326562
 20
66.049468489317434
 30
0.0
  0
VERTEX
  5
87D
  8
0
 10
73.617820671385516
 20
66.097667321909995
 30
0.0
  0
VERTEX
  5
87E
  8
0
 10
73.614666898301365
 20
66.146036160584202
 30
0.0
  0
VERTEX
  5
87F
  8
0
 10
73.613382372514764
 20
66.17024921072462
 30
0.0
  0
VERTEX
  5
880
  8
0
 10
73.612297165935786
 20
66.19446795017862
 30
0.0
  0
VERTEX
  5
881
  8
0
 10
73.610732251556954
 20
66.242951519906427
 30
0.0
  0
VERTEX
  5
882
  8
0
 10
73.609986438293561
 20
66.291489666990032
 30
0.0
  0
VERTEX
  5
883
  8
0
 10
73.609923526014143
 20
66.31575464660736
 30
0.0
  0
VERTEX
  5
884
  8
0
 10
73.610067570185947
 20
66.340026364819352
 30
0.0
  0
VERTEX
  5
885
  8
0
 10
73.610974767786672
 20
66.388554603663664
 30
0.0
  0
VERTEX
  5
886
  8
0
 10
73.612698863925345
 20
66.437031365821525
 30
0.0
  0
VERTEX
  5
887
  8
0
 10
73.613863436211091
 20
66.461265522591731
 30
0.0
  0
VERTEX
  5
888
  8
0
 10
73.615225028523639
 20
66.485466639912971
 30
0.0
  0
VERTEX
  5
889
  8
0
 10
73.618524935553353
 20
66.533758146257952
 30
0.0
  0
VERTEX
  5
88A
  8
0
 10
73.622570937915555
 20
66.581935077004488
 30
0.0
  0
VERTEX
  5
88B
  8
0
 10
73.627334155809081
 20
66.630037142551288
 30
0.0
  0
VERTEX
  5
88C
  8
0
 10
73.632786475055582
 20
66.67812060136967
 30
0.0
  0
VERTEX
  5
88D
  8
0
 10
73.638903669390857
 20
66.726270171114294
 30
0.0
  0
VERTEX
  5
88E
  8
0
 10
73.642201053476413
 20
66.750371550795222
 30
0.0
  0
VERTEX
  5
88F
  8
0
 10
73.64565152949956
 20
66.774490182737765
 30
0.0
  0
VERTEX
  5
890
  8
0
 10
73.652992691466693
 20
66.822777888825755
 30
0.0
  0
VERTEX
  5
891
  8
0
 10
73.660888049320988
 20
66.871130866870573
 30
0.0
  0
VERTEX
  5
892
  8
0
 10
73.669297329534785
 20
66.919547006302963
 30
0.0
  0
VERTEX
  5
893
  8
0
 10
73.67817959520471
 20
66.968024452392314
 30
0.0
  0
VERTEX
  5
894
  8
0
 10
73.687493673414792
 20
67.016561523910838
 30
0.0
  0
VERTEX
  5
895
  8
0
 10
73.69229979885813
 20
67.040851918075106
 30
0.0
  0
VERTEX
  5
896
  8
0
 10
73.697198505428503
 20
67.065156618651955
 30
0.0
  0
VERTEX
  5
897
  8
0
 10
73.707253423795066
 20
67.113808117854632
 30
0.0
  0
VERTEX
  5
898
  8
0
 10
73.717618363312454
 20
67.162514297656145
 30
0.0
  0
VERTEX
  5
899
  8
0
 10
73.755777462227741
 20
67.333386746201796
 30
0.0
  0
VERTEX
  5
89A
  8
0
 10
73.824399778211045
 20
67.627460332346999
 30
0.0
  0
VERTEX
  5
89B
  8
0
 10
73.890476880303822
 20
67.919685117008015
 30
0.0
  0
VERTEX
  5
89C
  8
0
 10
73.92053350825438
 20
68.064173707377819
 30
0.0
  0
VERTEX
  5
89D
  8
0
 10
73.925281832357655
 20
68.08814223863024
 30
0.0
  0
VERTEX
  5
89E
  8
0
 10
73.934528419240223
 20
68.1359790801732
 30
0.0
  0
VERTEX
  5
89F
  8
0
 10
73.943422437081153
 20
68.183679677778315
 30
0.0
  0
VERTEX
  5
8A0
  8
0
 10
73.947730087343814
 20
68.207477898683265
 30
0.0
  0
VERTEX
  5
8A1
  8
0
 10
73.951941034199763
 20
68.23124087401564
 30
0.0
  0
VERTEX
  5
8A2
  8
0
 10
73.960061440780237
 20
68.278659510705182
 30
0.0
  0
VERTEX
  5
8A3
  8
0
 10
73.967760889803742
 20
68.32593244870182
 30
0.0
  0
VERTEX
  5
8A4
  8
0
 10
73.975016536052806
 20
68.373056584369664
 30
0.0
  0
VERTEX
  5
8A5
  8
0
 10
73.981805372386475
 20
68.420028862147802
 30
0.0
  0
VERTEX
  5
8A6
  8
0
 10
73.98810414250039
 20
68.46684628257654
 30
0.0
  0
VERTEX
  5
8A7
  8
0
 10
73.991062394575692
 20
68.490196000104874
 30
0.0
  0
VERTEX
  5
8A8
  8
0
 10
73.993889249402955
 20
68.513505905111884
 30
0.0
  0
VERTEX
  5
8A9
  8
0
 10
73.999137010119284
 20
68.560008125317239
 30
0.0
  0
VERTEX
  5
8AA
  8
0
 10
74.003822794371274
 20
68.606350757123408
 30
0.0
  0
VERTEX
  5
8AB
  8
0
 10
74.00792046196284
 20
68.65252173399918
 30
0.0
  0
VERTEX
  5
8AC
  8
0
 10
74.011403589297117
 20
68.698509029463395
 30
0.0
  0
VERTEX
  5
8AD
  8
0
 10
74.01424541784661
 20
68.744300836944007
 30
0.0
  0
VERTEX
  5
8AE
  8
0
 10
74.015417371902458
 20
68.767119803611109
 30
0.0
  0
VERTEX
  5
8AF
  8
0
 10
74.016418773981627
 20
68.789885570588211
 30
0.0
  0
VERTEX
  5
8B0
  8
0
 10
74.017895980064566
 20
68.835251861000273
 30
0.0
  0
VERTEX
  5
8B1
  8
0
 10
74.018648894394289
 20
68.880404908487179
 30
0.0
  0
VERTEX
  5
8B2
  8
0
 10
74.018744453979025
 20
68.902902194943835
 30
0.0
  0
SEQEND
  5
8B3
  8
0
  0
POLYLINE
  5
1C4
  8
0
 66
     1
 10
0.0
 20
0.0
 30
0.0
  0
VERTEX
  5
8B4
  8
0
 10
74.018744453979025
 20
68.902902194943835
 30
0.0
  0
VERTEX
  5
8B5
  8
0
 10
74.018598360309738
 20
68.930434875305849
 30
0.0
  0
VERTEX
  5
8B6
  8
0
 10
74.017407915007993
 20
68.985228776805712
 30
0.0
  0
VERTEX
  5
8B7
  8
0
 10
74.01497096312778
 20
69.039631430346077
 30
0.0
  0
VERTEX
  5
8B8
  8
0
 10
74.013266349347305
 20
69.066676210418535
 30
0.0
  0
SEQEND
  5
8B9
  8
0
  0
POLYLINE
  5
1C5
  8
0
 66
     1
 10
0.0
 20
0.0
 30
0.0
  0
VERTEX
  5
8BA
  8
0
 10
68.245447588269144
 20
69.066676210418535
 30
0.0
  0
VERTEX
  5
8BB
  8
0
 10
68.243742456169173
 20
69.039622309740508
 30
0.0
  0
VERTEX
  5
8BC
  8
0
 10
68.241305657378916
 20
68.985217720231702
 30
0.0
  0
VERTEX
  5
8BD
  8
0
 10
68.240115610184603
 20
68.930437955617748
 30
0.0
  0
VERTEX
  5
8BE
  8
0
 10
68.239969483637424
 20
68.902902194873676
 30
0.0
  0
SEQEND
  5
8BF
  8
0
  0
POLYLINE
  5
1C6
  8
0
 66
     1
 10
0.0
 20
0.0
 30
0.0
  0
VERTEX
  5
8C0
  8
0
 10
68.239969483637424
 20
68.902902194873676
 30
0.0
  0
VERTEX
  5
8C1
  8
0
 10
68.240075084400928
 20
68.879246875228461
 30
0.0
  0
VERTEX
  5
8C2
  8
0
 10
68.240907135861221
 20
68.831735424212383
 30
0.0
  0
VERTEX
  5
8C3
  8
0
 10
68.24253908165656
 20
68.783968020962078
 30
0.0
  0
VERTEX
  5
8C4
  8
0
 10
68.243644727519381
 20
68.759992828987805
 30
0.0
  0
VERTEX
  5
8C5
  8
0
 10
68.244938084905016
 20
68.735959077089063
 30
0.0
  0
VERTEX
  5
8C6
  8
0
 10
68.248071934581674
 20
68.687723311911526
 30
0.0
  0
VERTEX
  5
8C7
  8
0
 10
68.251908928502417
 20
68.639275758862169
 30
0.0
  0
VERTEX
  5
8C8
  8
0
 10
68.256417769373627
 20
68.590631761470405
 30
0.0
  0
VERTEX
  5
8C9
  8
0
 10
68.261567472964884
 20
68.541806960406319
 30
0.0
  0
VERTEX
  5
8CA
  8
0
 10
68.267323455872429
 20
68.492848324634082
 30
0.0
  0
VERTEX
  5
8CB
  8
0
 10
68.270414352747366
 20
68.468359185475464
 30
0.0
  0
VERTEX
  5
8CC
  8
0
 10
68.273641304856142
 20
68.443867116868063
 30
0.0
  0
VERTEX
  5
8CD
  8
0
 10
68.28048697569352
 20
68.394877362913263
 30
0.0
  0
VERTEX
  5
8CE
  8
0
 10
68.287828241793875
 20
68.345885464256611
 30
0.0
  0
VERTEX
  5
8CF
  8
0
 10
68.295633697954486
 20
68.296897934357816
 30
0.0
  0
VERTEX
  5
8D0
  8
0
 10
68.303872635363504
 20
68.247921418524896
 30
0.0
  0
VERTEX
  5
8D1
  8
0
 10
68.312514926652
 20
68.198962705442995
 30
0.0
  0
VERTEX
  5
8D2
  8
0
 10
68.316978047988073
 20
68.174492186769584
 30
0.0
  0
VERTEX
  5
8D3
  8
0
 10
68.321530920150053
 20
68.150028731368565
 30
0.0
  0
VERTEX
  5
8D4
  8
0
 10
68.330891342536063
 20
68.101126577938572
 30
0.0
  0
VERTEX
  5
8D5
  8
0
 10
68.340567209102232
 20
68.052263464489698
 30
0.0
  0
VERTEX
  5
8D6
  8
0
 10
68.34551443463215
 20
68.027848838502138
 30
0.0
  0
VERTEX
  5
8D7
  8
0
 10
68.3765023433848
 20
67.881656979311089
 30
0.0
  0
VERTEX
  5
8D8
  8
0
 10
68.442730914029255
 20
67.591446703451339
 30
0.0
  0
VERTEX
  5
8D9
  8
0
 10
68.509315046966549
 20
67.305493902567122
 30
0.0
  0
VERTEX
  5
8DA
  8
0
 10
68.545650167752456
 20
67.141272263357877
 30
0.0
  0
VERTEX
  5
8DB
  8
0
 10
68.555446361759664
 20
67.094705162555641
 30
0.0
  0
VERTEX
  5
8DC
  8
0
 10
68.564985820886932
 20
67.047983469729189
 30
0.0
  0
VERTEX
  5
8DD
  8
0
 10
68.569649800077286
 20
67.024550361435473
 30
0.0
  0
VERTEX
  5
8DE
  8
0
 10
68.574235949198282
 20
67.001071326863865
 30
0.0
  0
VERTEX
  5
8DF
  8
0
 10
68.583152334454155
 20
66.953982160249694
 30
0.0
  0
VERTEX
  5
8E0
  8
0
 10
68.591689548349336
 20
66.90672926316401
 30
0.0
  0
VERTEX
  5
8E1
  8
0
 10
68.599801470663294
 20
66.859325875332132
 30
0.0
  0
VERTEX
  5
8E2
  8
0
 10
68.607441696971932
 20
66.811785266876626
 30
0.0
  0
VERTEX
  5
8E3
  8
0
 10
68.61456403693245
 20
66.764120814011704
 30
0.0
  0
VERTEX
  5
8E4
  8
0
 10
68.617916755570263
 20
66.740246453022706
 30
0.0
  0
VERTEX
  5
8E5
  8
0
 10
68.621122158951721
 20
66.716353277305501
 30
0.0
  0
VERTEX
  5
8E6
  8
0
 10
68.627070303569951
 20
66.668514620552827
 30
0.0
  0
VERTEX
  5
8E7
  8
0
 10
68.632371556556279
 20
66.62058333762954
 30
0.0
  0
VERTEX
  5
8E8
  8
0
 10
68.636990579288749
 20
66.572531974470465
 30
0.0
  0
VERTEX
  5
8E9
  8
0
 10
68.640893266229909
 20
66.524333141878316
 30
0.0
  0
VERTEX
  5
8EA
  8
0
 10
68.644047039314273
 20
66.475964303204506
 30
0.0
  0
VERTEX
  5
8EB
  8
0
 10
68.645331565101003
 20
66.45175125306443
 30
0.0
  0
VERTEX
  5
8EC
  8
0
 10
68.646416771680038
 20
66.427532513610885
 30
0.0
  0
VERTEX
  5
8ED
  8
0
 10
68.647981686059154
 20
66.379048943884214
 30
0.0
  0
VERTEX
  5
8EE
  8
0
 10
68.648727499322831
 20
66.330510796801292
 30
0.0
  0
VERTEX
  5
8EF
  8
0
 10
68.648790411602363
 20
66.306245817184021
 30
0.0
  0
VERTEX
  5
8F0
  8
0
 10
68.648646367430729
 20
66.281974098971915
 30
0.0
  0
VERTEX
  5
8F1
  8
0
 10
68.647739169830288
 20
66.233445860127318
 30
0.0
  0
VERTEX
  5
8F2
  8
0
 10
68.646015073691842
 20
66.184969097969116
 30
0.0
  0
VERTEX
  5
8F3
  8
0
 10
68.644850501406211
 20
66.160734941198726
 30
0.0
  0
VERTEX
  5
8F4
  8
0
 10
68.643488909093833
 20
66.136533823877329
 30
0.0
  0
VERTEX
  5
8F5
  8
0
 10
68.640189002064346
 20
66.088242317531893
 30
0.0
  0
VERTEX
  5
8F6
  8
0
 10
68.636142999702315
 20
66.040065386785017
 30
0.0
  0
VERTEX
  5
8F7
  8
0
 10
68.631379781809017
 20
65.991963321237876
 30
0.0
  0
VERTEX
  5
8F8
  8
0
 10
68.625927462562686
 20
65.943879862419209
 30
0.0
  0
VERTEX
  5
8F9
  8
0
 10
68.619810268227582
 20
65.895730292674301
 30
0.0
  0
VERTEX
  5
8FA
  8
0
 10
68.616512884142139
 20
65.871628912993259
 30
0.0
  0
VERTEX
  5
8FB
  8
0
 10
68.613062408118992
 20
65.847510281050603
 30
0.0
  0
VERTEX
  5
8FC
  8
0
 10
68.605721246151973
 20
65.799222574962272
 30
0.0
  0
VERTEX
  5
8FD
  8
0
 10
68.597825888297791
 20
65.750869596917155
 30
0.0
  0
VERTEX
  5
8FE
  8
0
 10
68.589416608084093
 20
65.702453457484495
 30
0.0
  0
VERTEX
  5
8FF
  8
0
 10
68.580534342414239
 20
65.65397601139486
 30
0.0
  0
VERTEX
  5
900
  8
0
 10
68.571220264204214
 20
65.605438939876052
 30
0.0
  0
VERTEX
  5
901
  8
0
 10
68.566414138760877
 20
65.581148545711613
 30
0.0
  0
VERTEX
  5
902
  8
0
 10
68.561515432190561
 20
65.556843845134637
 30
0.0
  0
VERTEX
  5
903
  8
0
 10
68.551460513823997
 20
65.50819234593169
 30
0.0
  0
VERTEX
  5
904
  8
0
 10
68.541095574306595
 20
65.459486166129835
 30
0.0
  0
VERTEX
  5
905
  8
0
 10
68.502936475391266
 20
65.288613717583104
 30
0.0
  0
VERTEX
  5
906
  8
0
 10
68.434314159407506
 20
64.994540131436025
 30
0.0
  0
VERTEX
  5
907
  8
0
 10
68.368237057314161
 20
64.702315346772906
 30
0.0
  0
VERTEX
  5
908
  8
0
 10
68.338180429363319
 20
64.557826756402136
 30
0.0
  0
VERTEX
  5
909
  8
0
 10
68.333432105259988
 20
64.533858225149601
 30
0.0
  0
VERTEX
  5
90A
  8
0
 10
68.324185518377305
 20
64.4860213836063
 30
0.0
  0
VERTEX
  5
90B
  8
0
 10
68.315291500536262
 20
64.438320786000773
 30
0.0
  0
VERTEX
  5
90C
  8
0
 10
68.310983850273544
 20
64.414522565095723
 30
0.0
  0
VERTEX
  5
90D
  8
0
 10
68.306772903417595
 20
64.390759589763164
 30
0.0
  0
VERTEX
  5
90E
  8
0
 10
68.298652496837008
 20
64.343340953073351
 30
0.0
  0
VERTEX
  5
90F
  8
0
 10
68.290953047813389
 20
64.296068015076372
 30
0.0
  0
VERTEX
  5
910
  8
0
 10
68.283697401564268
 20
64.248943879408188
 30
0.0
  0
VERTEX
  5
911
  8
0
 10
68.276908565230485
 20
64.201971601629765
 30
0.0
  0
VERTEX
  5
912
  8
0
 10
68.270609795116513
 20
64.155154181200686
 30
0.0
  0
VERTEX
  5
913
  8
0
 10
68.267651543041211
 20
64.131804463672239
 30
0.0
  0
VERTEX
  5
914
  8
0
 10
68.264824688213878
 20
64.108494558665058
 30
0.0
  0
VERTEX
  5
915
  8
0
 10
68.259576927497505
 20
64.061992338459362
 30
0.0
  0
VERTEX
  5
916
  8
0
 10
68.254891143245459
 20
64.015649706652852
 30
0.0
  0
VERTEX
  5
917
  8
0
 10
68.250793475653836
 20
63.969478729776739
 30
0.0
  0
VERTEX
  5
918
  8
0
 10
68.247310348319502
 20
63.92349143431224
 30
0.0
  0
VERTEX
  5
919
  8
0
 10
68.244468519769953
 20
63.87769962683123
 30
0.0
  0
VERTEX
  5
91A
  8
0
 10
68.243296565714104
 20
63.854880660163957
 30
0.0
  0
VERTEX
  5
91B
  8
0
 10
68.242295163634864
 20
63.832114893186677
 30
0.0
  0
VERTEX
  5
91C
  8
0
 10
68.24081795755194
 20
63.786748602774281
 30
0.0
  0
VERTEX
  5
91D
  8
0
 10
68.240065043222216
 20
63.741595555287091
 30
0.0
  0
VERTEX
  5
91E
  8
0
 10
68.239969483637424
 20
63.719098268830258
 30
0.0
  0
SEQEND
  5
91F
  8
0
  0
POLYLINE
  5
1C7
  8
0
 66
     1
 10
0.0
 20
0.0
 30
0.0
  0
VERTEX
  5
920
  8
0
 10
68.239969483637424
 20
63.719098268830258
 30
0.0
  0
VERTEX
  5
921
  8
0
 10
68.240115577306767
 20
63.691565588468251
 30
0.0
  0
VERTEX
  5
922
  8
0
 10
68.241306022608512
 20
63.63677168696838
 30
0.0
  0
VERTEX
  5
923
  8
0
 10
68.243742974488669
 20
63.58236903342803
 30
0.0
  0
VERTEX
  5
924
  8
0
 10
68.245447588269144
 20
63.555324253355572
 30
0.0
  0
SEQEND
  5
925
  8
0
  0
POLYLINE
  5
1C8
  8
0
 66
     1
 10
0.0
 20
0.0
 30
0.0
  0
VERTEX
  5
926
  8
0
 10
68.969167945323363
 20
59.43025945242524
 30
0.0
  0
VERTEX
  5
927
  8
0
 10
68.974976010398109
 20
59.401156803867963
 30
0.0
  0
VERTEX
  5
928
  8
0
 10
68.983498018925502
 20
59.342910772640288
 30
0.0
  0
VERTEX
  5
929
  8
0
 10
68.987800312283525
 20
59.284773511136308
 30
0.0
  0
VERTEX
  5
92A
  8
0
 10
68.988341311534441
 20
59.255807363081459
 30
0.0
  0
SEQEND
  5
92B
  8
0
  0
POLYLINE
  5
1C9
  8
0
 66
     1
 10
0.0
 20
0.0
 30
0.0
  0
VERTEX
  5
92C
  8
0
 10
68.988341311534441
 20
59.255807363081459
 30
0.0
  0
VERTEX
  5
92D
  8
0
 10
68.987219496217051
 20
59.214378495620309
 30
0.0
  0
VERTEX
  5
92E
  8
0
 10
68.978211082621669
 20
59.132434153550179
 30
0.0
  0
VERTEX
  5
92F
  8
0
 10
68.960169166885976
 20
59.052163876247128
 30
0.0
  0
VERTEX
  5
930
  8
0
 10
68.947786628345213
 20
59.012837671134399
 30
0.0
  0
VERTEX
  5
931
  8
0
 10
68.93319403130306
 20
58.974147673949659
 30
0.0
  0
VERTEX
  5
932
  8
0
 10
68.897522210667546
 20
58.898960060846008
 30
0.0
  0
VERTEX
  5
933
  8
0
 10
68.853524579816167
 20
58.827152594078967
 30
0.0
  0
VERTEX
  5
934
  8
0
 10
68.801713350742432
 20
58.759252931910311
 30
0.0
  0
VERTEX
  5
935
  8
0
 10
68.742588499471765
 20
58.695594385218129
 30
0.0
  0
VERTEX
  5
936
  8
0
 10
68.674105552049966
 20
58.634347456913112
 30
0.0
  0
VERTEX
  5
937
  8
0
 10
68.635998383626429
 20
58.604644359847072
 30
0.0
  0
VERTEX
  5
938
  8
0
 10
68.595306260092912
 20
58.575743151678211
 30
0.0
  0
VERTEX
  5
939
  8
0
 10
68.506218121864023
 20
58.520886593917652
 30
0.0
  0
VERTEX
  5
93A
  8
0
 10
68.407069492959238
 20
58.470807571686322
 30
0.0
  0
VERTEX
  5
93B
  8
0
 10
68.298308296670314
 20
58.42644248906916
 30
0.0
  0
VERTEX
  5
93C
  8
0
 10
68.180543902679688
 20
58.388581268811812
 30
0.0
  0
VERTEX
  5
93D
  8
0
 10
68.054572428393953
 20
58.357856883698069
 30
0.0
  0
VERTEX
  5
93E
  8
0
 10
67.988842268862285
 20
58.345324542895781
 30
0.0
  0
VERTEX
  5
93F
  8
0
 10
67.921485729438757
 20
58.334731791631349
 30
0.0
  0
VERTEX
  5
940
  8
0
 10
67.782570370321764
 20
58.319429753927999
 30
0.0
  0
VERTEX
  5
941
  8
0
 10
67.639327902458263
 20
58.31191846236058
 30
0.0
  0
VERTEX
  5
942
  8
0
 10
67.566610237898431
 20
58.31100023188705
 30
0.0
  0
SEQEND
  5
943
  8
0
  0
POLYLINE
  5
1CA
  8
0
 66
     1
 10
0.0
 20
0.0
 30
0.0
  0
VERTEX
  5
944
  8
0
 10
67.566610237898431
 20
69.847236250035934
 30
0.0
  0
VERTEX
  5
945
  8
0
 10
67.590189767848074
 20
69.851192243363556
 30
0.0
  0
VERTEX
  5
946
  8
0
 10
67.637152771033925
 20
69.859328295297331
 30
0.0
  0
VERTEX
  5
947
  8
0
 10
67.683810855641582
 20
69.867765107414442
 30
0.0
  0
VERTEX
  5
948
  8
0
 10
67.707009511545493
 20
69.872096953610395
 30
0.0
  0
VERTEX
  5
949
  8
0
 10
67.730112849533668
 20
69.876504723949751
 30
0.0
  0
VERTEX
  5
94A
  8
0
 10
67.776008928473516
 20
69.885548773744887
 30
0.0
  0
VERTEX
  5
94B
  8
0
 10
67.821450783107366
 20
69.894898473320794
 30
0.0
  0
VERTEX
  5
94C
  8
0
 10
67.866391774966132
 20
69.904554633737547
 30
0.0
  0
VERTEX
  5
94D
  8
0
 10
67.910787082066918
 20
69.914517671853929
 30
0.0
  0
VERTEX
  5
94E
  8
0
 10
67.954593857438169
 20
69.924787632149815
 30
0.0
  0
VERTEX
  5
94F
  8
0
 10
67.976263791234146
 20
69.930037641479515
 30
0.0
  0
VERTEX
  5
950
  8
0
 10
67.997771481047494
 20
69.935364241667713
 30
0.0
  0
VERTEX
  5
951
  8
0
 10
68.040280722820967
 20
69.946246697851876
 30
0.0
  0
VERTEX
  5
952
  8
0
 10
68.0820836401154
 20
69.957433600741041
 30
0.0
  0
VERTEX
  5
953
  8
0
 10
68.123143798083333
 20
69.968922965811345
 30
0.0
  0
VERTEX
  5
954
  8
0
 10
68.16342642502326
 20
69.980712229154705
 30
0.0
  0
VERTEX
  5
955
  8
0
 10
68.202898552505303
 20
69.992798256686257
 30
0.0
  0
VERTEX
  5
956
  8
0
 10
68.222320900615841
 20
69.998951424998921
 30
0.0
  0
VERTEX
  5
957
  8
0
 10
68.241529141067474
 20
70.005177357911833
 30
0.0
  0
VERTEX
  5
958
  8
0
 10
68.279289192101317
 20
70.017845304821634
 30
0.0
  0
VERTEX
  5
959
  8
0
 10
68.316152230198441
 20
70.030797494540849
 30
0.0
  0
VERTEX
  5
95A
  8
0
 10
68.334241621345754
 20
70.037379322961243
 30
0.0
  0
SEQEND
  5
95B
  8
0
  0
POLYLINE
  5
1CB
  8
0
 66
     1
 10
0.0
 20
0.0
 30
0.0
  0
VERTEX
  5
95C
  8
0
 10
73.924469342861684
 20
70.037380417568869
 30
0.0
  0
VERTEX
  5
95D
  8
0
 10
73.942558779632009
 20
70.030798547452747
 30
0.0
  0
VERTEX
  5
95E
  8
0
 10
73.979421916224851
 20
70.017846276146742
 30
0.0
  0
VERTEX
  5
95F
  8
0
 10
74.01718207574379
 20
70.005178249958504
 30
0.0
  0
VERTEX
  5
960
  8
0
 10
74.036390374198845
 20
69.998952278275652
 30
0.0
  0
VERTEX
  5
961
  8
0
 10
74.055812782780322
 20
69.992799071788937
 30
0.0
  0
VERTEX
  5
962
  8
0
 10
74.095285038470593
 20
69.980712969742413
 30
0.0
  0
VERTEX
  5
963
  8
0
 10
74.135567803052822
 20
69.968923634399147
 30
0.0
  0
VERTEX
  5
964
  8
0
 10
74.176628107754141
 20
69.957434199920982
 30
0.0
  0
VERTEX
  5
965
  8
0
 10
74.218431180489631
 20
69.946247230282978
 30
0.0
  0
VERTEX
  5
966
  8
0
 10
74.26094058599017
 20
69.935364710065883
 30
0.0
  0
VERTEX
  5
967
  8
0
 10
74.282448360632657
 20
69.930038078894512
 30
0.0
  0
VERTEX
  5
968
  8
0
 10
74.304118381155092
 20
69.924788039277104
 30
0.0
  0
VERTEX
  5
969
  8
0
 10
74.347925335416619
 20
69.914518020508723
 30
0.0
  0
VERTEX
  5
96A
  8
0
 10
74.392320828252593
 20
69.904554926736552
 30
0.0
  0
VERTEX
  5
96B
  8
0
 10
74.437262012170322
 20
69.894898713490775
 30
0.0
  0
VERTEX
  5
96C
  8
0
 10
74.482704064621259
 20
69.8855489639175
 30
0.0
  0
VERTEX
  5
96D
  8
0
 10
74.528600346533665
 20
69.876504866954662
 30
0.0
  0
VERTEX
  5
96E
  8
0
 10
74.551703787743691
 20
69.872097074089965
 30
0.0
  0
VERTEX
  5
96F
  8
0
 10
74.574902547917247
 20
69.86776520607205
 30
0.0
  0
VERTEX
  5
970
  8
0
 10
74.621560843868394
 20
69.859328352411254
 30
0.0
  0
VERTEX
  5
971
  8
0
 10
74.668524061556184
 20
69.85119226171318
 30
0.0
  0
VERTEX
  5
972
  8
0
 10
74.692103699718004
 20
69.847236250035934
 30
0.0
  0
SEQEND
  5
973
  8
0
  0
POLYLINE
  5
1CC
  8
0
 66
     1
 10
0.0
 20
0.0
 30
0.0
  0
VERTEX
  5
974
  8
0
 10
74.692103699718004
 20
58.31100023188705
 30
0.0
  0
VERTEX
  5
975
  8
0
 10
74.619386035158186
 20
58.31191846236058
 30
0.0
  0
VERTEX
  5
976
  8
0
 10
74.476143567294685
 20
58.319429753927999
 30
0.0
  0
VERTEX
  5
977
  8
0
 10
74.337228208177635
 20
58.334731791631349
 30
0.0
  0
VERTEX
  5
978
  8
0
 10
74.269871668754035
 20
58.345324542895838
 30
0.0
  0
VERTEX
  5
979
  8
0
 10
74.204141509222382
 20
58.35785688369814
 30
0.0
  0
VERTEX
  5
97A
  8
0
 10
74.078170034936647
 20
58.388581268811862
 30
0.0
  0
VERTEX
  5
97B
  8
0
 10
73.960405640945964
 20
58.42644248906921
 30
0.0
  0
VERTEX
  5
97C
  8
0
 10
73.85164444465704
 20
58.470807571686443
 30
0.0
  0
VERTEX
  5
97D
  8
0
 10
73.752495815752241
 20
58.520886593917822
 30
0.0
  0
VERTEX
  5
97E
  8
0
 10
73.66340767752331
 20
58.575743151678381
 30
0.0
  0
VERTEX
  5
97F
  8
0
 10
73.622715553989849
 20
58.604644359847299
 30
0.0
  0
VERTEX
  5
980
  8
0
 10
73.584608385566298
 20
58.634347456913332
 30
0.0
  0
VERTEX
  5
981
  8
0
 10
73.516125438144513
 20
58.695594385218357
 30
0.0
  0
VERTEX
  5
982
  8
0
 10
73.457000586873846
 20
58.759252931910588
 30
0.0
  0
VERTEX
  5
983
  8
0
 10
73.405189357800054
 20
58.827152594079301
 30
0.0
  0
VERTEX
  5
984
  8
0
 10
73.361191726948732
 20
58.898960060846349
 30
0.0
  0
VERTEX
  5
985
  8
0
 10
73.325519906313275
 20
58.974147673950107
 30
0.0
  0
VERTEX
  5
986
  8
0
 10
73.310927309271165
 20
59.012837671134861
 30
0.0
  0
VERTEX
  5
987
  8
0
 10
73.298544770730359
 20
59.05216387624759
 30
0.0
  0
VERTEX
  5
988
  8
0
 10
73.280502854994779
 20
59.13243415355069
 30
0.0
  0
VERTEX
  5
989
  8
0
 10
73.271494441399454
 20
59.214378495620707
 30
0.0
  0
VERTEX
  5
98A
  8
0
 10
73.270372626082121
 20
59.255807363081459
 30
0.0
  0
SEQEND
  5
98B
  8
0
  0
POLYLINE
  5
1CD
  8
0
 66
     1
 10
0.0
 20
0.0
 30
0.0
  0
VERTEX
  5
98C
  8
0
 10
73.270372626082121
 20
59.255807363081459
 30
0.0
  0
VERTEX
  5
98D
  8
0
 10
73.27091362533298
 20
59.284773511136251
 30
0.0
  0
VERTEX
  5
98E
  8
0
 10
73.275215918690947
 20
59.34291077264001
 30
0.0
  0
VERTEX
  5
98F
  8
0
 10
73.283737927218326
 20
59.401156803867742
 30
0.0
  0
VERTEX
  5
990
  8
0
 10
73.289545992293142
 20
59.43025945242524
 30
0.0
  0
SEQEND
  5
991
  8
0
  0
LINE
  5
1CE
  8
1
 10
71.129356968808224
 20
52.811000231887043
 30
0.0
 11
71.129356968808224
 21
73.31100023188705
 31
0.0
  0
TEXT
  5
292
  8
0
 62
     3
 10
0.0
 20
0.0
 30
0.0
 40
10.0
  1
CWN32A
  7
STANDARD1
  0
ENDSEC
  0
EOF
