  0
SECTION
  2
HEADER
  9
$ACADVER
  1
AC1009
  9
$INSBASE
 10
0.0
 20
0.0
 30
0.0
  9
$EXTMIN
 10
0.0
 20
-2.960436562073669
 30
0.0
  9
$EXTMAX
 10
94.076147135703479
 20
105.7235595968136
 30
0.0
  9
$LIMMIN
 10
0.0
 20
0.0
  9
$LIMMAX
 10
187.5
 20
135.0
  9
$ORTHOMODE
 70
     1
  9
$REGENMODE
 70
     1
  9
$FILLMODE
 70
     1
  9
$QTEXTMODE
 70
     0
  9
$MIRRTEXT
 70
     0
  9
$DRAGMODE
 70
     2
  9
$LTSCALE
 40
5.0
  9
$OSMODE
 70
  3071
  9
$ATTMODE
 70
     1
  9
$TEXTSIZE
 40
4.000000000000048
  9
$TRACEWID
 40
0.05
  9
$TEXTSTYLE
  7
STANDARD
  9
$CLAYER
  8
0
  9
$CELTYPE
  6
BYLAYER
  9
$CECOLOR
 62
   256
  9
$DIMSCALE
 40
0.5
  9
$DIMASZ
 40
3.0
  9
$DIMEXO
 40
2.0
  9
$DIMDLI
 40
0.38
  9
$DIMRND
 40
0.0
  9
$DIMDLE
 40
0.0
  9
$DIMEXE
 40
2.0
  9
$DIMTP
 40
0.0
  9
$DIMTM
 40
0.0
  9
$DIMTXT
 40
3.2000000000000002
  9
$DIMCEN
 40
0.0
  9
$DIMTSZ
 40
0.0
  9
$DIMTOL
 70
     0
  9
$DIMLIM
 70
     0
  9
$DIMTIH
 70
     0
  9
$DIMTOH
 70
     0
  9
$DIMSE1
 70
     0
  9
$DIMSE2
 70
     0
  9
$DIMTAD
 70
     1
  9
$DIMZIN
 70
     0
  9
$DIMBLK
  1

  9
$DIMASO
 70
     1
  9
$DIMSHO
 70
     0
  9
$DIMPOST
  1

  9
$DIMAPOST
  1

  9
$DIMALT
 70
     0
  9
$DIMALTD
 70
     2
  9
$DIMALTF
 40
25.399999999999999
  9
$DIMLFAC
 40
1.0
  9
$DIMTOFL
 70
     1
  9
$DIMTVP
 40
1.6000000000000001
  9
$DIMTIX
 70
     1
  9
$DIMSOXD
 70
     0
  9
$DIMSAH
 70
     0
  9
$DIMBLK1
  1

  9
$DIMBLK2
  1

  9
$DIMSTYLE
  2
STANDARD
  9
$DIMCLRD
 70
     0
  9
$DIMCLRE
 70
     0
  9
$DIMCLRT
 70
     0
  9
$DIMTFAC
 40
1.0
  9
$DIMGAP
 40
0.09
  9
$LUNITS
 70
     2
  9
$LUPREC
 70
     4
  9
$SKETCHINC
 40
0.1
  9
$FILLETRAD
 40
1.0
  9
$AUNITS
 70
     1
  9
$AUPREC
 70
     4
  9
$MENU
  1
E:\r13\win\SUPPORT\ACAD
  9
$ELEVATION
 40
0.0
  9
$PELEVATION
 40
0.0
  9
$THICKNESS
 40
0.0
  9
$LIMCHECK
 70
     0
  9
$BLIPMODE
 70
     0
  9
$CHAMFERA
 40
2.0
  9
$CHAMFERB
 40
2.0
  9
$SKPOLY
 70
     0
  9
$TDCREATE
 40
2449839.7904861118
  9
$TDUPDATE
 40
2456602.6136364238
  9
$TDINDWG
 40
0.1786625926
  9
$TDUSRTIMER
 40
2456598.424302917
  9
$USRTIMER
 70
     1
  9
$ANGBASE
 50
0.0
  9
$ANGDIR
 70
     0
  9
$PDMODE
 70
     0
  9
$PDSIZE
 40
0.0
  9
$PLINEWID
 40
0.0
  9
$COORDS
 70
     1
  9
$SPLFRAME
 70
     0
  9
$SPLINETYPE
 70
     6
  9
$SPLINESEGS
 70
     8
  9
$ATTDIA
 70
     0
  9
$ATTREQ
 70
     1
  9
$HANDLING
 70
     1
  9
$HANDSEED
  5
2292
  9
$SURFTAB1
 70
     6
  9
$SURFTAB2
 70
     6
  9
$SURFTYPE
 70
     6
  9
$SURFU
 70
     6
  9
$SURFV
 70
     6
  9
$UCSNAME
  2

  9
$UCSORG
 10
0.0
 20
0.0
 30
0.0
  9
$UCSXDIR
 10
1.0
 20
0.0
 30
0.0
  9
$UCSYDIR
 10
0.0
 20
1.0
 30
0.0
  9
$PUCSNAME
  2

  9
$PUCSORG
 10
0.0
 20
0.0
 30
0.0
  9
$PUCSXDIR
 10
1.0
 20
0.0
 30
0.0
  9
$PUCSYDIR
 10
0.0
 20
1.0
 30
0.0
  9
$USERI1
 70
     0
  9
$USERI2
 70
     1
  9
$USERI3
 70
     1
  9
$USERI4
 70
     0
  9
$USERI5
 70
     0
  9
$USERR1
 40
0.0
  9
$USERR2
 40
0.0
  9
$USERR3
 40
0.0
  9
$USERR4
 40
0.0
  9
$USERR5
 40
0.0
  9
$WORLDVIEW
 70
     1
  9
$SHADEDGE
 70
     3
  9
$SHADEDIF
 70
    70
  9
$TILEMODE
 70
     1
  9
$MAXACTVP
 70
    16
  9
$PLIMCHECK
 70
     0
  9
$PEXTMIN
 10
1.0000000000000000E+020
 20
1.0000000000000000E+020
 30
1.0000000000000000E+020
  9
$PEXTMAX
 10
-1.0000000000000000E+020
 20
-1.0000000000000000E+020
 30
-1.0000000000000000E+020
  9
$PLIMMIN
 10
0.0
 20
0.0
  9
$PLIMMAX
 10
12.0
 20
9.0
  9
$UNITMODE
 70
     0
  9
$VISRETAIN
 70
     0
  9
$PLINEGEN
 70
     0
  9
$PSLTSCALE
 70
     0
  0
ENDSEC
  0
SECTION
  2
TABLES
  0
TABLE
  2
VPORT
 70
     1
  0
VPORT
  2
*ACTIVE
 70
     0
 10
0.0
 20
0.0
 11
1.0
 21
1.0
 12
97.570150770051072
 22
66.014785922033241
 13
0.0
 23
0.0
 14
5.0
 24
5.0
 15
5.0
 25
5.0
 16
0.0
 26
0.0
 36
1.0
 17
0.0
 27
0.0
 37
0.0
 40
139.20783109903601
 41
1.831871345029239
 42
50.0
 43
0.0
 44
0.0
 50
0.0
 51
0.0
 71
     0
 72
   500
 73
     1
 74
     0
 75
     0
 76
     0
 77
     0
 78
     2
  0
ENDTAB
  0
TABLE
  2
LTYPE
 70
     3
  0
LTYPE
  2
CONTINUOUS
 70
     0
  3
Solid Line
 72
    65
 73
     0
 40
0.0
  0
LTYPE
  2
CENTER
 70
     0
  3
____ _ ____ _ ____ _ ____ _ ____ _ ____ _ ____
 72
    65
 73
     4
 40
2.0
 49
1.25
 49
-0.25
 49
0.25
 49
-0.25
  0
LTYPE
  2
PHANTOM2
 70
     0
  3
___ _ _ ___ _ _ ___ _ _ ___ _ _
 72
    65
 73
     6
 40
1.25
 49
0.625
 49
-0.125
 49
0.125
 49
-0.125
 49
0.125
 49
-0.125
  0
ENDTAB
  0
TABLE
  2
LAYER
 70
     4
  0
LAYER
  2
0
 70
     0
 62
     7
  6
CONTINUOUS
  0
LAYER
  2
1
 70
     0
 62
     1
  6
CENTER
  0
LAYER
  2
DEFPOINTS
 70
     0
 62
     7
  6
CONTINUOUS
  0
LAYER
  2
3
 70
     0
 62
     3
  6
CONTINUOUS
  0
ENDTAB
  0
TABLE
  2
STYLE
 70
     2
  0
STYLE
  2
STANDARD
 70
     0
 40
0.0
 41
1.0
 50
0.0
 71
     0
 42
4.000000000000048
  3
TXT
  4
BIGFONT
  0
STYLE
  2
STANDARD1
 70
     0
 40
0.0
 41
1.0
 50
0.0
 71
     0
 42
3.0
  3
txt
  4

  0
ENDTAB
  0
TABLE
  2
VIEW
 70
     1
  0
VIEW
  2
ALL
 70
     0
 40
135.0
 10
110.4957983193277
 20
67.5
 41
0.0
 11
0.0
 21
0.0
 31
1.0
 12
0.0
 22
0.0
 32
0.0
 42
0.0
 43
0.0
 44
0.0
 50
0.0
 71
     0
  0
ENDTAB
  0
TABLE
  2
UCS
 70
     0
  0
ENDTAB
  0
TABLE
  2
APPID
 70
     3
  0
APPID
  2
ACAD
 70
     0
  0
APPID
  2
ACAD_MLEADERVER
 70
     0
  0
APPID
  2
ACAD_NAV_VCDISPLAY
 70
     0
  0
ENDTAB
  0
TABLE
  2
DIMSTYLE
 70
     1
  0
DIMSTYLE
  2
STANDARD
 70
     0
  3

  4

  5

  6

  7

 40
1.0
 41
0.18
 42
0.0625
 43
0.38
 44
0.18
 45
0.0
 46
0.0
 47
0.0
 48
0.0
140
0.18
141
0.09
142
0.0
143
25.399999999999999
144
1.0
145
0.0
146
1.0
147
0.09
 71
     0
 72
     0
 73
     1
 74
     1
 75
     0
 76
     0
 77
     0
 78
     0
170
     0
171
     2
172
     0
173
     0
174
     0
175
     0
176
     0
177
     0
178
     0
  0
ENDTAB
  0
ENDSEC
  0
SECTION
  2
BLOCKS
  0
BLOCK
  8
0
  2
$MODEL_SPACE
 70
     0
 10
0.0
 20
0.0
 30
0.0
  3
$MODEL_SPACE
  1

  0
ENDBLK
  5
13F
  8
0
  0
BLOCK
 67
     1
  8
0
  2
$PAPER_SPACE
 70
     0
 10
0.0
 20
0.0
 30
0.0
  3
$PAPER_SPACE
  1

  0
ENDBLK
  5
13D
 67
     1
  8
0
  0
ENDSEC
  0
SECTION
  2
ENTITIES
  0
LINE
  5
17E2
  8
1
 10
94.076147135703479
 20
97.723541986452005
 30
0.0
 11
58.076147135703479
 21
97.723541986452005
 31
0.0
  0
LINE
  5
17E3
  8
1
 10
76.076147135703479
 20
89.723524376485855
 30
0.0
 11
76.076147135703479
 21
105.7235595968136
 31
0.0
  0
CIRCLE
  5
17E6
  8
0
 10
76.076147135703479
 20
97.723541986452005
 30
0.0
 40
4.5
  0
POLYLINE
  5
17ED
  8
0
 66
     1
 10
0.0
 20
0.0
 30
0.0
  0
VERTEX
  5
1BE2
  8
0
 10
61.18067559897117
 20
100.6074513669911
 30
0.0
  0
VERTEX
  5
1BE3
  8
0
 10
61.13251553479418
 20
100.61133950942489
 30
0.0
  0
VERTEX
  5
1BE4
  8
0
 10
61.039130236433721
 20
100.61224411134771
 30
0.0
  0
VERTEX
  5
1BE5
  8
0
 10
60.949932759375507
 20
100.6049324611385
 30
0.0
  0
VERTEX
  5
1BE6
  8
0
 10
60.907035190202457
 20
100.5985263211961
 30
0.0
  0
VERTEX
  5
1BE7
  8
0
 10
60.865336156830438
 20
100.5904563158509
 30
0.0
  0
VERTEX
  5
1BE8
  8
0
 10
60.785999405002478
 20
100.5699113389374
 30
0.0
  0
VERTEX
  5
1BE9
  8
0
 10
60.712410980614287
 20
100.5444314895921
 30
0.0
  0
VERTEX
  5
1BEA
  8
0
 10
60.644576126605699
 20
100.51500843940021
 30
0.0
  0
VERTEX
  5
1BEB
  8
0
 10
60.582494537589753
 20
100.48258866485629
 30
0.0
  0
VERTEX
  5
1BEC
  8
0
 10
60.526159478625402
 20
100.44810225438199
 30
0.0
  0
VERTEX
  5
1BED
  8
0
 10
60.500142397588768
 20
100.4303758256237
 30
0.0
  0
VERTEX
  5
1BEE
  8
0
 10
60.475555256576342
 20
100.4124852199771
 30
0.0
  0
VERTEX
  5
1BEF
  8
0
 10
60.430655619762028
 20
100.3766969119131
 30
0.0
  0
VERTEX
  5
1BF0
  8
0
 10
60.391423663375612
 20
100.3417324398133
 30
0.0
  0
VERTEX
  5
1BF1
  8
0
 10
60.35781288531826
 20
100.3086276135805
 30
0.0
  0
VERTEX
  5
1BF2
  8
0
 10
60.329546896483379
 20
100.27820241019499
 30
0.0
  0
VERTEX
  5
1BF3
  8
0
 10
60.306351465987859
 20
100.2512198654774
 30
0.0
  0
VERTEX
  5
1BF4
  8
0
 10
60.296763161131082
 20
100.2394760542324
 30
0.0
  0
VERTEX
  5
1BF5
  8
0
 10
60.288571631896048
 20
100.2291476357518
 30
0.0
  0
VERTEX
  5
1BF6
  8
0
 10
60.276506897851107
 20
100.2134088551219
 30
0.0
  0
VERTEX
  5
1BF7
  8
0
 10
60.270375144798969
 20
100.2051553564621
 30
0.0
  0
VERTEX
  5
1BF8
  8
0
 10
60.269603893697301
 20
100.2041045715502
 30
0.0
  0
SEQEND
  5
1BF9
  8
0
  0
POLYLINE
  5
17EE
  8
0
 66
     1
 10
0.0
 20
0.0
 30
0.0
  0
VERTEX
  5
1BFA
  8
0
 10
91.88269037770965
 20
100.2041045715502
 30
0.0
  0
VERTEX
  5
1BFB
  8
0
 10
91.881909050640786
 20
100.2051690653993
 30
0.0
  0
VERTEX
  5
1BFC
  8
0
 10
91.875699717380556
 20
100.21352556645989
 30
0.0
  0
VERTEX
  5
1BFD
  8
0
 10
91.863443651037528
 20
100.2295040388431
 30
0.0
  0
VERTEX
  5
1BFE
  8
0
 10
91.855059402831543
 20
100.24006237629089
 30
0.0
  0
VERTEX
  5
1BFF
  8
0
 10
91.845174512121844
 20
100.2521453149176
 30
0.0
  0
VERTEX
  5
1C00
  8
0
 10
91.820938462545428
 20
100.2802269161414
 30
0.0
  0
VERTEX
  5
1C01
  8
0
 10
91.790806525909517
 20
100.3124020986715
 30
0.0
  0
VERTEX
  5
1C02
  8
0
 10
91.754841044720791
 20
100.3473507253068
 30
0.0
  0
VERTEX
  5
1C03
  8
0
 10
91.713093152753402
 20
100.3838378782213
 30
0.0
  0
VERTEX
  5
1C04
  8
0
 10
91.665614556802936
 20
100.42072162277459
 30
0.0
  0
VERTEX
  5
1C05
  8
0
 10
91.639832187950049
 20
100.4389192789896
 30
0.0
  0
VERTEX
  5
1C06
  8
0
 10
91.612754653623995
 20
100.45676142865641
 30
0.0
  0
VERTEX
  5
1C07
  8
0
 10
91.554784704950066
 20
100.49094204403031
 30
0.0
  0
VERTEX
  5
1C08
  8
0
 10
91.491842696784886
 20
100.52243329266879
 30
0.0
  0
VERTEX
  5
1C09
  8
0
 10
91.424063268791514
 20
100.5504551322514
 30
0.0
  0
VERTEX
  5
1C0A
  8
0
 10
91.351578671441615
 20
100.5742501616742
 30
0.0
  0
VERTEX
  5
1C0B
  8
0
 10
91.274516999764984
 20
100.59305670674701
 30
0.0
  0
VERTEX
  5
1C0C
  8
0
 10
91.234305524107469
 20
100.6003432269338
 30
0.0
  0
VERTEX
  5
1C0D
  8
0
 10
91.193012865359947
 20
100.60607719539389
 30
0.0
  0
VERTEX
  5
1C0E
  8
0
 10
91.107342880722086
 20
100.6124427659279
 30
0.0
  0
VERTEX
  5
1C0F
  8
0
 10
91.017754179262027
 20
100.61122314717019
 30
0.0
  0
VERTEX
  5
1C10
  8
0
 10
90.971618672435852
 20
100.6074513669911
 30
0.0
  0
SEQEND
  5
1C11
  8
0
  0
POLYLINE
  5
17F0
  8
0
 66
     1
 10
0.0
 20
0.0
 30
0.0
  0
VERTEX
  5
1C12
  8
0
 10
60.269603893697301
 20
95.242979401353807
 30
0.0
  0
VERTEX
  5
1C13
  8
0
 10
60.270385220766222
 20
95.241914907504665
 30
0.0
  0
VERTEX
  5
1C14
  8
0
 10
60.276594554026467
 20
95.233558406444104
 30
0.0
  0
VERTEX
  5
1C15
  8
0
 10
60.28885062036948
 20
95.217579934060879
 30
0.0
  0
VERTEX
  5
1C16
  8
0
 10
60.297234868575451
 20
95.207021596613089
 30
0.0
  0
VERTEX
  5
1C17
  8
0
 10
60.3071197592852
 20
95.194938657986313
 30
0.0
  0
VERTEX
  5
1C18
  8
0
 10
60.331355808861638
 20
95.166857056762552
 30
0.0
  0
VERTEX
  5
1C19
  8
0
 10
60.361487745497548
 20
95.134681874232456
 30
0.0
  0
VERTEX
  5
1C1A
  8
0
 10
60.397453226686309
 20
95.099733247597072
 30
0.0
  0
VERTEX
  5
1C1B
  8
0
 10
60.439201118653699
 20
95.063246094682597
 30
0.0
  0
VERTEX
  5
1C1C
  8
0
 10
60.486679714604172
 20
95.026362350129375
 30
0.0
  0
VERTEX
  5
1C1D
  8
0
 10
60.512462083457017
 20
95.008164693914367
 30
0.0
  0
VERTEX
  5
1C1E
  8
0
 10
60.539539617783127
 20
94.990322544247505
 30
0.0
  0
VERTEX
  5
1C1F
  8
0
 10
60.597509566456999
 20
94.956141928873592
 30
0.0
  0
VERTEX
  5
1C20
  8
0
 10
60.660451574622208
 20
94.924650680235175
 30
0.0
  0
VERTEX
  5
1C21
  8
0
 10
60.72823100261558
 20
94.896628840652568
 30
0.0
  0
VERTEX
  5
1C22
  8
0
 10
60.800715599965478
 20
94.872833811229754
 30
0.0
  0
VERTEX
  5
1C23
  8
0
 10
60.877777271642117
 20
94.854027266156976
 30
0.0
  0
VERTEX
  5
1C24
  8
0
 10
60.917988747299603
 20
94.846740745970138
 30
0.0
  0
VERTEX
  5
1C25
  8
0
 10
60.959281406047118
 20
94.841006777510003
 30
0.0
  0
VERTEX
  5
1C26
  8
0
 10
61.044951390684957
 20
94.834641206976045
 30
0.0
  0
VERTEX
  5
1C27
  8
0
 10
61.13454009214496
 20
94.835860825733761
 30
0.0
  0
VERTEX
  5
1C28
  8
0
 10
61.18067559897117
 20
94.839632605912925
 30
0.0
  0
SEQEND
  5
1C29
  8
0
  0
POLYLINE
  5
17F4
  8
0
 66
     1
 10
0.0
 20
0.0
 30
0.0
  0
VERTEX
  5
1C2A
  8
0
 10
67.766633854293048
 20
95.531844711830203
 30
0.0
  0
VERTEX
  5
1C2B
  8
0
 10
67.816474853012977
 20
95.537083211885545
 30
0.0
  0
VERTEX
  5
1C2C
  8
0
 10
67.916304744914271
 20
95.547575756330474
 30
0.0
  0
VERTEX
  5
1C2D
  8
0
 10
68.01632983880836
 20
95.558088817331594
 30
0.0
  0
VERTEX
  5
1C2E
  8
0
 10
68.066414838924857
 20
95.563352962967116
 30
0.0
  0
SEQEND
  5
1C2F
  8
0
  0
POLYLINE
  5
17F5
  8
0
 66
     1
 10
0.0
 20
0.0
 30
0.0
  0
VERTEX
  5
1C30
  8
0
 10
65.878108108517893
 20
95.333352657540956
 30
0.0
  0
VERTEX
  5
1C31
  8
0
 10
65.931901043079336
 20
95.339006522790754
 30
0.0
  0
VERTEX
  5
1C32
  8
0
 10
66.039462006677525
 20
95.350311635614162
 30
0.0
  0
VERTEX
  5
1C33
  8
0
 10
66.146948265233021
 20
95.36160889662122
 30
0.0
  0
VERTEX
  5
1C34
  8
0
 10
66.200647826597674
 20
95.367252947952551
 30
0.0
  0
VERTEX
  5
1C35
  8
0
 10
66.254310053815175
 20
95.372893075306905
 30
0.0
  0
VERTEX
  5
1C36
  8
0
 10
66.361497665121647
 20
95.384158947223227
 30
0.0
  0
VERTEX
  5
1C37
  8
0
 10
66.468461472492152
 20
95.395401296398006
 30
0.0
  0
VERTEX
  5
1C38
  8
0
 10
66.575151952885165
 20
95.406614917749835
 30
0.0
  0
VERTEX
  5
1C39
  8
0
 10
66.68151970980648
 20
95.417794619497997
 30
0.0
  0
VERTEX
  5
1C3A
  8
0
 10
66.787515496179125
 20
95.42893522556605
 30
0.0
  0
VERTEX
  5
1C3B
  8
0
 10
66.840358557167292
 20
95.434489255080294
 30
0.0
  0
VERTEX
  5
1C3C
  8
0
 10
66.893090237144577
 20
95.440031577978601
 30
0.0
  0
VERTEX
  5
1C3D
  8
0
 10
66.998195052783274
 20
95.451078539249025
 30
0.0
  0
VERTEX
  5
1C3E
  8
0
 10
67.102781280746044
 20
95.462070994758392
 30
0.0
  0
VERTEX
  5
1C3F
  8
0
 10
67.206800498783878
 20
95.473003855123196
 30
0.0
  0
VERTEX
  5
1C40
  8
0
 10
67.310204547167075
 20
95.483872058551896
 30
0.0
  0
VERTEX
  5
1C41
  8
0
 10
67.412945550982442
 20
95.494670573188344
 30
0.0
  0
VERTEX
  5
1C42
  8
0
 10
67.464052533604104
 20
95.500042133513517
 30
0.0
  0
VERTEX
  5
1C43
  8
0
 10
67.514975942299117
 20
95.505394399441499
 30
0.0
  0
VERTEX
  5
1C44
  8
0
 10
67.616248482191764
 20
95.516038572300346
 30
0.0
  0
VERTEX
  5
1C45
  8
0
 10
67.716716282611742
 20
95.526598163632315
 30
0.0
  0
VERTEX
  5
1C46
  8
0
 10
67.766633854293048
 20
95.531844711830203
 30
0.0
  0
SEQEND
  5
1C47
  8
0
  0
LINE
  5
17F6
  8
0
 10
65.351441386386796
 20
95.277997754471485
 30
0.0
 11
65.878108108517893
 21
95.333352657540956
 31
0.0
  0
POLYLINE
  5
17F7
  8
0
 66
     1
 10
0.0
 20
0.0
 30
0.0
  0
VERTEX
  5
1C48
  8
0
 10
61.18067559897117
 20
94.839632605912925
 30
0.0
  0
VERTEX
  5
1C49
  8
0
 10
61.260040372837061
 20
94.847974179777154
 30
0.0
  0
VERTEX
  5
1C4A
  8
0
 10
61.427534833471491
 20
94.865578556973361
 30
0.0
  0
VERTEX
  5
1C4B
  8
0
 10
61.604020138405637
 20
94.884127909984102
 30
0.0
  0
VERTEX
  5
1C4C
  8
0
 10
61.694455827256938
 20
94.893633083901534
 30
0.0
  0
VERTEX
  5
1C4D
  8
0
 10
61.785649911574517
 20
94.903217968394472
 30
0.0
  0
VERTEX
  5
1C4E
  8
0
 10
61.974847559972432
 20
94.923103442543393
 30
0.0
  0
VERTEX
  5
1C4F
  8
0
 10
62.180902820249571
 20
94.944760723097318
 30
0.0
  0
VERTEX
  5
1C50
  8
0
 10
62.401455677241529
 20
94.967941762467092
 30
0.0
  0
VERTEX
  5
1C51
  8
0
 10
62.633353730957481
 20
94.99231523006253
 30
0.0
  0
VERTEX
  5
1C52
  8
0
 10
62.873047640633438
 20
95.017508075136845
 30
0.0
  0
VERTEX
  5
1C53
  8
0
 10
62.994570399824788
 20
95.030280631809035
 30
0.0
  0
VERTEX
  5
1C54
  8
0
 10
63.116475685925188
 20
95.043093393679484
 30
0.0
  0
VERTEX
  5
1C55
  8
0
 10
63.359079640022003
 20
95.068592096747238
 30
0.0
  0
VERTEX
  5
1C56
  8
0
 10
63.601821818898571
 20
95.094105327824806
 30
0.0
  0
VERTEX
  5
1C57
  8
0
 10
63.85821308614635
 20
95.121053135897654
 30
0.0
  0
VERTEX
  5
1C58
  8
0
 10
64.125610260875021
 20
95.149157711459694
 30
0.0
  0
VERTEX
  5
1C59
  8
0
 10
64.399882198927941
 20
95.177984853763604
 30
0.0
  0
VERTEX
  5
1C5A
  8
0
 10
64.538282994936367
 20
95.192531363588216
 30
0.0
  0
VERTEX
  5
1C5B
  8
0
 10
64.676813627488684
 20
95.207091519783503
 30
0.0
  0
VERTEX
  5
1C5C
  8
0
 10
64.95200886001814
 20
95.236015704247279
 30
0.0
  0
VERTEX
  5
1C5D
  8
0
 10
65.220852797326529
 20
95.264272340683874
 30
0.0
  0
VERTEX
  5
1C5E
  8
0
 10
65.351441386386796
 20
95.277997754471485
 30
0.0
  0
SEQEND
  5
1C5F
  8
0
  0
POLYLINE
  5
17F8
  8
0
 66
     1
 10
0.0
 20
0.0
 30
0.0
  0
VERTEX
  5
1C60
  8
0
 10
65.351441386386796
 20
100.1690862184325
 30
0.0
  0
VERTEX
  5
1C61
  8
0
 10
65.220852797326415
 20
100.18281163222009
 30
0.0
  0
VERTEX
  5
1C62
  8
0
 10
64.952008860017884
 20
100.2110682686567
 30
0.0
  0
VERTEX
  5
1C63
  8
0
 10
64.676813627488258
 20
100.23999245312049
 30
0.0
  0
VERTEX
  5
1C64
  8
0
 10
64.538282994935855
 20
100.25455260931579
 30
0.0
  0
VERTEX
  5
1C65
  8
0
 10
64.399882198927344
 20
100.26909911914041
 30
0.0
  0
VERTEX
  5
1C66
  8
0
 10
64.125610260874282
 20
100.2979262614444
 30
0.0
  0
VERTEX
  5
1C67
  8
0
 10
63.85821308614544
 20
100.3260308370064
 30
0.0
  0
VERTEX
  5
1C68
  8
0
 10
63.601821818897577
 20
100.3529786450793
 30
0.0
  0
VERTEX
  5
1C69
  8
0
 10
63.359079640020859
 20
100.3784918761569
 30
0.0
  0
VERTEX
  5
1C6A
  8
0
 10
63.116475685923952
 20
100.4039905792247
 30
0.0
  0
VERTEX
  5
1C6B
  8
0
 10
62.994570399823488
 20
100.4168033410951
 30
0.0
  0
VERTEX
  5
1C6C
  8
0
 10
62.87304764063208
 20
100.42957589776729
 30
0.0
  0
VERTEX
  5
1C6D
  8
0
 10
62.633353730955967
 20
100.45476874284159
 30
0.0
  0
VERTEX
  5
1C6E
  8
0
 10
62.401455677239937
 20
100.4791422104371
 30
0.0
  0
VERTEX
  5
1C6F
  8
0
 10
62.180902820247951
 20
100.50232324980681
 30
0.0
  0
VERTEX
  5
1C70
  8
0
 10
61.974847559970783
 20
100.5239805303608
 30
0.0
  0
VERTEX
  5
1C71
  8
0
 10
61.785649911572868
 20
100.5438660045097
 30
0.0
  0
VERTEX
  5
1C72
  8
0
 10
61.69445582725529
 20
100.5534508890026
 30
0.0
  0
VERTEX
  5
1C73
  8
0
 10
61.604020138403939
 20
100.56295606292009
 30
0.0
  0
VERTEX
  5
1C74
  8
0
 10
61.427534833469792
 20
100.58150541593081
 30
0.0
  0
VERTEX
  5
1C75
  8
0
 10
61.260040372835363
 20
100.599109793127
 30
0.0
  0
VERTEX
  5
1C76
  8
0
 10
61.18067559897117
 20
100.6074513669911
 30
0.0
  0
SEQEND
  5
1C77
  8
0
  0
LINE
  5
17F9
  8
0
 10
65.878108108517893
 20
100.113731315363
 30
0.0
 11
65.351441386386796
 21
100.1690862184325
 31
0.0
  0
POLYLINE
  5
17FA
  8
0
 66
     1
 10
0.0
 20
0.0
 30
0.0
  0
VERTEX
  5
1C78
  8
0
 10
67.766633854293048
 20
99.915239261073836
 30
0.0
  0
VERTEX
  5
1C79
  8
0
 10
67.716716282611742
 20
99.920485809271696
 30
0.0
  0
VERTEX
  5
1C7A
  8
0
 10
67.616248482191764
 20
99.931045400603665
 30
0.0
  0
VERTEX
  5
1C7B
  8
0
 10
67.514975942299117
 20
99.941689573462497
 30
0.0
  0
VERTEX
  5
1C7C
  8
0
 10
67.464052533604104
 20
99.947041839390494
 30
0.0
  0
VERTEX
  5
1C7D
  8
0
 10
67.412945550982442
 20
99.952413399715695
 30
0.0
  0
VERTEX
  5
1C7E
  8
0
 10
67.310204547167075
 20
99.963211914352144
 30
0.0
  0
VERTEX
  5
1C7F
  8
0
 10
67.206800498783878
 20
99.974080117780844
 30
0.0
  0
VERTEX
  5
1C80
  8
0
 10
67.102781280746044
 20
99.985012978145633
 30
0.0
  0
VERTEX
  5
1C81
  8
0
 10
66.998195052783274
 20
99.996005433654972
 30
0.0
  0
VERTEX
  5
1C82
  8
0
 10
66.893090237144577
 20
100.0070523949254
 30
0.0
  0
VERTEX
  5
1C83
  8
0
 10
66.840358557167292
 20
100.0125947178237
 30
0.0
  0
VERTEX
  5
1C84
  8
0
 10
66.787515496179125
 20
100.0181487473379
 30
0.0
  0
VERTEX
  5
1C85
  8
0
 10
66.68151970980648
 20
100.029289353406
 30
0.0
  0
VERTEX
  5
1C86
  8
0
 10
66.575151952885165
 20
100.0404690551542
 30
0.0
  0
VERTEX
  5
1C87
  8
0
 10
66.468461472492152
 20
100.051682676506
 30
0.0
  0
VERTEX
  5
1C88
  8
0
 10
66.361497665121647
 20
100.0629250256808
 30
0.0
  0
VERTEX
  5
1C89
  8
0
 10
66.254310053815175
 20
100.07419089759711
 30
0.0
  0
VERTEX
  5
1C8A
  8
0
 10
66.200647826597674
 20
100.0798310249514
 30
0.0
  0
VERTEX
  5
1C8B
  8
0
 10
66.146948265233021
 20
100.0854750762828
 30
0.0
  0
VERTEX
  5
1C8C
  8
0
 10
66.039462006677525
 20
100.09677233728981
 30
0.0
  0
VERTEX
  5
1C8D
  8
0
 10
65.931901043079336
 20
100.1080774501133
 30
0.0
  0
VERTEX
  5
1C8E
  8
0
 10
65.878108108517893
 20
100.113731315363
 30
0.0
  0
SEQEND
  5
1C8F
  8
0
  0
POLYLINE
  5
17FB
  8
0
 66
     1
 10
0.0
 20
0.0
 30
0.0
  0
VERTEX
  5
1C90
  8
0
 10
68.066414838924857
 20
99.883731009936895
 30
0.0
  0
VERTEX
  5
1C91
  8
0
 10
68.01632983880836
 20
99.888995155572431
 30
0.0
  0
VERTEX
  5
1C92
  8
0
 10
67.916304744914271
 20
99.899508216573537
 30
0.0
  0
VERTEX
  5
1C93
  8
0
 10
67.816474853012977
 20
99.91000076101848
 30
0.0
  0
VERTEX
  5
1C94
  8
0
 10
67.766633854293048
 20
99.915239261073793
 30
0.0
  0
SEQEND
  5
1C95
  8
0
  0
POLYLINE
  5
17FE
  8
0
 66
     1
 10
0.0
 20
0.0
 30
0.0
  0
VERTEX
  5
1C96
  8
0
 10
71.248431761803374
 20
101.2862887173618
 30
0.0
  0
VERTEX
  5
1C97
  8
0
 10
71.187931568572907
 20
101.20671177603219
 30
0.0
  0
VERTEX
  5
1C98
  8
0
 10
71.058131723921093
 20
101.0505090024551
 30
0.0
  0
VERTEX
  5
1C99
  8
0
 10
70.91722212376925
 20
100.8998090944673
 30
0.0
  0
VERTEX
  5
1C9A
  8
0
 10
70.842884563943983
 20
100.8270567636857
 30
0.0
  0
VERTEX
  5
1C9B
  8
0
 10
70.766134502150635
 20
100.7562918160082
 30
0.0
  0
VERTEX
  5
1C9C
  8
0
 10
70.606011585394242
 20
100.6214164814062
 30
0.0
  0
VERTEX
  5
1C9D
  8
0
 10
70.438185577231081
 20
100.49640833225379
 30
0.0
  0
VERTEX
  5
1C9E
  8
0
 10
70.264042716345443
 20
100.3821779863205
 30
0.0
  0
VERTEX
  5
1C9F
  8
0
 10
70.08520840367089
 20
100.2794682900316
 30
0.0
  0
VERTEX
  5
1CA0
  8
0
 10
69.903462158205215
 20
100.1887778443915
 30
0.0
  0
VERTEX
  5
1CA1
  8
0
 10
69.812080212339424
 20
100.14802092069679
 30
0.0
  0
VERTEX
  5
1CA2
  8
0
 10
69.720686156439228
 20
100.1103343058038
 30
0.0
  0
VERTEX
  5
1CA3
  8
0
 10
69.538859296529722
 20
100.0440986591024
 30
0.0
  0
VERTEX
  5
1CA4
  8
0
 10
69.353931939975155
 20
99.988090694824564
 30
0.0
  0
VERTEX
  5
1CA5
  8
0
 10
69.162686860852091
 20
99.941622774806831
 30
0.0
  0
VERTEX
  5
1CA6
  8
0
 10
68.966646736105332
 20
99.905593118991476
 30
0.0
  0
VERTEX
  5
1CA7
  8
0
 10
68.767347887840444
 20
99.880634697300493
 30
0.0
  0
VERTEX
  5
1CA8
  8
0
 10
68.666964658224515
 20
99.87243567891376
 30
0.0
  0
VERTEX
  5
1CA9
  8
0
 10
68.566355596429787
 20
99.8671272202252
 30
0.0
  0
VERTEX
  5
1CAA
  8
0
 10
68.365219946443716
 20
99.865199840763495
 30
0.0
  0
VERTEX
  5
1CAB
  8
0
 10
68.165377799054511
 20
99.874747976993845
 30
0.0
  0
VERTEX
  5
1CAC
  8
0
 10
68.066414838924857
 20
99.883731009936895
 30
0.0
  0
SEQEND
  5
1CAD
  8
0
  0
POLYLINE
  5
1800
  8
0
 66
     1
 10
0.0
 20
0.0
 30
0.0
  0
VERTEX
  5
1CAE
  8
0
 10
84.085879432482116
 20
99.883731009936895
 30
0.0
  0
VERTEX
  5
1CAF
  8
0
 10
83.986916472352434
 20
99.874747976993802
 30
0.0
  0
VERTEX
  5
1CB0
  8
0
 10
83.787074324963271
 20
99.865199840763495
 30
0.0
  0
VERTEX
  5
1CB1
  8
0
 10
83.585938674977214
 20
99.8671272202252
 30
0.0
  0
VERTEX
  5
1CB2
  8
0
 10
83.485329613182444
 20
99.87243567891376
 30
0.0
  0
VERTEX
  5
1CB3
  8
0
 10
83.384946383566529
 20
99.880634697300493
 30
0.0
  0
VERTEX
  5
1CB4
  8
0
 10
83.185647535301655
 20
99.905593118991447
 30
0.0
  0
VERTEX
  5
1CB5
  8
0
 10
82.989607410554925
 20
99.941622774806817
 30
0.0
  0
VERTEX
  5
1CB6
  8
0
 10
82.798362331431804
 20
99.988090694824535
 30
0.0
  0
VERTEX
  5
1CB7
  8
0
 10
82.613434974877237
 20
100.0440986591024
 30
0.0
  0
VERTEX
  5
1CB8
  8
0
 10
82.431608114967787
 20
100.1103343058038
 30
0.0
  0
VERTEX
  5
1CB9
  8
0
 10
82.340214059067534
 20
100.14802092069679
 30
0.0
  0
VERTEX
  5
1CBA
  8
0
 10
82.248832113201743
 20
100.1887778443915
 30
0.0
  0
VERTEX
  5
1CBB
  8
0
 10
82.067085867736097
 20
100.2794682900316
 30
0.0
  0
VERTEX
  5
1CBC
  8
0
 10
81.888251555061544
 20
100.3821779863205
 30
0.0
  0
VERTEX
  5
1CBD
  8
0
 10
81.714108694175906
 20
100.49640833225379
 30
0.0
  0
VERTEX
  5
1CBE
  8
0
 10
81.546282686012759
 20
100.6214164814062
 30
0.0
  0
VERTEX
  5
1CBF
  8
0
 10
81.386159769256381
 20
100.7562918160081
 30
0.0
  0
VERTEX
  5
1CC0
  8
0
 10
81.309409707463004
 20
100.8270567636857
 30
0.0
  0
VERTEX
  5
1CC1
  8
0
 10
81.235072147637766
 20
100.8998090944673
 30
0.0
  0
VERTEX
  5
1CC2
  8
0
 10
81.094162547485894
 20
101.0505090024551
 30
0.0
  0
VERTEX
  5
1CC3
  8
0
 10
80.96436270283408
 20
101.20671177603219
 30
0.0
  0
VERTEX
  5
1CC4
  8
0
 10
80.903862509603627
 20
101.2862887173618
 30
0.0
  0
SEQEND
  5
1CC5
  8
0
  0
POLYLINE
  5
1802
  8
0
 66
     1
 10
0.0
 20
0.0
 30
0.0
  0
VERTEX
  5
1CC6
  8
0
 10
84.385660417113954
 20
99.915239261073836
 30
0.0
  0
VERTEX
  5
1CC7
  8
0
 10
84.33581941839401
 20
99.91000076101848
 30
0.0
  0
VERTEX
  5
1CC8
  8
0
 10
84.235989526492745
 20
99.899508216573537
 30
0.0
  0
VERTEX
  5
1CC9
  8
0
 10
84.135964432598655
 20
99.888995155572431
 30
0.0
  0
VERTEX
  5
1CCA
  8
0
 10
84.085879432482116
 20
99.883731009936895
 30
0.0
  0
SEQEND
  5
1CCB
  8
0
  0
POLYLINE
  5
1803
  8
0
 66
     1
 10
0.0
 20
0.0
 30
0.0
  0
VERTEX
  5
1CCC
  8
0
 10
86.274186162889066
 20
100.113731315363
 30
0.0
  0
VERTEX
  5
1CCD
  8
0
 10
86.220393228327652
 20
100.1080774501132
 30
0.0
  0
VERTEX
  5
1CCE
  8
0
 10
86.112832264729434
 20
100.09677233728981
 30
0.0
  0
VERTEX
  5
1CCF
  8
0
 10
86.005346006173966
 20
100.0854750762828
 30
0.0
  0
VERTEX
  5
1CD0
  8
0
 10
85.951646444809285
 20
100.0798310249514
 30
0.0
  0
VERTEX
  5
1CD1
  8
0
 10
85.897984217591784
 20
100.07419089759711
 30
0.0
  0
VERTEX
  5
1CD2
  8
0
 10
85.790796606285355
 20
100.0629250256808
 30
0.0
  0
VERTEX
  5
1CD3
  8
0
 10
85.683832798914835
 20
100.051682676506
 30
0.0
  0
VERTEX
  5
1CD4
  8
0
 10
85.577142318521794
 20
100.0404690551542
 30
0.0
  0
VERTEX
  5
1CD5
  8
0
 10
85.470774561600507
 20
100.029289353406
 30
0.0
  0
VERTEX
  5
1CD6
  8
0
 10
85.364778775227819
 20
100.0181487473379
 30
0.0
  0
VERTEX
  5
1CD7
  8
0
 10
85.311935714239667
 20
100.0125947178237
 30
0.0
  0
VERTEX
  5
1CD8
  8
0
 10
85.25920403426241
 20
100.0070523949254
 30
0.0
  0
VERTEX
  5
1CD9
  8
0
 10
85.154099218623713
 20
99.996005433654972
 30
0.0
  0
VERTEX
  5
1CDA
  8
0
 10
85.049512990660958
 20
99.985012978145633
 30
0.0
  0
VERTEX
  5
1CDB
  8
0
 10
84.945493772623067
 20
99.974080117780844
 30
0.0
  0
VERTEX
  5
1CDC
  8
0
 10
84.842089724239941
 20
99.963211914352115
 30
0.0
  0
VERTEX
  5
1CDD
  8
0
 10
84.739348720424545
 20
99.952413399715695
 30
0.0
  0
VERTEX
  5
1CDE
  8
0
 10
84.688241737802912
 20
99.947041839390494
 30
0.0
  0
VERTEX
  5
1CDF
  8
0
 10
84.637318329107856
 20
99.941689573462497
 30
0.0
  0
VERTEX
  5
1CE0
  8
0
 10
84.536045789215223
 20
99.931045400603665
 30
0.0
  0
VERTEX
  5
1CE1
  8
0
 10
84.435577988795217
 20
99.920485809271696
 30
0.0
  0
VERTEX
  5
1CE2
  8
0
 10
84.385660417113954
 20
99.915239261073793
 30
0.0
  0
SEQEND
  5
1CE3
  8
0
  0
LINE
  5
1804
  8
0
 10
86.800852885020177
 20
100.1690862184325
 30
0.0
 11
86.274186162889066
 21
100.113731315363
 31
0.0
  0
POLYLINE
  5
1805
  8
0
 66
     1
 10
0.0
 20
0.0
 30
0.0
  0
VERTEX
  5
1CE4
  8
0
 10
90.971618672435852
 20
100.6074513669911
 30
0.0
  0
VERTEX
  5
1CE5
  8
0
 10
90.892253898569905
 20
100.5991097931268
 30
0.0
  0
VERTEX
  5
1CE6
  8
0
 10
90.724759437935475
 20
100.58150541593059
 30
0.0
  0
VERTEX
  5
1CE7
  8
0
 10
90.548274133001343
 20
100.56295606291989
 30
0.0
  0
VERTEX
  5
1CE8
  8
0
 10
90.457838444150013
 20
100.55345088900241
 30
0.0
  0
VERTEX
  5
1CE9
  8
0
 10
90.366644359832492
 20
100.5438660045095
 30
0.0
  0
VERTEX
  5
1CEA
  8
0
 10
90.177446711434555
 20
100.5239805303606
 30
0.0
  0
VERTEX
  5
1CEB
  8
0
 10
89.971391451157373
 20
100.50232324980669
 30
0.0
  0
VERTEX
  5
1CEC
  8
0
 10
89.750838594165486
 20
100.4791422104369
 30
0.0
  0
VERTEX
  5
1CED
  8
0
 10
89.518940540449506
 20
100.4547687428414
 30
0.0
  0
VERTEX
  5
1CEE
  8
0
 10
89.279246630773514
 20
100.42957589776709
 30
0.0
  0
VERTEX
  5
1CEF
  8
0
 10
89.157723871582164
 20
100.41680334109491
 30
0.0
  0
VERTEX
  5
1CF0
  8
0
 10
89.035818585481792
 20
100.4039905792245
 30
0.0
  0
VERTEX
  5
1CF1
  8
0
 10
88.793214631384998
 20
100.3784918761567
 30
0.0
  0
VERTEX
  5
1CF2
  8
0
 10
88.550472452508416
 20
100.3529786450792
 30
0.0
  0
VERTEX
  5
1CF3
  8
0
 10
88.294081185260666
 20
100.3260308370063
 30
0.0
  0
VERTEX
  5
1CF4
  8
0
 10
88.026684010531937
 20
100.2979262614442
 30
0.0
  0
VERTEX
  5
1CF5
  8
0
 10
87.752412072479046
 20
100.26909911914041
 30
0.0
  0
VERTEX
  5
1CF6
  8
0
 10
87.614011276470649
 20
100.2545526093157
 30
0.0
  0
VERTEX
  5
1CF7
  8
0
 10
87.475480643918303
 20
100.23999245312049
 30
0.0
  0
VERTEX
  5
1CF8
  8
0
 10
87.200285411388847
 20
100.2110682686567
 30
0.0
  0
VERTEX
  5
1CF9
  8
0
 10
86.931441474080486
 20
100.18281163222009
 30
0.0
  0
VERTEX
  5
1CFA
  8
0
 10
86.800852885020177
 20
100.1690862184325
 30
0.0
  0
SEQEND
  5
1CFB
  8
0
  0
POLYLINE
  5
1809
  8
0
 66
     1
 10
0.0
 20
0.0
 30
0.0
  0
VERTEX
  5
1CFC
  8
0
 10
90.971618672435852
 20
94.839632605912925
 30
0.0
  0
VERTEX
  5
1CFD
  8
0
 10
91.019778736612722
 20
94.835744463479145
 30
0.0
  0
VERTEX
  5
1CFE
  8
0
 10
91.113164034973124
 20
94.834839861556333
 30
0.0
  0
VERTEX
  5
1CFF
  8
0
 10
91.202361512031302
 20
94.842151511765451
 30
0.0
  0
VERTEX
  5
1D00
  8
0
 10
91.245259081204324
 20
94.848557651707836
 30
0.0
  0
VERTEX
  5
1D01
  8
0
 10
91.28695811457635
 20
94.856627657053025
 30
0.0
  0
VERTEX
  5
1D02
  8
0
 10
91.366294866404303
 20
94.877172633966467
 30
0.0
  0
VERTEX
  5
1D03
  8
0
 10
91.439883290792466
 20
94.902652483311783
 30
0.0
  0
VERTEX
  5
1D04
  8
0
 10
91.507718144801075
 20
94.932075533503706
 30
0.0
  0
VERTEX
  5
1D05
  8
0
 10
91.569799733817007
 20
94.96449530804756
 30
0.0
  0
VERTEX
  5
1D06
  8
0
 10
91.626134792781329
 20
94.998981718521833
 30
0.0
  0
VERTEX
  5
1D07
  8
0
 10
91.652151873818013
 20
95.016708147280127
 30
0.0
  0
VERTEX
  5
1D08
  8
0
 10
91.676739014830446
 20
95.034598752926684
 30
0.0
  0
VERTEX
  5
1D09
  8
0
 10
91.721638651644724
 20
95.070387060990697
 30
0.0
  0
VERTEX
  5
1D0A
  8
0
 10
91.760870608031169
 20
95.105351533090555
 30
0.0
  0
VERTEX
  5
1D0B
  8
0
 10
91.794481386088535
 20
95.138456359323257
 30
0.0
  0
VERTEX
  5
1D0C
  8
0
 10
91.822747374923438
 20
95.168881562708833
 30
0.0
  0
VERTEX
  5
1D0D
  8
0
 10
91.845942805419014
 20
95.195864107426473
 30
0.0
  0
VERTEX
  5
1D0E
  8
0
 10
91.855531110275763
 20
95.207607918671499
 30
0.0
  0
VERTEX
  5
1D0F
  8
0
 10
91.863722639510826
 20
95.217936337152096
 30
0.0
  0
VERTEX
  5
1D10
  8
0
 10
91.875787373555795
 20
95.23367511778207
 30
0.0
  0
VERTEX
  5
1D11
  8
0
 10
91.881919126608011
 20
95.241928616441839
 30
0.0
  0
VERTEX
  5
1D12
  8
0
 10
91.88269037770965
 20
95.242979401353807
 30
0.0
  0
SEQEND
  5
1D13
  8
0
  0
POLYLINE
  5
180C
  8
0
 66
     1
 10
0.0
 20
0.0
 30
0.0
  0
VERTEX
  5
1D14
  8
0
 10
86.800852885020177
 20
95.277997754471485
 30
0.0
  0
VERTEX
  5
1D15
  8
0
 10
86.931441474080529
 20
95.264272340683874
 30
0.0
  0
VERTEX
  5
1D16
  8
0
 10
87.200285411389103
 20
95.236015704247251
 30
0.0
  0
VERTEX
  5
1D17
  8
0
 10
87.475480643918729
 20
95.207091519783461
 30
0.0
  0
VERTEX
  5
1D18
  8
0
 10
87.614011276471132
 20
95.192531363588174
 30
0.0
  0
VERTEX
  5
1D19
  8
0
 10
87.752412072479629
 20
95.177984853763547
 30
0.0
  0
VERTEX
  5
1D1A
  8
0
 10
88.026684010532676
 20
95.149157711459651
 30
0.0
  0
VERTEX
  5
1D1B
  8
0
 10
88.294081185261504
 20
95.121053135897554
 30
0.0
  0
VERTEX
  5
1D1C
  8
0
 10
88.550472452509425
 20
95.094105327824664
 30
0.0
  0
VERTEX
  5
1D1D
  8
0
 10
88.793214631386093
 20
95.068592096747125
 30
0.0
  0
VERTEX
  5
1D1E
  8
0
 10
89.035818585483071
 20
95.043093393679328
 30
0.0
  0
VERTEX
  5
1D1F
  8
0
 10
89.157723871583499
 20
95.030280631808907
 30
0.0
  0
VERTEX
  5
1D20
  8
0
 10
89.279246630774935
 20
95.017508075136703
 30
0.0
  0
VERTEX
  5
1D21
  8
0
 10
89.518940540451013
 20
94.992315230062346
 30
0.0
  0
VERTEX
  5
1D22
  8
0
 10
89.750838594167035
 20
94.967941762466936
 30
0.0
  0
VERTEX
  5
1D23
  8
0
 10
89.971391451159036
 20
94.944760723097147
 30
0.0
  0
VERTEX
  5
1D24
  8
0
 10
90.177446711436176
 20
94.923103442543237
 30
0.0
  0
VERTEX
  5
1D25
  8
0
 10
90.366644359834083
 20
94.903217968394287
 30
0.0
  0
VERTEX
  5
1D26
  8
0
 10
90.45783844415169
 20
94.893633083901364
 30
0.0
  0
VERTEX
  5
1D27
  8
0
 10
90.548274133003005
 20
94.884127909983903
 30
0.0
  0
VERTEX
  5
1D28
  8
0
 10
90.724759437937195
 20
94.865578556973162
 30
0.0
  0
VERTEX
  5
1D29
  8
0
 10
90.892253898571624
 20
94.847974179776926
 30
0.0
  0
VERTEX
  5
1D2A
  8
0
 10
90.971618672435852
 20
94.839632605912925
 30
0.0
  0
SEQEND
  5
1D2B
  8
0
  0
LINE
  5
180D
  8
0
 10
86.274186162889066
 20
95.333352657540956
 30
0.0
 11
86.80085288502022
 21
95.277997754471485
 31
0.0
  0
POLYLINE
  5
180E
  8
0
 66
     1
 10
0.0
 20
0.0
 30
0.0
  0
VERTEX
  5
1D2C
  8
0
 10
84.385660417113954
 20
95.531844711830203
 30
0.0
  0
VERTEX
  5
1D2D
  8
0
 10
84.435577988795217
 20
95.526598163632343
 30
0.0
  0
VERTEX
  5
1D2E
  8
0
 10
84.536045789215223
 20
95.516038572300374
 30
0.0
  0
VERTEX
  5
1D2F
  8
0
 10
84.637318329107856
 20
95.505394399441499
 30
0.0
  0
VERTEX
  5
1D30
  8
0
 10
84.688241737802912
 20
95.500042133513517
 30
0.0
  0
VERTEX
  5
1D31
  8
0
 10
84.739348720424545
 20
95.494670573188344
 30
0.0
  0
VERTEX
  5
1D32
  8
0
 10
84.842089724239941
 20
95.483872058551896
 30
0.0
  0
VERTEX
  5
1D33
  8
0
 10
84.945493772623067
 20
95.473003855123196
 30
0.0
  0
VERTEX
  5
1D34
  8
0
 10
85.049512990660958
 20
95.462070994758392
 30
0.0
  0
VERTEX
  5
1D35
  8
0
 10
85.154099218623713
 20
95.451078539249025
 30
0.0
  0
VERTEX
  5
1D36
  8
0
 10
85.25920403426241
 20
95.440031577978601
 30
0.0
  0
VERTEX
  5
1D37
  8
0
 10
85.311935714239695
 20
95.434489255080294
 30
0.0
  0
VERTEX
  5
1D38
  8
0
 10
85.364778775227819
 20
95.428935225566079
 30
0.0
  0
VERTEX
  5
1D39
  8
0
 10
85.470774561600535
 20
95.417794619497997
 30
0.0
  0
VERTEX
  5
1D3A
  8
0
 10
85.577142318521823
 20
95.406614917749835
 30
0.0
  0
VERTEX
  5
1D3B
  8
0
 10
85.683832798914835
 20
95.395401296398006
 30
0.0
  0
VERTEX
  5
1D3C
  8
0
 10
85.790796606285355
 20
95.384158947223227
 30
0.0
  0
VERTEX
  5
1D3D
  8
0
 10
85.897984217591784
 20
95.372893075306905
 30
0.0
  0
VERTEX
  5
1D3E
  8
0
 10
85.951646444809285
 20
95.367252947952551
 30
0.0
  0
VERTEX
  5
1D3F
  8
0
 10
86.005346006173966
 20
95.36160889662122
 30
0.0
  0
VERTEX
  5
1D40
  8
0
 10
86.112832264729434
 20
95.350311635614162
 30
0.0
  0
VERTEX
  5
1D41
  8
0
 10
86.220393228327666
 20
95.339006522790754
 30
0.0
  0
VERTEX
  5
1D42
  8
0
 10
86.274186162889066
 20
95.333352657540956
 30
0.0
  0
SEQEND
  5
1D43
  8
0
  0
POLYLINE
  5
180F
  8
0
 66
     1
 10
0.0
 20
0.0
 30
0.0
  0
VERTEX
  5
1D44
  8
0
 10
84.085879432482116
 20
95.563352962967116
 30
0.0
  0
VERTEX
  5
1D45
  8
0
 10
84.135964432598655
 20
95.558088817331594
 30
0.0
  0
VERTEX
  5
1D46
  8
0
 10
84.235989526492745
 20
95.547575756330474
 30
0.0
  0
VERTEX
  5
1D47
  8
0
 10
84.33581941839401
 20
95.537083211885545
 30
0.0
  0
VERTEX
  5
1D48
  8
0
 10
84.385660417113954
 20
95.531844711830203
 30
0.0
  0
SEQEND
  5
1D49
  8
0
  0
POLYLINE
  5
1811
  8
0
 66
     1
 10
0.0
 20
0.0
 30
0.0
  0
VERTEX
  5
1D4A
  8
0
 10
80.903862596297699
 20
94.160795373017379
 30
0.0
  0
VERTEX
  5
1D4B
  8
0
 10
80.964362791399878
 20
94.240372309974362
 30
0.0
  0
VERTEX
  5
1D4C
  8
0
 10
81.094162638740897
 20
94.396575074000509
 30
0.0
  0
VERTEX
  5
1D4D
  8
0
 10
81.235072240117503
 20
94.54727497167471
 30
0.0
  0
VERTEX
  5
1D4E
  8
0
 10
81.309409799999997
 20
94.620027297128274
 30
0.0
  0
VERTEX
  5
1D4F
  8
0
 10
81.386159861478291
 20
94.690792239415799
 30
0.0
  0
VERTEX
  5
1D50
  8
0
 10
81.546282776498515
 20
94.825667563201435
 30
0.0
  0
VERTEX
  5
1D51
  8
0
 10
81.714108781544596
 20
94.950675701753909
 30
0.0
  0
VERTEX
  5
1D52
  8
0
 10
81.888251638042945
 20
95.064906037550656
 30
0.0
  0
VERTEX
  5
1D53
  8
0
 10
82.067085945137933
 20
95.167615724343079
 30
0.0
  0
VERTEX
  5
1D54
  8
0
 10
82.248832184004186
 20
95.258306161312063
 30
0.0
  0
VERTEX
  5
1D55
  8
0
 10
82.340214126244177
 20
95.299063081024244
 30
0.0
  0
VERTEX
  5
1D56
  8
0
 10
82.431608178333448
 20
95.336749692188164
 30
0.0
  0
VERTEX
  5
1D57
  8
0
 10
82.613435030372557
 20
95.402985332296225
 30
0.0
  0
VERTEX
  5
1D58
  8
0
 10
82.798362381401432
 20
95.458993291719565
 30
0.0
  0
VERTEX
  5
1D59
  8
0
 10
82.989607454085544
 20
95.505461207386247
 30
0.0
  0
VERTEX
  5
1D5A
  8
0
 10
83.185647571657569
 20
95.541490859529276
 30
0.0
  0
VERTEX
  5
1D5B
  8
0
 10
83.384946412197962
 20
95.566449278357283
 30
0.0
  0
VERTEX
  5
1D5C
  8
0
 10
83.485329637803133
 20
95.574648295644977
 30
0.0
  0
VERTEX
  5
1D5D
  8
0
 10
83.585938695520497
 20
95.579956753466462
 30
0.0
  0
VERTEX
  5
1D5E
  8
0
 10
83.787074337253998
 20
95.581884131905056
 30
0.0
  0
VERTEX
  5
1D5F
  8
0
 10
83.9869164764076
 20
95.572335995600071
 30
0.0
  0
VERTEX
  5
1D60
  8
0
 10
84.085879432482159
 20
95.563352962967116
 30
0.0
  0
SEQEND
  5
1D61
  8
0
  0
POLYLINE
  5
1813
  8
0
 66
     1
 10
0.0
 20
0.0
 30
0.0
  0
VERTEX
  5
1D62
  8
0
 10
68.066414838924857
 20
95.563352962967116
 30
0.0
  0
VERTEX
  5
1D63
  8
0
 10
68.165377799054511
 20
95.57233599591018
 30
0.0
  0
VERTEX
  5
1D64
  8
0
 10
68.365219946443673
 20
95.581884132140516
 30
0.0
  0
VERTEX
  5
1D65
  8
0
 10
68.566355596429787
 20
95.579956752678797
 30
0.0
  0
VERTEX
  5
1D66
  8
0
 10
68.666964658224515
 20
95.574648293990265
 30
0.0
  0
VERTEX
  5
1D67
  8
0
 10
68.767347887840444
 20
95.566449275603503
 30
0.0
  0
VERTEX
  5
1D68
  8
0
 10
68.966646736105332
 20
95.541490853912535
 30
0.0
  0
VERTEX
  5
1D69
  8
0
 10
69.162686860852091
 20
95.505461198097208
 30
0.0
  0
VERTEX
  5
1D6A
  8
0
 10
69.353931939975155
 20
95.458993278079447
 30
0.0
  0
VERTEX
  5
1D6B
  8
0
 10
69.538859296529722
 20
95.402985313801537
 30
0.0
  0
VERTEX
  5
1D6C
  8
0
 10
69.720686156439228
 20
95.336749667100207
 30
0.0
  0
VERTEX
  5
1D6D
  8
0
 10
69.812080212339424
 20
95.299063052207103
 30
0.0
  0
VERTEX
  5
1D6E
  8
0
 10
69.903462158205215
 20
95.258306128512459
 30
0.0
  0
VERTEX
  5
1D6F
  8
0
 10
70.08520840367089
 20
95.167615682872338
 30
0.0
  0
VERTEX
  5
1D70
  8
0
 10
70.264042716345443
 20
95.064905986583454
 30
0.0
  0
VERTEX
  5
1D71
  8
0
 10
70.438185577231081
 20
94.950675640650147
 30
0.0
  0
VERTEX
  5
1D72
  8
0
 10
70.606011585394242
 20
94.825667491497825
 30
0.0
  0
VERTEX
  5
1D73
  8
0
 10
70.766134502150635
 20
94.690792156895839
 30
0.0
  0
VERTEX
  5
1D74
  8
0
 10
70.842884563943983
 20
94.620027209218335
 30
0.0
  0
VERTEX
  5
1D75
  8
0
 10
70.91722212376925
 20
94.547274878436639
 30
0.0
  0
VERTEX
  5
1D76
  8
0
 10
71.058131723921065
 20
94.396574970448853
 30
0.0
  0
VERTEX
  5
1D77
  8
0
 10
71.187931568572878
 20
94.240372196871817
 30
0.0
  0
VERTEX
  5
1D78
  8
0
 10
71.248431761803374
 20
94.160795255542226
 30
0.0
  0
SEQEND
  5
1D79
  8
0
  0
POLYLINE
  5
1815
  8
0
 66
     1
 10
0.0
 20
0.0
 30
0.0
  0
VERTEX
  5
1D7A
  8
0
 10
71.248431761803374
 20
94.160795255542226
 30
0.0
  0
VERTEX
  5
1D7B
  8
0
 10
71.27939786151785
 20
94.119211757324877
 30
0.0
  0
VERTEX
  5
1D7C
  8
0
 10
71.342235747035744
 20
94.037069015678753
 30
0.0
  0
VERTEX
  5
1D7D
  8
0
 10
71.406238854374635
 20
93.95632064387388
 30
0.0
  0
VERTEX
  5
1D7E
  8
0
 10
71.438660970422234
 20
93.916479855776288
 30
0.0
  0
VERTEX
  5
1D7F
  8
0
 10
71.471354451421007
 20
93.877000119426725
 30
0.0
  0
VERTEX
  5
1D80
  8
0
 10
71.537527708299137
 20
93.799139650657708
 30
0.0
  0
VERTEX
  5
1D81
  8
0
 10
71.6047017907959
 20
93.722769995010367
 30
0.0
  0
VERTEX
  5
1D82
  8
0
 10
71.672817965724221
 20
93.647920288991656
 30
0.0
  0
VERTEX
  5
1D83
  8
0
 10
71.741815718521138
 20
93.574617889047232
 30
0.0
  0
VERTEX
  5
1D84
  8
0
 10
71.811632883600112
 20
93.502888222684234
 30
0.0
  0
VERTEX
  5
1D85
  8
0
 10
71.846844449424651
 20
93.467605099251415
 30
0.0
  0
VERTEX
  5
1D86
  8
0
 10
71.882414201934182
 20
93.432550949381564
 30
0.0
  0
VERTEX
  5
1D87
  8
0
 10
71.954742486529653
 20
93.363034708878871
 30
0.0
  0
VERTEX
  5
1D88
  8
0
 10
72.028635903865109
 20
93.294360027202416
 30
0.0
  0
VERTEX
  5
1D89
  8
0
 10
72.104068700272194
 20
93.226588250556816
 30
0.0
  0
VERTEX
  5
1D8A
  8
0
 10
72.181013108187074
 20
93.159779185025542
 30
0.0
  0
VERTEX
  5
1D8B
  8
0
 10
72.259439485817424
 20
93.093990959051922
 30
0.0
  0
VERTEX
  5
1D8C
  8
0
 10
72.299198674271594
 20
93.061497336334725
 30
0.0
  0
VERTEX
  5
1D8D
  8
0
 10
72.339316466475111
 20
93.029279898592591
 30
0.0
  0
VERTEX
  5
1D8E
  8
0
 10
72.420611118289116
 20
92.965700414332744
 30
0.0
  0
VERTEX
  5
1D8F
  8
0
 10
72.503289115021829
 20
92.903304900576387
 30
0.0
  0
VERTEX
  5
1D90
  8
0
 10
72.545135804203852
 20
92.872566932215875
 30
0.0
  0
VERTEX
  5
1D91
  8
0
 10
72.587314918707818
 20
92.842143645642963
 30
0.0
  0
VERTEX
  5
1D92
  8
0
 10
72.672651974808787
 20
92.782264753816037
 30
0.0
  0
VERTEX
  5
1D93
  8
0
 10
72.759262918588206
 20
92.723714080388504
 30
0.0
  0
VERTEX
  5
1D94
  8
0
 10
72.803034213092246
 20
92.6949505538702
 30
0.0
  0
VERTEX
  5
1D95
  8
0
 10
72.847109540017499
 20
92.666535341642614
 30
0.0
  0
VERTEX
  5
1D96
  8
0
 10
72.936152041727894
 20
92.610770643060135
 30
0.0
  0
VERTEX
  5
1D97
  8
0
 10
73.026348813041693
 20
92.55646058675552
 30
0.0
  0
VERTEX
  5
1D98
  8
0
 10
73.117656566054052
 20
92.503644137902128
 30
0.0
  0
VERTEX
  5
1D99
  8
0
 10
73.210030487105996
 20
92.452358499166394
 30
0.0
  0
VERTEX
  5
1D9A
  8
0
 10
73.303424396831531
 20
92.40263899792248
 30
0.0
  0
VERTEX
  5
1D9B
  8
0
 10
73.350489084404444
 20
92.378377050980987
 30
0.0
  0
VERTEX
  5
1D9C
  8
0
 10
73.39779091937271
 20
92.354518986087555
 30
0.0
  0
VERTEX
  5
1D9D
  8
0
 10
73.493081661373537
 20
92.308029752570107
 30
0.0
  0
VERTEX
  5
1D9E
  8
0
 10
73.589247401364901
 20
92.26320044847597
 30
0.0
  0
VERTEX
  5
1D9F
  8
0
 10
73.686238290137766
 20
92.220058025370008
 30
0.0
  0
VERTEX
  5
1DA0
  8
0
 10
73.784004191206293
 20
92.178627133905437
 30
0.0
  0
VERTEX
  5
1DA1
  8
0
 10
73.882511493350535
 20
92.138923586901456
 30
0.0
  0
VERTEX
  5
1DA2
  8
0
 10
73.932031661681194
 20
92.119724641636225
 30
0.0
  0
VERTEX
  5
1DA3
  8
0
 10
73.981720821859255
 20
92.100964426659985
 30
0.0
  0
VERTEX
  5
1DA4
  8
0
 10
74.081579482508346
 20
92.064770045754315
 30
0.0
  0
VERTEX
  5
1DA5
  8
0
 10
74.182033333862421
 20
92.030358965884744
 30
0.0
  0
VERTEX
  5
1DA6
  8
0
 10
74.283026970627247
 20
91.997747711978207
 30
0.0
  0
VERTEX
  5
1DA7
  8
0
 10
74.384503914525766
 20
91.966950702346139
 30
0.0
  0
VERTEX
  5
1DA8
  8
0
 10
74.486406812941993
 20
91.937980154945393
 30
0.0
  0
VERTEX
  5
1DA9
  8
0
 10
74.537499884022225
 20
91.924183001625011
 30
0.0
  0
VERTEX
  5
1DAA
  8
0
 10
74.588677645622369
 20
91.910846009878156
 30
0.0
  0
VERTEX
  5
1DAB
  8
0
 10
74.691257939761144
 20
91.885555868366225
 30
0.0
  0
VERTEX
  5
1DAC
  8
0
 10
74.794088993820537
 20
91.862114948534384
 30
0.0
  0
VERTEX
  5
1DAD
  8
0
 10
74.897112110447836
 20
91.840526058441924
 30
0.0
  0
VERTEX
  5
1DAE
  8
0
 10
75.000268812521171
 20
91.820789591703729
 30
0.0
  0
VERTEX
  5
1DAF
  8
0
 10
75.103500402304164
 20
91.802903648231393
 30
0.0
  0
VERTEX
  5
1DB0
  8
0
 10
75.155125612796382
 20
91.794653443534202
 30
0.0
  0
VERTEX
  5
1DB1
  8
0
 10
75.206746987941244
 20
91.786864179540885
 30
0.0
  0
VERTEX
  5
1DB2
  8
0
 10
75.309947494567353
 20
91.772664899003217
 30
0.0
  0
VERTEX
  5
1DB3
  8
0
 10
75.413039896282385
 20
91.760297165968154
 30
0.0
  0
VERTEX
  5
1DB4
  8
0
 10
75.515961450660882
 20
91.749749891118157
 30
0.0
  0
VERTEX
  5
1DB5
  8
0
 10
75.618648935264844
 20
91.741009462796541
 30
0.0
  0
VERTEX
  5
1DB6
  8
0
 10
75.721038886105703
 20
91.734059694044106
 30
0.0
  0
VERTEX
  5
1DB7
  8
0
 10
75.772102446962634
 20
91.731250535992615
 30
0.0
  0
VERTEX
  5
1DB8
  8
0
 10
75.823067838157513
 20
91.728881790147824
 30
0.0
  0
VERTEX
  5
1DB9
  8
0
 10
75.924672568176931
 20
91.725454336592847
 30
0.0
  0
VERTEX
  5
1DBA
  8
0
 10
76.025790340233698
 20
91.723753307410874
 30
0.0
  0
VERTEX
  5
1DBB
  8
0
 10
76.076147206445853
 20
91.723541986452005
 30
0.0
  0
VERTEX
  5
1DBC
  8
0
 10
76.126504073055003
 20
91.723753308601715
 30
0.0
  0
VERTEX
  5
1DBD
  8
0
 10
76.227621845840645
 20
91.725454340194347
 30
0.0
  0
VERTEX
  5
1DBE
  8
0
 10
76.329226576501114
 20
91.728881796195523
 30
0.0
  0
VERTEX
  5
1DBF
  8
0
 10
76.380191967983365
 20
91.731250543275706
 30
0.0
  0
VERTEX
  5
1DC0
  8
0
 10
76.431255529105314
 20
91.734059702570065
 30
0.0
  0
VERTEX
  5
1DC1
  8
0
 10
76.533645480409461
 20
91.741009473828996
 30
0.0
  0
VERTEX
  5
1DC2
  8
0
 10
76.636332965387325
 20
91.749749904681721
 30
0.0
  0
VERTEX
  5
1DC3
  8
0
 10
76.739254520050537
 20
91.760297182083804
 30
0.0
  0
VERTEX
  5
1DC4
  8
0
 10
76.842346921961663
 20
91.772664917688274
 30
0.0
  0
VERTEX
  5
1DC5
  8
0
 10
76.945547428696045
 20
91.786864200809205
 30
0.0
  0
VERTEX
  5
1DC6
  8
0
 10
76.997168803862451
 20
91.79465346609831
 30
0.0
  0
VERTEX
  5
1DC7
  8
0
 10
77.048794014354712
 20
91.802903672093507
 30
0.0
  0
VERTEX
  5
1DC8
  8
0
 10
77.152025604074197
 20
91.820789618166827
 30
0.0
  0
VERTEX
  5
1DC9
  8
0
 10
77.255182306000677
 20
91.84052608751017
 30
0.0
  0
VERTEX
  5
1DCA
  8
0
 10
77.358205422398953
 20
91.862114980208929
 30
0.0
  0
VERTEX
  5
1DCB
  8
0
 10
77.461036476146873
 20
91.885555902644825
 30
0.0
  0
VERTEX
  5
1DCC
  8
0
 10
77.56361676989161
 20
91.910846046755125
 30
0.0
  0
VERTEX
  5
1DCD
  8
0
 10
77.614794531263783
 20
91.92418303979801
 30
0.0
  0
VERTEX
  5
1DCE
  8
0
 10
77.665887602095381
 20
91.93798019441175
 30
0.0
  0
VERTEX
  5
1DCF
  8
0
 10
77.767790499953094
 20
91.966950744389521
 30
0.0
  0
VERTEX
  5
1DD0
  8
0
 10
77.869267443211868
 20
91.99774775658301
 30
0.0
  0
VERTEX
  5
1DD1
  8
0
 10
77.970261079256773
 20
92.030359013032225
 30
0.0
  0
VERTEX
  5
1DD2
  8
0
 10
78.070714929812226
 20
92.064770095422631
 30
0.0
  0
VERTEX
  5
1DD3
  8
0
 10
78.170573589585615
 20
92.100964478824494
 30
0.0
  0
VERTEX
  5
1DD4
  8
0
 10
78.22026274929749
 20
92.119724695038713
 30
0.0
  0
VERTEX
  5
1DD5
  8
0
 10
78.269782917143431
 20
92.138923641534745
 30
0.0
  0
VERTEX
  5
1DD6
  8
0
 10
78.368290218263724
 20
92.178627190977565
 30
0.0
  0
VERTEX
  5
1DD7
  8
0
 10
78.466056118273798
 20
92.220058084864775
 30
0.0
  0
VERTEX
  5
1DD8
  8
0
 10
78.563047005921135
 20
92.263200510361727
 30
0.0
  0
VERTEX
  5
1DD9
  8
0
 10
78.659212744716456
 20
92.308029816810574
 30
0.0
  0
VERTEX
  5
1DDA
  8
0
 10
78.754503485451494
 20
92.354519052643255
 30
0.0
  0
VERTEX
  5
1DDB
  8
0
 10
78.801805319761058
 20
92.378377118678515
 30
0.0
  0
VERTEX
  5
1DDC
  8
0
 10
78.848870006658217
 20
92.402639066750822
 30
0.0
  0
VERTEX
  5
1DDD
  8
0
 10
78.942263914981936
 20
92.452358570221946
 30
0.0
  0
VERTEX
  5
1DDE
  8
0
 10
79.034637834566155
 20
92.503644211136532
 30
0.0
  0
VERTEX
  5
1DDF
  8
0
 10
79.125945586046754
 20
92.556460662117715
 30
0.0
  0
VERTEX
  5
1DE0
  8
0
 10
79.216142355766806
 20
92.610770720496575
 30
0.0
  0
VERTEX
  5
1DE1
  8
0
 10
79.305184855823654
 20
92.666535421097251
 30
0.0
  0
VERTEX
  5
1DE2
  8
0
 10
79.349260181900533
 20
92.694950634312249
 30
0.0
  0
VERTEX
  5
1DE3
  8
0
 10
79.393031475542159
 20
92.723714161803144
 30
0.0
  0
VERTEX
  5
1DE4
  8
0
 10
79.47964241755605
 20
92.782264837130441
 30
0.0
  0
VERTEX
  5
1DE5
  8
0
 10
79.564979471838456
 20
92.842143730794206
 30
0.0
  0
VERTEX
  5
1DE6
  8
0
 10
79.607158585413572
 20
92.872567018260924
 30
0.0
  0
VERTEX
  5
1DE7
  8
0
 10
79.649005273653842
 20
92.903304987498288
 30
0.0
  0
VERTEX
  5
1DE8
  8
0
 10
79.731683268465176
 20
92.965700502956167
 30
0.0
  0
VERTEX
  5
1DE9
  8
0
 10
79.812977918308633
 20
93.029279988845275
 30
0.0
  0
VERTEX
  5
1DEA
  8
0
 10
79.853095709509006
 20
93.061497427374007
 30
0.0
  0
VERTEX
  5
1DEB
  8
0
 10
79.892854896948421
 20
93.093991050858705
 30
0.0
  0
VERTEX
  5
1DEC
  8
0
 10
79.971281272515597
 20
93.15977927830852
 30
0.0
  0
VERTEX
  5
1DED
  8
0
 10
80.048225678324386
 20
93.226588345235456
 30
0.0
  0
VERTEX
  5
1DEE
  8
0
 10
80.123658472584935
 20
93.294360123193712
 30
0.0
  0
VERTEX
  5
1DEF
  8
0
 10
80.197551887736154
 20
93.363034806097545
 30
0.0
  0
VERTEX
  5
1DF0
  8
0
 10
80.269880170112657
 20
93.432551047740347
 30
0.0
  0
VERTEX
  5
1DF1
  8
0
 10
80.305449921500639
 20
93.467605198146913
 30
0.0
  0
VERTEX
  5
1DF2
  8
0
 10
80.340661486572998
 20
93.502888322476679
 30
0.0
  0
VERTEX
  5
1DF3
  8
0
 10
80.410478650543496
 20
93.574617991068976
 30
0.0
  0
VERTEX
  5
1DF4
  8
0
 10
80.479476402143348
 20
93.647920393208295
 30
0.0
  0
VERTEX
  5
1DF5
  8
0
 10
80.547592575788414
 20
93.722770101384839
 30
0.0
  0
VERTEX
  5
1DF6
  8
0
 10
80.614766656918221
 20
93.799139759150535
 30
0.0
  0
VERTEX
  5
1DF7
  8
0
 10
80.680939912348265
 20
93.8770002299959
 30
0.0
  0
VERTEX
  5
1DF8
  8
0
 10
80.713633392593351
 20
93.916479967367223
 30
0.0
  0
VERTEX
  5
1DF9
  8
0
 10
80.746055507868036
 20
93.956320756475264
 30
0.0
  0
VERTEX
  5
1DFA
  8
0
 10
80.81005861360461
 20
94.037069130266005
 30
0.0
  0
VERTEX
  5
1DFB
  8
0
 10
80.872896497447314
 20
94.119211873849849
 30
0.0
  0
VERTEX
  5
1DFC
  8
0
 10
80.903862596297699
 20
94.160795373017379
 30
0.0
  0
SEQEND
  5
1DFD
  8
0
  0
POLYLINE
  5
1816
  8
0
 66
     1
 10
0.0
 20
0.0
 30
0.0
  0
VERTEX
  5
1DFE
  8
0
 10
80.903862509603627
 20
101.2862887173618
 30
0.0
  0
VERTEX
  5
1DFF
  8
0
 10
80.872896410294473
 20
101.3278722150396
 30
0.0
  0
VERTEX
  5
1E00
  8
0
 10
80.810058525610614
 20
101.4100149556337
 30
0.0
  0
VERTEX
  5
1E01
  8
0
 10
80.746055419135018
 20
101.4907633264236
 30
0.0
  0
VERTEX
  5
1E02
  8
0
 10
80.713633303529434
 20
101.53060411402789
 30
0.0
  0
VERTEX
  5
1E03
  8
0
 10
80.680939822979227
 20
101.570083849894
 30
0.0
  0
VERTEX
  5
1E04
  8
0
 10
80.614766567016659
 20
101.6479443177257
 30
0.0
  0
VERTEX
  5
1E05
  8
0
 10
80.547592485458125
 20
101.72431397247639
 30
0.0
  0
VERTEX
  5
1E06
  8
0
 10
80.479476311488284
 20
101.79916367764
 30
0.0
  0
VERTEX
  5
1E07
  8
0
 10
80.410478559667638
 20
101.8724660767719
 30
0.0
  0
VERTEX
  5
1E08
  8
0
 10
80.340661395580113
 20
101.94419574236569
 30
0.0
  0
VERTEX
  5
1E09
  8
0
 10
80.305449830275506
 20
101.97947886541129
 30
0.0
  0
VERTEX
  5
1E0A
  8
0
 10
80.269880078325372
 20
102.01453301487049
 30
0.0
  0
VERTEX
  5
1E0B
  8
0
 10
80.197551794877484
 20
102.0840492545733
 30
0.0
  0
VERTEX
  5
1E0C
  8
0
 10
80.123658378727043
 20
102.1527239354803
 30
0.0
  0
VERTEX
  5
1E0D
  8
0
 10
80.048225583541011
 20
102.22049571138901
 30
0.0
  0
VERTEX
  5
1E0E
  8
0
 10
79.97128117688186
 20
102.28730477621809
 30
0.0
  0
VERTEX
  5
1E0F
  8
0
 10
79.892854800540505
 20
102.3530930015262
 30
0.0
  0
VERTEX
  5
1E10
  8
0
 10
79.853095612742834
 20
102.38558662392489
 30
0.0
  0
VERTEX
  5
1E11
  8
0
 10
79.812977821203503
 20
102.4178040613584
 30
0.0
  0
VERTEX
  5
1E12
  8
0
 10
79.731683170740382
 20
102.4813835450316
 30
0.0
  0
VERTEX
  5
1E13
  8
0
 10
79.649005175387003
 20
102.543779058243
 30
0.0
  0
VERTEX
  5
1E14
  8
0
 10
79.607158486904865
 20
102.57451702634729
 30
0.0
  0
VERTEX
  5
1E15
  8
0
 10
79.564979373107292
 20
102.6049403126749
 30
0.0
  0
VERTEX
  5
1E16
  8
0
 10
79.479642318437811
 20
102.6648192040451
 30
0.0
  0
VERTEX
  5
1E17
  8
0
 10
79.393031376113527
 20
102.7233698770618
 30
0.0
  0
VERTEX
  5
1E18
  8
0
 10
79.349260082345324
 20
102.75213340339231
 30
0.0
  0
VERTEX
  5
1E19
  8
0
 10
79.305184756161111
 20
102.780548615444
 30
0.0
  0
VERTEX
  5
1E1A
  8
0
 10
79.216142255947375
 20
102.8363133137113
 30
0.0
  0
VERTEX
  5
1E1B
  8
0
 10
79.125945486147828
 20
102.8906233697502
 30
0.0
  0
VERTEX
  5
1E1C
  8
0
 10
79.034637734665182
 20
102.9434398183885
 30
0.0
  0
VERTEX
  5
1E1D
  8
0
 10
78.942263815156196
 20
102.99472545696059
 30
0.0
  0
VERTEX
  5
1E1E
  8
0
 10
78.848869906984646
 20
103.0444449580931
 30
0.0
  0
VERTEX
  5
1E1F
  8
0
 10
78.801805220192136
 20
103.06870690499861
 30
0.0
  0
VERTEX
  5
1E20
  8
0
 10
78.754503386006235
 20
103.0925649698694
 30
0.0
  0
VERTEX
  5
1E21
  8
0
 10
78.659212645574826
 20
103.13905420338151
 30
0.0
  0
VERTEX
  5
1E22
  8
0
 10
78.563046907157172
 20
103.183883507524
 30
0.0
  0
VERTEX
  5
1E23
  8
0
 10
78.466056019960305
 20
103.2270259307322
 30
0.0
  0
VERTEX
  5
1E24
  8
0
 10
78.368290120469055
 20
103.2684568223525
 30
0.0
  0
VERTEX
  5
1E25
  8
0
 10
78.269782819911313
 20
103.308160369562
 30
0.0
  0
VERTEX
  5
1E26
  8
0
 10
78.220262652372696
 20
103.3273593149503
 30
0.0
  0
VERTEX
  5
1E27
  8
0
 10
78.170573492985397
 20
103.3461195300634
 30
0.0
  0
VERTEX
  5
1E28
  8
0
 10
78.070714833912675
 20
103.3823139112834
 30
0.0
  0
VERTEX
  5
1E29
  8
0
 10
77.970260984125872
 20
103.4167249915217
 30
0.0
  0
VERTEX
  5
1E2A
  8
0
 10
77.869267348916537
 20
103.449336245851
 30
0.0
  0
VERTEX
  5
1E2B
  8
0
 10
77.767790406558944
 20
103.4801332559594
 30
0.0
  0
VERTEX
  5
1E2C
  8
0
 10
77.665887509666561
 20
103.5091038038896
 30
0.0
  0
VERTEX
  5
1E2D
  8
0
 10
77.614794439341097
 20
103.5229009574943
 30
0.0
  0
VERTEX
  5
1E2E
  8
0
 10
77.563616678490405
 20
103.5362379495384
 30
0.0
  0
VERTEX
  5
1E2F
  8
0
 10
77.461036385833722
 20
103.5615280916833
 30
0.0
  0
VERTEX
  5
1E30
  8
0
 10
77.358205333231979
 20
103.5849690121984
 30
0.0
  0
VERTEX
  5
1E31
  8
0
 10
77.255182218035657
 20
103.6065579030232
 30
0.0
  0
VERTEX
  5
1E32
  8
0
 10
77.15202551736445
 20
103.6262943705415
 30
0.0
  0
VERTEX
  5
1E33
  8
0
 10
77.048793928951966
 20
103.6441803148405
 30
0.0
  0
VERTEX
  5
1E34
  8
0
 10
76.997168719132162
 20
103.65243051996811
 30
0.0
  0
VERTEX
  5
1E35
  8
0
 10
76.945547344650706
 20
103.6602197844028
 30
0.0
  0
VERTEX
  5
1E36
  8
0
 10
76.842346839322715
 20
103.6744190658558
 30
0.0
  0
VERTEX
  5
1E37
  8
0
 10
76.739254438865146
 20
103.68678679984789
 30
0.0
  0
VERTEX
  5
1E38
  8
0
 10
76.63633288570071
 20
103.6973340756948
 30
0.0
  0
VERTEX
  5
1E39
  8
0
 10
76.533645402264654
 20
103.70607450505091
 30
0.0
  0
VERTEX
  5
1E3A
  8
0
 10
76.431255452542985
 20
103.71302427487321
 30
0.0
  0
VERTEX
  5
1E3B
  8
0
 10
76.380191892226662
 20
103.7158334334721
 30
0.0
  0
VERTEX
  5
1E3C
  8
0
 10
76.329226501559276
 20
103.71820217987231
 30
0.0
  0
VERTEX
  5
1E3D
  8
0
 10
76.227621772554642
 20
103.7216296345604
 30
0.0
  0
VERTEX
  5
1E3E
  8
0
 10
76.126504001457306
 20
103.7233306649032
 30
0.0
  0
VERTEX
  5
1E3F
  8
0
 10
76.076147135703479
 20
103.72354198645201
 30
0.0
  0
VERTEX
  5
1E40
  8
0
 10
76.025790269949681
 20
103.7233306649032
 30
0.0
  0
VERTEX
  5
1E41
  8
0
 10
75.924672498852317
 20
103.7216296345604
 30
0.0
  0
VERTEX
  5
1E42
  8
0
 10
75.823067769847682
 20
103.71820217987231
 30
0.0
  0
VERTEX
  5
1E43
  8
0
 10
75.772102379180325
 20
103.7158334334721
 30
0.0
  0
VERTEX
  5
1E44
  8
0
 10
75.721038818864002
 20
103.71302427487321
 30
0.0
  0
VERTEX
  5
1E45
  8
0
 10
75.618648869142334
 20
103.70607450505091
 30
0.0
  0
VERTEX
  5
1E46
  8
0
 10
75.515961385706248
 20
103.6973340756948
 30
0.0
  0
VERTEX
  5
1E47
  8
0
 10
75.413039832541813
 20
103.68678679984789
 30
0.0
  0
VERTEX
  5
1E48
  8
0
 10
75.309947432084243
 20
103.6744190658558
 30
0.0
  0
VERTEX
  5
1E49
  8
0
 10
75.206746926756239
 20
103.6602197844028
 30
0.0
  0
VERTEX
  5
1E4A
  8
0
 10
75.155125552274797
 20
103.65243051996811
 30
0.0
  0
VERTEX
  5
1E4B
  8
0
 10
75.103500342454993
 20
103.6441803148405
 30
0.0
  0
VERTEX
  5
1E4C
  8
0
 10
75.000268754042509
 20
103.6262943705415
 30
0.0
  0
VERTEX
  5
1E4D
  8
0
 10
74.897112053371302
 20
103.6065579030232
 30
0.0
  0
VERTEX
  5
1E4E
  8
0
 10
74.79408893817498
 20
103.5849690121984
 30
0.0
  0
VERTEX
  5
1E4F
  8
0
 10
74.691257885573265
 20
103.5615280916833
 30
0.0
  0
VERTEX
  5
1E50
  8
0
 10
74.588677592916554
 20
103.5362379495384
 30
0.0
  0
VERTEX
  5
1E51
  8
0
 10
74.537499832065905
 20
103.5229009574943
 30
0.0
  0
VERTEX
  5
1E52
  8
0
 10
74.486406761740426
 20
103.5091038038896
 30
0.0
  0
VERTEX
  5
1E53
  8
0
 10
74.384503864848057
 20
103.4801332559594
 30
0.0
  0
VERTEX
  5
1E54
  8
0
 10
74.283026922490464
 20
103.449336245851
 30
0.0
  0
VERTEX
  5
1E55
  8
0
 10
74.182033287281115
 20
103.4167249915217
 30
0.0
  0
VERTEX
  5
1E56
  8
0
 10
74.081579437494284
 20
103.3823139112834
 30
0.0
  0
VERTEX
  5
1E57
  8
0
 10
73.98172077842159
 20
103.34611953006331
 30
0.0
  0
VERTEX
  5
1E58
  8
0
 10
73.932031619034291
 20
103.3273593149503
 30
0.0
  0
VERTEX
  5
1E59
  8
0
 10
73.882511451495645
 20
103.308160369562
 30
0.0
  0
VERTEX
  5
1E5A
  8
0
 10
73.784004150937903
 20
103.2684568223525
 30
0.0
  0
VERTEX
  5
1E5B
  8
0
 10
73.686238251446653
 20
103.2270259307322
 30
0.0
  0
VERTEX
  5
1E5C
  8
0
 10
73.589247364249786
 20
103.183883507524
 30
0.0
  0
VERTEX
  5
1E5D
  8
0
 10
73.49308162583219
 20
103.13905420338151
 30
0.0
  0
VERTEX
  5
1E5E
  8
0
 10
73.397790885400752
 20
103.0925649698694
 30
0.0
  0
VERTEX
  5
1E5F
  8
0
 10
73.350489051214822
 20
103.06870690499861
 30
0.0
  0
VERTEX
  5
1E60
  8
0
 10
73.303424364422355
 20
103.0444449580931
 30
0.0
  0
VERTEX
  5
1E61
  8
0
 10
73.210030456250792
 20
102.99472545696059
 30
0.0
  0
VERTEX
  5
1E62
  8
0
 10
73.117656536741777
 20
102.9434398183885
 30
0.0
  0
VERTEX
  5
1E63
  8
0
 10
73.02634878525916
 20
102.8906233697502
 30
0.0
  0
VERTEX
  5
1E64
  8
0
 10
72.936152015459641
 20
102.8363133137113
 30
0.0
  0
VERTEX
  5
1E65
  8
0
 10
72.847109515245876
 20
102.780548615444
 30
0.0
  0
VERTEX
  5
1E66
  8
0
 10
72.803034189061691
 20
102.75213340339231
 30
0.0
  0
VERTEX
  5
1E67
  8
0
 10
72.759262895293489
 20
102.7233698770618
 30
0.0
  0
VERTEX
  5
1E68
  8
0
 10
72.672651952969204
 20
102.664819204045
 30
0.0
  0
VERTEX
  5
1E69
  8
0
 10
72.587314898299724
 20
102.6049403126749
 30
0.0
  0
VERTEX
  5
1E6A
  8
0
 10
72.545135784502122
 20
102.57451702634729
 30
0.0
  0
VERTEX
  5
1E6B
  8
0
 10
72.503289096019955
 20
102.543779058243
 30
0.0
  0
VERTEX
  5
1E6C
  8
0
 10
72.420611100666605
 20
102.4813835450316
 30
0.0
  0
VERTEX
  5
1E6D
  8
0
 10
72.339316450203455
 20
102.4178040613584
 30
0.0
  0
VERTEX
  5
1E6E
  8
0
 10
72.299198658664153
 20
102.38558662392489
 30
0.0
  0
VERTEX
  5
1E6F
  8
0
 10
72.259439470866482
 20
102.3530930015262
 30
0.0
  0
VERTEX
  5
1E70
  8
0
 10
72.181013094525127
 20
102.28730477621809
 30
0.0
  0
VERTEX
  5
1E71
  8
0
 10
72.104068687866004
 20
102.22049571138901
 30
0.0
  0
VERTEX
  5
1E72
  8
0
 10
72.028635892679972
 20
102.1527239354803
 30
0.0
  0
VERTEX
  5
1E73
  8
0
 10
71.954742476529475
 20
102.0840492545733
 30
0.0
  0
VERTEX
  5
1E74
  8
0
 10
71.882414193081615
 20
102.01453301487049
 30
0.0
  0
VERTEX
  5
1E75
  8
0
 10
71.846844441131452
 20
101.97947886541129
 30
0.0
  0
VERTEX
  5
1E76
  8
0
 10
71.811632875826831
 20
101.94419574236569
 30
0.0
  0
VERTEX
  5
1E77
  8
0
 10
71.741815711739321
 20
101.8724660767719
 30
0.0
  0
VERTEX
  5
1E78
  8
0
 10
71.672817959918675
 20
101.79916367764
 30
0.0
  0
VERTEX
  5
1E79
  8
0
 10
71.604701785948862
 20
101.72431397247639
 30
0.0
  0
VERTEX
  5
1E7A
  8
0
 10
71.537527704390357
 20
101.6479443177257
 30
0.0
  0
VERTEX
  5
1E7B
  8
0
 10
71.471354448427775
 20
101.570083849894
 30
0.0
  0
VERTEX
  5
1E7C
  8
0
 10
71.438660967877581
 20
101.53060411402789
 30
0.0
  0
VERTEX
  5
1E7D
  8
0
 10
71.40623885227194
 20
101.4907633264236
 30
0.0
  0
VERTEX
  5
1E7E
  8
0
 10
71.342235745796415
 20
101.4100149556337
 30
0.0
  0
VERTEX
  5
1E7F
  8
0
 10
71.2793978611125
 20
101.3278722150396
 30
0.0
  0
VERTEX
  5
1E80
  8
0
 10
71.248431761803374
 20
101.2862887173618
 30
0.0
  0
SEQEND
  5
1E81
  8
0
  0
ARC
  5
1820
  8
0
 10
63.826147135703472
 20
90.923541986451994
 30
0.0
 40
9.8599999999999977
 50
65.570849956501775
 51
102.429150043498
  0
ARC
  5
1821
  8
0
 10
63.826147135703472
 20
104.523541986452
 30
0.0
 40
9.8600000000000367
 50
257.5708499565016
 51
294.42915004349823
  0
ARC
  5
1822
  8
0
 10
88.326147135703479
 20
104.5235419864521
 30
0.0
 40
9.8600000000001007
 50
245.57084995650141
 51
282.4291500434984
  0
ARC
  5
1823
  8
0
 10
88.326147135703479
 20
90.923541986451937
 30
0.0
 40
9.8600000000000652
 50
77.57084995650159
 51
114.4291500434981
  0
ARC
  5
1824
  8
0
 10
76.076147135703621
 20
97.723541986452005
 30
0.0
 40
15.999999999999851
 50
351.08116448635383
 51
8.9188355136460817
  0
ARC
  5
1825
  8
0
 10
76.076147135703422
 20
97.723541986452005
 30
0.0
 40
15.999999999999959
 50
171.08116448635391
 51
188.918835513646
  0
LINE
  5
18D3
  8
1
 10
21.89216098062295
 20
25.47020941245442
 30
0.0
 11
21.892160980622918
 21
61.97020941245443
 31
0.0
  0
LINE
  5
18D4
  8
3
 10
24.892160980622918
 20
43.470209412454423
 30
0.0
 11
24.278660980622931
 21
42.420209412454412
 31
0.0
  0
LINE
  5
18D5
  8
3
 10
24.278660980622931
 20
27.47020941245442
 30
0.0
 11
24.278660980622931
 21
42.420209412454412
 31
0.0
  0
LINE
  5
18D6
  8
0
 10
18.892160980622918
 20
42.420209412454412
 30
0.0
 11
24.892160980622918
 21
42.420209412454412
 31
0.0
  0
LINE
  5
18D7
  8
3
 10
18.892160980622918
 20
43.470209412454423
 30
0.0
 11
19.505660980622931
 21
42.420209412454412
 31
0.0
  0
LINE
  5
18D8
  8
3
 10
19.505660980622931
 20
27.47020941245442
 30
0.0
 11
19.505660980622931
 21
42.420209412454412
 31
0.0
  0
LINE
  5
18D9
  8
0
 10
24.892160980622918
 20
28.083709412454411
 30
0.0
 11
18.892160980622918
 21
28.083709412454411
 31
0.0
  0
LINE
  5
18DA
  8
0
 10
24.278660980622931
 20
27.47020941245442
 30
0.0
 11
19.505660980622931
 21
27.47020941245442
 31
0.0
  0
POLYLINE
  5
18E1
  8
0
 66
     1
 10
0.0
 20
0.0
 30
0.0
  0
VERTEX
  5
1E82
  8
0
 10
19.002773495452121
 20
52.378307449397632
 30
0.0
  0
VERTEX
  5
1E83
  8
0
 10
19.002919589121461
 20
52.350774769035617
 30
0.0
  0
VERTEX
  5
1E84
  8
0
 10
19.004110034423181
 20
52.295980867535761
 30
0.0
  0
VERTEX
  5
1E85
  8
0
 10
19.006546986303359
 20
52.241578213995403
 30
0.0
  0
VERTEX
  5
1E86
  8
0
 10
19.008251600083842
 20
52.214533433922938
 30
0.0
  0
SEQEND
  5
1E87
  8
0
  0
POLYLINE
  5
18E2
  8
0
 66
     1
 10
0.0
 20
0.0
 30
0.0
  0
VERTEX
  5
1E88
  8
0
 10
19.002773495452121
 20
57.562111375441063
 30
0.0
  0
VERTEX
  5
1E89
  8
0
 10
19.00287909621559
 20
57.538456055795812
 30
0.0
  0
VERTEX
  5
1E8A
  8
0
 10
19.00371114767589
 20
57.490944604779777
 30
0.0
  0
VERTEX
  5
1E8B
  8
0
 10
19.00534309347125
 20
57.443177201529451
 30
0.0
  0
VERTEX
  5
1E8C
  8
0
 10
19.006448739334068
 20
57.419202009555207
 30
0.0
  0
VERTEX
  5
1E8D
  8
0
 10
19.007742096719682
 20
57.395168257656437
 30
0.0
  0
VERTEX
  5
1E8E
  8
0
 10
19.010875946396371
 20
57.346932492478892
 30
0.0
  0
VERTEX
  5
1E8F
  8
0
 10
19.01471294031705
 20
57.298484939429542
 30
0.0
  0
VERTEX
  5
1E90
  8
0
 10
19.019221781188321
 20
57.24984094203775
 30
0.0
  0
VERTEX
  5
1E91
  8
0
 10
19.02437148477955
 20
57.201016140973692
 30
0.0
  0
VERTEX
  5
1E92
  8
0
 10
19.030127467687091
 20
57.152057505201427
 30
0.0
  0
VERTEX
  5
1E93
  8
0
 10
19.033218364562
 20
57.127568366042809
 30
0.0
  0
VERTEX
  5
1E94
  8
0
 10
19.036445316670811
 20
57.103076297435457
 30
0.0
  0
VERTEX
  5
1E95
  8
0
 10
19.043290987508179
 20
57.054086543480629
 30
0.0
  0
VERTEX
  5
1E96
  8
0
 10
19.050632253608569
 20
57.005094644823949
 30
0.0
  0
VERTEX
  5
1E97
  8
0
 10
19.058437709769152
 20
56.956107114925189
 30
0.0
  0
VERTEX
  5
1E98
  8
0
 10
19.066676647178209
 20
56.90713059909227
 30
0.0
  0
VERTEX
  5
1E99
  8
0
 10
19.075318938466658
 20
56.858171886010389
 30
0.0
  0
VERTEX
  5
1E9A
  8
0
 10
19.07978205980271
 20
56.833701367336992
 30
0.0
  0
VERTEX
  5
1E9B
  8
0
 10
19.084334931964769
 20
56.809237911935959
 30
0.0
  0
VERTEX
  5
1E9C
  8
0
 10
19.093695354350729
 20
56.760335758505917
 30
0.0
  0
VERTEX
  5
1E9D
  8
0
 10
19.10337122091693
 20
56.711472645057071
 30
0.0
  0
VERTEX
  5
1E9E
  8
0
 10
19.108318446446809
 20
56.687058019069511
 30
0.0
  0
VERTEX
  5
1E9F
  8
0
 10
19.139306355199491
 20
56.540866159878462
 30
0.0
  0
VERTEX
  5
1EA0
  8
0
 10
19.205534925843949
 20
56.250655884018741
 30
0.0
  0
VERTEX
  5
1EA1
  8
0
 10
19.272119058781211
 20
55.96470308313453
 30
0.0
  0
VERTEX
  5
1EA2
  8
0
 10
19.30845417956715
 20
55.80048144392525
 30
0.0
  0
VERTEX
  5
1EA3
  8
0
 10
19.318250373574362
 20
55.753914343123043
 30
0.0
  0
VERTEX
  5
1EA4
  8
0
 10
19.327789832701601
 20
55.707192650296591
 30
0.0
  0
VERTEX
  5
1EA5
  8
0
 10
19.33245381189198
 20
55.683759542002839
 30
0.0
  0
VERTEX
  5
1EA6
  8
0
 10
19.33703996101298
 20
55.660280507431239
 30
0.0
  0
VERTEX
  5
1EA7
  8
0
 10
19.345956346268821
 20
55.61319134081706
 30
0.0
  0
VERTEX
  5
1EA8
  8
0
 10
19.35449356016397
 20
55.565938443731383
 30
0.0
  0
VERTEX
  5
1EA9
  8
0
 10
19.36260548247796
 20
55.518535055899477
 30
0.0
  0
VERTEX
  5
1EAA
  8
0
 10
19.370245708786602
 20
55.470994447443999
 30
0.0
  0
VERTEX
  5
1EAB
  8
0
 10
19.37736804874714
 20
55.423329994579113
 30
0.0
  0
VERTEX
  5
1EAC
  8
0
 10
19.380720767384901
 20
55.39945563359008
 30
0.0
  0
VERTEX
  5
1EAD
  8
0
 10
19.38392617076639
 20
55.375562457872903
 30
0.0
  0
VERTEX
  5
1EAE
  8
0
 10
19.38987431538462
 20
55.327723801120229
 30
0.0
  0
VERTEX
  5
1EAF
  8
0
 10
19.395175568370941
 20
55.279792518196878
 30
0.0
  0
VERTEX
  5
1EB0
  8
0
 10
19.399794591103412
 20
55.231741155037881
 30
0.0
  0
VERTEX
  5
1EB1
  8
0
 10
19.403697278044572
 20
55.183542322445682
 30
0.0
  0
VERTEX
  5
1EB2
  8
0
 10
19.406851051128971
 20
55.135173483771879
 30
0.0
  0
VERTEX
  5
1EB3
  8
0
 10
19.408135576915669
 20
55.110960433631803
 30
0.0
  0
VERTEX
  5
1EB4
  8
0
 10
19.409220783494732
 20
55.086741694178258
 30
0.0
  0
VERTEX
  5
1EB5
  8
0
 10
19.410785697873852
 20
55.038258124451559
 30
0.0
  0
VERTEX
  5
1EB6
  8
0
 10
19.4115315111375
 20
54.989719977368701
 30
0.0
  0
VERTEX
  5
1EB7
  8
0
 10
19.411594423417061
 20
54.965454997751387
 30
0.0
  0
VERTEX
  5
1EB8
  8
0
 10
19.411450379245419
 20
54.94118327953926
 30
0.0
  0
VERTEX
  5
1EB9
  8
0
 10
19.41054318164495
 20
54.892655040694663
 30
0.0
  0
VERTEX
  5
1EBA
  8
0
 10
19.408819085506561
 20
54.844178278536489
 30
0.0
  0
VERTEX
  5
1EBB
  8
0
 10
19.407654513220901
 20
54.819944121766113
 30
0.0
  0
VERTEX
  5
1EBC
  8
0
 10
19.406292920908498
 20
54.795743004444667
 30
0.0
  0
VERTEX
  5
1EBD
  8
0
 10
19.402993013879009
 20
54.747451498099259
 30
0.0
  0
VERTEX
  5
1EBE
  8
0
 10
19.398947011517041
 20
54.69927456735239
 30
0.0
  0
VERTEX
  5
1EBF
  8
0
 10
19.394183793623711
 20
54.651172501805249
 30
0.0
  0
VERTEX
  5
1EC0
  8
0
 10
19.388731474377352
 20
54.60308904298661
 30
0.0
  0
VERTEX
  5
1EC1
  8
0
 10
19.382614280042269
 20
54.554939473241639
 30
0.0
  0
VERTEX
  5
1EC2
  8
0
 10
19.37931689595678
 20
54.530838093560632
 30
0.0
  0
VERTEX
  5
1EC3
  8
0
 10
19.375866419933661
 20
54.506719461617941
 30
0.0
  0
VERTEX
  5
1EC4
  8
0
 10
19.36852525796666
 20
54.458431755529652
 30
0.0
  0
VERTEX
  5
1EC5
  8
0
 10
19.360629900112482
 20
54.410078777484507
 30
0.0
  0
VERTEX
  5
1EC6
  8
0
 10
19.352220619898759
 20
54.361662638051833
 30
0.0
  0
VERTEX
  5
1EC7
  8
0
 10
19.343338354228958
 20
54.313185191962212
 30
0.0
  0
VERTEX
  5
1EC8
  8
0
 10
19.334024276018908
 20
54.264648120443432
 30
0.0
  0
VERTEX
  5
1EC9
  8
0
 10
19.329218150575539
 20
54.240357726278987
 30
0.0
  0
VERTEX
  5
1ECA
  8
0
 10
19.324319444005219
 20
54.216053025701981
 30
0.0
  0
VERTEX
  5
1ECB
  8
0
 10
19.314264525638659
 20
54.167401526499063
 30
0.0
  0
VERTEX
  5
1ECC
  8
0
 10
19.303899586121268
 20
54.118695346697208
 30
0.0
  0
VERTEX
  5
1ECD
  8
0
 10
19.265740487205932
 20
53.94782289815047
 30
0.0
  0
VERTEX
  5
1ECE
  8
0
 10
19.197118171222169
 20
53.653749312003399
 30
0.0
  0
VERTEX
  5
1ECF
  8
0
 10
19.13104106912882
 20
53.3615245273403
 30
0.0
  0
VERTEX
  5
1ED0
  8
0
 10
19.100984441177982
 20
53.217035936969538
 30
0.0
  0
VERTEX
  5
1ED1
  8
0
 10
19.09623611707465
 20
53.193067405716938
 30
0.0
  0
VERTEX
  5
1ED2
  8
0
 10
19.086989530192
 20
53.145230564173637
 30
0.0
  0
VERTEX
  5
1ED3
  8
0
 10
19.078095512350931
 20
53.097529966568182
 30
0.0
  0
VERTEX
  5
1ED4
  8
0
 10
19.073787862088238
 20
53.073731745663089
 30
0.0
  0
VERTEX
  5
1ED5
  8
0
 10
19.069576915232229
 20
53.049968770330523
 30
0.0
  0
VERTEX
  5
1ED6
  8
0
 10
19.06145650865167
 20
53.002550133640717
 30
0.0
  0
VERTEX
  5
1ED7
  8
0
 10
19.053757059628079
 20
52.955277195643752
 30
0.0
  0
VERTEX
  5
1ED8
  8
0
 10
19.04650141337893
 20
52.908153059975561
 30
0.0
  0
VERTEX
  5
1ED9
  8
0
 10
19.039712577045179
 20
52.86118078219711
 30
0.0
  0
VERTEX
  5
1EDA
  8
0
 10
19.033413806931179
 20
52.814363361768059
 30
0.0
  0
VERTEX
  5
1EDB
  8
0
 10
19.03045555485588
 20
52.791013644239577
 30
0.0
  0
VERTEX
  5
1EDC
  8
0
 10
19.02762870002854
 20
52.767703739232402
 30
0.0
  0
VERTEX
  5
1EDD
  8
0
 10
19.0223809393122
 20
52.721201519026764
 30
0.0
  0
VERTEX
  5
1EDE
  8
0
 10
19.017695155060089
 20
52.674858887220218
 30
0.0
  0
VERTEX
  5
1EDF
  8
0
 10
19.01359748746853
 20
52.628687910344141
 30
0.0
  0
VERTEX
  5
1EE0
  8
0
 10
19.010114360134139
 20
52.582700614879613
 30
0.0
  0
VERTEX
  5
1EE1
  8
0
 10
19.00727253158464
 20
52.536908807398603
 30
0.0
  0
VERTEX
  5
1EE2
  8
0
 10
19.006100577528802
 20
52.51408984073133
 30
0.0
  0
VERTEX
  5
1EE3
  8
0
 10
19.005099175449569
 20
52.491324073754093
 30
0.0
  0
VERTEX
  5
1EE4
  8
0
 10
19.003621969366598
 20
52.445957783341647
 30
0.0
  0
VERTEX
  5
1EE5
  8
0
 10
19.002869055036879
 20
52.400804735854472
 30
0.0
  0
VERTEX
  5
1EE6
  8
0
 10
19.002773495452121
 20
52.378307449397632
 30
0.0
  0
SEQEND
  5
1EE7
  8
0
  0
POLYLINE
  5
18E3
  8
0
 66
     1
 10
0.0
 20
0.0
 30
0.0
  0
VERTEX
  5
1EE8
  8
0
 10
19.008251600083842
 20
57.72588539098588
 30
0.0
  0
VERTEX
  5
1EE9
  8
0
 10
19.006546467983839
 20
57.698831490307882
 30
0.0
  0
VERTEX
  5
1EEA
  8
0
 10
19.004109669193578
 20
57.644426900799047
 30
0.0
  0
VERTEX
  5
1EEB
  8
0
 10
19.002919621999268
 20
57.589647136185093
 30
0.0
  0
VERTEX
  5
1EEC
  8
0
 10
19.002773495452121
 20
57.562111375441063
 30
0.0
  0
SEQEND
  5
1EED
  8
0
  0
POLYLINE
  5
18E8
  8
0
 66
     1
 10
0.0
 20
0.0
 30
0.0
  0
VERTEX
  5
1EEE
  8
0
 10
24.781548465793719
 20
57.562111375511208
 30
0.0
  0
VERTEX
  5
1EEF
  8
0
 10
24.781402372124411
 20
57.589644055873222
 30
0.0
  0
VERTEX
  5
1EF0
  8
0
 10
24.780211926822691
 20
57.644437957373057
 30
0.0
  0
VERTEX
  5
1EF1
  8
0
 10
24.777774974942481
 20
57.698840610913422
 30
0.0
  0
VERTEX
  5
1EF2
  8
0
 10
24.776070361161999
 20
57.72588539098588
 30
0.0
  0
SEQEND
  5
1EF3
  8
0
  0
POLYLINE
  5
18E9
  8
0
 66
     1
 10
0.0
 20
0.0
 30
0.0
  0
VERTEX
  5
1EF4
  8
0
 10
24.781548465793719
 20
52.378307449467783
 30
0.0
  0
VERTEX
  5
1EF5
  8
0
 10
24.781442865030272
 20
52.401962769113183
 30
0.0
  0
VERTEX
  5
1EF6
  8
0
 10
24.78061081356995
 20
52.449474220129481
 30
0.0
  0
VERTEX
  5
1EF7
  8
0
 10
24.77897886777459
 20
52.497241623380113
 30
0.0
  0
VERTEX
  5
1EF8
  8
0
 10
24.777873221911729
 20
52.521216815354492
 30
0.0
  0
VERTEX
  5
1EF9
  8
0
 10
24.776579864526099
 20
52.545250567253397
 30
0.0
  0
VERTEX
  5
1EFA
  8
0
 10
24.773446014849409
 20
52.593486332431247
 30
0.0
  0
VERTEX
  5
1EFB
  8
0
 10
24.769609020928641
 20
52.64193388548086
 30
0.0
  0
VERTEX
  5
1EFC
  8
0
 10
24.765100180057349
 20
52.690577882872951
 30
0.0
  0
VERTEX
  5
1EFD
  8
0
 10
24.759950476466059
 20
52.739402683937342
 30
0.0
  0
VERTEX
  5
1EFE
  8
0
 10
24.75419449355843
 20
52.788361319709871
 30
0.0
  0
VERTEX
  5
1EFF
  8
0
 10
24.751103596683489
 20
52.812850458868652
 30
0.0
  0
VERTEX
  5
1F00
  8
0
 10
24.74787664457466
 20
52.837342527476132
 30
0.0
  0
VERTEX
  5
1F01
  8
0
 10
24.741030973737232
 20
52.886332281431251
 30
0.0
  0
VERTEX
  5
1F02
  8
0
 10
24.733689707636788
 20
52.935324180088223
 30
0.0
  0
VERTEX
  5
1F03
  8
0
 10
24.725884251476121
 20
52.984311709987267
 30
0.0
  0
VERTEX
  5
1F04
  8
0
 10
24.717645314066971
 20
53.033288225820499
 30
0.0
  0
VERTEX
  5
1F05
  8
0
 10
24.709003022778429
 20
53.082246938902657
 30
0.0
  0
VERTEX
  5
1F06
  8
0
 10
24.704539901442331
 20
53.10671745757621
 30
0.0
  0
VERTEX
  5
1F07
  8
0
 10
24.699987029280241
 20
53.131180912977342
 30
0.0
  0
VERTEX
  5
1F08
  8
0
 10
24.69062660689417
 20
53.180083066407668
 30
0.0
  0
VERTEX
  5
1F09
  8
0
 10
24.680950740327891
 20
53.228946179856827
 30
0.0
  0
VERTEX
  5
1F0A
  8
0
 10
24.676003514797969
 20
53.25336080584453
 30
0.0
  0
VERTEX
  5
1F0B
  8
0
 10
24.645015606045028
 20
53.39955266503641
 30
0.0
  0
VERTEX
  5
1F0C
  8
0
 10
24.578787035400101
 20
53.689762940897779
 30
0.0
  0
VERTEX
  5
1F0D
  8
0
 10
24.512202902462551
 20
53.97571574178356
 30
0.0
  0
VERTEX
  5
1F0E
  8
0
 10
24.475867781676531
 20
54.139937380993679
 30
0.0
  0
VERTEX
  5
1F0F
  8
0
 10
24.466071587669351
 20
54.186504481796177
 30
0.0
  0
VERTEX
  5
1F10
  8
0
 10
24.456532128542111
 20
54.233226174622942
 30
0.0
  0
VERTEX
  5
1F11
  8
0
 10
24.451868149351728
 20
54.256659282916829
 30
0.0
  0
VERTEX
  5
1F12
  8
0
 10
24.447282000230729
 20
54.2801383174886
 30
0.0
  0
VERTEX
  5
1F13
  8
0
 10
24.438365614974909
 20
54.327227484103091
 30
0.0
  0
VERTEX
  5
1F14
  8
0
 10
24.429828401079821
 20
54.374480381189059
 30
0.0
  0
VERTEX
  5
1F15
  8
0
 10
24.421716478765891
 20
54.421883769021271
 30
0.0
  0
VERTEX
  5
1F16
  8
0
 10
24.41407625245736
 20
54.46942437747704
 30
0.0
  0
VERTEX
  5
1F17
  8
0
 10
24.406953912496899
 20
54.517088830342253
 30
0.0
  0
VERTEX
  5
1F18
  8
0
 10
24.403601193859199
 20
54.540963191331443
 30
0.0
  0
VERTEX
  5
1F19
  8
0
 10
24.400395790477798
 20
54.564856367048762
 30
0.0
  0
VERTEX
  5
1F1A
  8
0
 10
24.394447645859689
 20
54.612695023801749
 30
0.0
  0
VERTEX
  5
1F1B
  8
0
 10
24.389146392873499
 20
54.660626306725398
 30
0.0
  0
VERTEX
  5
1F1C
  8
0
 10
24.384527370141232
 20
54.7086776698848
 30
0.0
  0
VERTEX
  5
1F1D
  8
0
 10
24.380624683200239
 20
54.756876502477368
 30
0.0
  0
VERTEX
  5
1F1E
  8
0
 10
24.377470910116049
 20
54.805245341151583
 30
0.0
  0
VERTEX
  5
1F1F
  8
0
 10
24.376186384329461
 20
54.829458391291993
 30
0.0
  0
VERTEX
  5
1F20
  8
0
 10
24.37510117775048
 20
54.853677130745957
 30
0.0
  0
VERTEX
  5
1F21
  8
0
 10
24.373536263371619
 20
54.902160700473772
 30
0.0
  0
VERTEX
  5
1F22
  8
0
 10
24.37279045010823
 20
54.950698847557398
 30
0.0
  0
VERTEX
  5
1F23
  8
0
 10
24.372727537828808
 20
54.974963827174697
 30
0.0
  0
VERTEX
  5
1F24
  8
0
 10
24.372871582000609
 20
54.999235545386718
 30
0.0
  0
VERTEX
  5
1F25
  8
0
 10
24.373778779601341
 20
55.047763784231037
 30
0.0
  0
VERTEX
  5
1F26
  8
0
 10
24.375502875740011
 20
55.096240546388898
 30
0.0
  0
VERTEX
  5
1F27
  8
0
 10
24.376667448025788
 20
55.120474703159068
 30
0.0
  0
VERTEX
  5
1F28
  8
0
 10
24.378029040338301
 20
55.144675820480309
 30
0.0
  0
VERTEX
  5
1F29
  8
0
 10
24.381328947368019
 20
55.192967326825347
 30
0.0
  0
VERTEX
  5
1F2A
  8
0
 10
24.38537494973022
 20
55.241144257571861
 30
0.0
  0
VERTEX
  5
1F2B
  8
0
 10
24.39013816762375
 20
55.289246323118689
 30
0.0
  0
VERTEX
  5
1F2C
  8
0
 10
24.39559048687028
 20
55.337329781937008
 30
0.0
  0
VERTEX
  5
1F2D
  8
0
 10
24.401707681205519
 20
55.385479351681688
 30
0.0
  0
VERTEX
  5
1F2E
  8
0
 10
24.405005065291078
 20
55.409580731362588
 30
0.0
  0
VERTEX
  5
1F2F
  8
0
 10
24.408455541314261
 20
55.433699363305109
 30
0.0
  0
VERTEX
  5
1F30
  8
0
 10
24.415796703281391
 20
55.481987069393128
 30
0.0
  0
VERTEX
  5
1F31
  8
0
 10
24.423692061135661
 20
55.530340047437967
 30
0.0
  0
VERTEX
  5
1F32
  8
0
 10
24.43210134134949
 20
55.578756186870358
 30
0.0
  0
VERTEX
  5
1F33
  8
0
 10
24.440983607019351
 20
55.627233632959687
 30
0.0
  0
VERTEX
  5
1F34
  8
0
 10
24.450297685229462
 20
55.675770704478211
 30
0.0
  0
VERTEX
  5
1F35
  8
0
 10
24.455103810672831
 20
55.700061098642507
 30
0.0
  0
VERTEX
  5
1F36
  8
0
 10
24.460002517243169
 20
55.724365799219342
 30
0.0
  0
VERTEX
  5
1F37
  8
0
 10
24.470057435609739
 20
55.773017298421969
 30
0.0
  0
VERTEX
  5
1F38
  8
0
 10
24.480422375127119
 20
55.821723478223518
 30
0.0
  0
VERTEX
  5
1F39
  8
0
 10
24.51858147404241
 20
55.99259592676917
 30
0.0
  0
VERTEX
  5
1F3A
  8
0
 10
24.58720379002574
 20
56.286669512914372
 30
0.0
  0
VERTEX
  5
1F3B
  8
0
 10
24.653280892118492
 20
56.578894297575417
 30
0.0
  0
VERTEX
  5
1F3C
  8
0
 10
24.683337520069021
 20
56.723382887945192
 30
0.0
  0
VERTEX
  5
1F3D
  8
0
 10
24.688085844172321
 20
56.747351419197578
 30
0.0
  0
VERTEX
  5
1F3E
  8
0
 10
24.697332431054861
 20
56.795188260740566
 30
0.0
  0
VERTEX
  5
1F3F
  8
0
 10
24.706226448895851
 20
56.842888858345717
 30
0.0
  0
VERTEX
  5
1F40
  8
0
 10
24.710534099158512
 20
56.866687079250639
 30
0.0
  0
VERTEX
  5
1F41
  8
0
 10
24.714745046014428
 20
56.890450054583042
 30
0.0
  0
VERTEX
  5
1F42
  8
0
 10
24.722865452594899
 20
56.937868691272527
 30
0.0
  0
VERTEX
  5
1F43
  8
0
 10
24.73056490161844
 20
56.985141629269158
 30
0.0
  0
VERTEX
  5
1F44
  8
0
 10
24.737820547867472
 20
57.032265764937037
 30
0.0
  0
VERTEX
  5
1F45
  8
0
 10
24.744609384201169
 20
57.079238042715168
 30
0.0
  0
VERTEX
  5
1F46
  8
0
 10
24.750908154315091
 20
57.126055463143913
 30
0.0
  0
VERTEX
  5
1F47
  8
0
 10
24.753866406390362
 20
57.149405180672218
 30
0.0
  0
VERTEX
  5
1F48
  8
0
 10
24.756693261217642
 20
57.172715085679251
 30
0.0
  0
VERTEX
  5
1F49
  8
0
 10
24.761941021933922
 20
57.219217305884591
 30
0.0
  0
VERTEX
  5
1F4A
  8
0
 10
24.76662680618594
 20
57.265559937690782
 30
0.0
  0
VERTEX
  5
1F4B
  8
0
 10
24.770724473777481
 20
57.311730914566553
 30
0.0
  0
VERTEX
  5
1F4C
  8
0
 10
24.774207601111812
 20
57.35771821003074
 30
0.0
  0
VERTEX
  5
1F4D
  8
0
 10
24.777049429661272
 20
57.403510017511401
 30
0.0
  0
VERTEX
  5
1F4E
  8
0
 10
24.778221383717099
 20
57.426328984178511
 30
0.0
  0
VERTEX
  5
1F4F
  8
0
 10
24.779222785796321
 20
57.449094751155592
 30
0.0
  0
VERTEX
  5
1F50
  8
0
 10
24.78069999187926
 20
57.494461041567639
 30
0.0
  0
VERTEX
  5
1F51
  8
0
 10
24.78145290620898
 20
57.539614089054552
 30
0.0
  0
VERTEX
  5
1F52
  8
0
 10
24.781548465793719
 20
57.562111375511208
 30
0.0
  0
SEQEND
  5
1F53
  8
0
  0
POLYLINE
  5
18EA
  8
0
 66
     1
 10
0.0
 20
0.0
 30
0.0
  0
VERTEX
  5
1F54
  8
0
 10
24.776070361161999
 20
52.214533433922938
 30
0.0
  0
VERTEX
  5
1F55
  8
0
 10
24.777775493261998
 20
52.241587334600972
 30
0.0
  0
VERTEX
  5
1F56
  8
0
 10
24.78021229205229
 20
52.295991924109792
 30
0.0
  0
VERTEX
  5
1F57
  8
0
 10
24.781402339246601
 20
52.350771688723761
 30
0.0
  0
VERTEX
  5
1F58
  8
0
 10
24.781548465793719
 20
52.378307449467783
 30
0.0
  0
SEQEND
  5
1F59
  8
0
  0
POLYLINE
  5
18EB
  8
0
 66
     1
 10
0.0
 20
0.0
 30
0.0
  0
VERTEX
  5
1F5A
  8
0
 10
24.568097176880169
 20
50.475827389982513
 30
0.0
  0
VERTEX
  5
1F5B
  8
0
 10
24.57498091632101
 20
50.508369142639268
 30
0.0
  0
VERTEX
  5
1F5C
  8
0
 10
24.58874787767212
 20
50.577109306329142
 30
0.0
  0
VERTEX
  5
1F5D
  8
0
 10
24.602452098689749
 20
50.650576530450408
 30
0.0
  0
VERTEX
  5
1F5E
  8
0
 10
24.609258102099002
 20
50.689011684655078
 30
0.0
  0
VERTEX
  5
1F5F
  8
0
 10
24.61602178330304
 20
50.728535372012409
 30
0.0
  0
VERTEX
  5
1F60
  8
0
 10
24.629389097281798
 20
50.81068867527754
 30
0.0
  0
VERTEX
  5
1F61
  8
0
 10
24.642491987570221
 20
50.89668932920118
 30
0.0
  0
VERTEX
  5
1F62
  8
0
 10
24.65527361841038
 20
50.986139607450973
 30
0.0
  0
VERTEX
  5
1F63
  8
0
 10
24.667679332435139
 20
51.078570333994563
 30
0.0
  0
VERTEX
  5
1F64
  8
0
 10
24.679658066972308
 20
51.173447963223751
 30
0.0
  0
VERTEX
  5
1F65
  8
0
 10
24.685472570624771
 20
51.221621597714332
 30
0.0
  0
VERTEX
  5
1F66
  8
0
 10
24.69116326204238
 20
51.270181018571989
 30
0.0
  0
VERTEX
  5
1F67
  8
0
 10
24.702153566418019
 20
51.368127523513877
 30
0.0
  0
VERTEX
  5
1F68
  8
0
 10
24.71261716951895
 20
51.466834374901438
 30
0.0
  0
VERTEX
  5
1F69
  8
0
 10
24.722911364753429
 20
51.56959225796917
 30
0.0
  0
VERTEX
  5
1F6A
  8
0
 10
24.733109692618509
 20
51.67743678772829
 30
0.0
  0
VERTEX
  5
1F6B
  8
0
 10
24.743142386072979
 20
51.78999520388647
 30
0.0
  0
VERTEX
  5
1F6C
  8
0
 10
24.748076141253879
 20
51.847911107299339
 30
0.0
  0
VERTEX
  5
1F6D
  8
0
 10
24.752944606054172
 20
51.906842196915122
 30
0.0
  0
VERTEX
  5
1F6E
  8
0
 10
24.762457285321659
 20
52.02750598411459
 30
0.0
  0
VERTEX
  5
1F6F
  8
0
 10
24.771627856986669
 20
52.151476127411243
 30
0.0
  0
VERTEX
  5
1F70
  8
0
 10
24.776070361161999
 20
52.214533433922938
 30
0.0
  0
SEQEND
  5
1F71
  8
0
  0
POLYLINE
  5
18EC
  8
0
 66
     1
 10
0.0
 20
0.0
 30
0.0
  0
VERTEX
  5
1F72
  8
0
 10
24.052350004107812
 20
48.08946863299262
 30
0.0
  0
VERTEX
  5
1F73
  8
0
 10
24.121810097266291
 20
48.40964572143703
 30
0.0
  0
VERTEX
  5
1F74
  8
0
 10
24.27801884689919
 20
49.131436670507767
 30
0.0
  0
VERTEX
  5
1F75
  8
0
 10
24.462600312419969
 20
49.986448629782743
 30
0.0
  0
VERTEX
  5
1F76
  8
0
 10
24.568097176880169
 20
50.475827389982513
 30
0.0
  0
SEQEND
  5
1F77
  8
0
  0
POLYLINE
  5
18EF
  8
0
 66
     1
 10
0.0
 20
0.0
 30
0.0
  0
VERTEX
  5
1F78
  8
0
 10
24.776070361161999
 20
57.72588539098588
 30
0.0
  0
VERTEX
  5
1F79
  8
0
 10
24.767728787297791
 20
57.842630960368162
 30
0.0
  0
VERTEX
  5
1F7A
  8
0
 10
24.750124410101559
 20
58.067935600758759
 30
0.0
  0
VERTEX
  5
1F7B
  8
0
 10
24.731575057090851
 20
58.279617801896322
 30
0.0
  0
VERTEX
  5
1F7C
  8
0
 10
24.72206988317339
 20
58.379448708609807
 30
0.0
  0
VERTEX
  5
1F7D
  8
0
 10
24.712484998680448
 20
58.474866320566562
 30
0.0
  0
VERTEX
  5
1F7E
  8
0
 10
24.69259952453152
 20
58.657754718530832
 30
0.0
  0
VERTEX
  5
1F7F
  8
0
 10
24.670942243977638
 20
58.83656971521502
 30
0.0
  0
VERTEX
  5
1F80
  8
0
 10
24.647761204607828
 20
59.00753940323564
 30
0.0
  0
VERTEX
  5
1F81
  8
0
 10
24.623387737012418
 20
59.167290935129941
 30
0.0
  0
VERTEX
  5
1F82
  8
0
 10
24.598194891938078
 20
59.313218425014711
 30
0.0
  0
VERTEX
  5
1F83
  8
0
 10
24.585422335265889
 20
59.380369969650921
 30
0.0
  0
VERTEX
  5
1F84
  8
0
 10
24.572609573395479
 20
59.443395122707081
 30
0.0
  0
VERTEX
  5
1F85
  8
0
 10
24.547110870327721
 20
59.556594183716093
 30
0.0
  0
VERTEX
  5
1F86
  8
0
 10
24.52159763925016
 20
59.654540381906607
 30
0.0
  0
VERTEX
  5
1F87
  8
0
 10
24.49464983117727
 20
59.742403965202513
 30
0.0
  0
VERTEX
  5
1F88
  8
0
 10
24.46654525561522
 20
59.817905815012821
 30
0.0
  0
VERTEX
  5
1F89
  8
0
 10
24.43771811331132
 20
59.879028426869063
 30
0.0
  0
VERTEX
  5
1F8A
  8
0
 10
24.423171603486711
 20
59.903799751710558
 30
0.0
  0
VERTEX
  5
1F8B
  8
0
 10
24.408611447291442
 20
59.92460237898139
 30
0.0
  0
VERTEX
  5
1F8C
  8
0
 10
24.379687262827652
 20
59.954274284570872
 30
0.0
  0
VERTEX
  5
1F8D
  8
0
 10
24.35143062639105
 20
59.968509154637658
 30
0.0
  0
VERTEX
  5
1F8E
  8
0
 10
24.337705212603449
 20
59.970209412454423
 30
0.0
  0
SEQEND
  5
1F8F
  8
0
  0
POLYLINE
  5
18F0
  8
0
 66
     1
 10
0.0
 20
0.0
 30
0.0
  0
VERTEX
  5
1F90
  8
0
 10
19.446616748642409
 20
59.970209412454423
 30
0.0
  0
VERTEX
  5
1F91
  8
0
 10
19.432891334854808
 20
59.968509154637658
 30
0.0
  0
VERTEX
  5
1F92
  8
0
 10
19.404634698418189
 20
59.954274284570843
 30
0.0
  0
VERTEX
  5
1F93
  8
0
 10
19.375710513954399
 20
59.924602378981326
 30
0.0
  0
VERTEX
  5
1F94
  8
0
 10
19.361150357759101
 20
59.90379975171048
 30
0.0
  0
VERTEX
  5
1F95
  8
0
 10
19.34660384793446
 20
59.879028426868942
 30
0.0
  0
VERTEX
  5
1F96
  8
0
 10
19.31777670563056
 20
59.817905815012622
 30
0.0
  0
VERTEX
  5
1F97
  8
0
 10
19.289672130068482
 20
59.742403965202222
 30
0.0
  0
VERTEX
  5
1F98
  8
0
 10
19.262724321995591
 20
59.654540381906251
 30
0.0
  0
VERTEX
  5
1F99
  8
0
 10
19.237211090918041
 20
59.556594183715603
 30
0.0
  0
VERTEX
  5
1F9A
  8
0
 10
19.211712387850241
 20
59.443395122706463
 30
0.0
  0
VERTEX
  5
1F9B
  8
0
 10
19.198899625979831
 20
59.380369969650211
 30
0.0
  0
VERTEX
  5
1F9C
  8
0
 10
19.186127069307641
 20
59.313218425013908
 30
0.0
  0
VERTEX
  5
1F9D
  8
0
 10
19.160934224233269
 20
59.167290935128968
 30
0.0
  0
VERTEX
  5
1F9E
  8
0
 10
19.136560756637859
 20
59.007539403234468
 30
0.0
  0
VERTEX
  5
1F9F
  8
0
 10
19.11337971726806
 20
58.836569715213678
 30
0.0
  0
VERTEX
  5
1FA0
  8
0
 10
19.09172243671415
 20
58.65775471852934
 30
0.0
  0
VERTEX
  5
1FA1
  8
0
 10
19.071836962565239
 20
58.474866320564942
 30
0.0
  0
VERTEX
  5
1FA2
  8
0
 10
19.06225207807228
 20
58.379448708608017
 30
0.0
  0
VERTEX
  5
1FA3
  8
0
 10
19.052746904154841
 20
58.279617801894389
 30
0.0
  0
VERTEX
  5
1FA4
  8
0
 10
19.0341975511441
 20
58.067935600756542
 30
0.0
  0
VERTEX
  5
1FA5
  8
0
 10
19.016593173947879
 20
57.842630960365689
 30
0.0
  0
VERTEX
  5
1FA6
  8
0
 10
19.008251600083842
 20
57.72588539098588
 30
0.0
  0
SEQEND
  5
1FA7
  8
0
  0
POLYLINE
  5
18F3
  8
0
 66
     1
 10
0.0
 20
0.0
 30
0.0
  0
VERTEX
  5
1FA8
  8
0
 10
19.216224784365689
 20
50.475827389982513
 30
0.0
  0
VERTEX
  5
1FA9
  8
0
 10
19.32172164882596
 20
49.986448629782522
 30
0.0
  0
VERTEX
  5
1FAA
  8
0
 10
19.506303114346728
 20
49.131436670507483
 30
0.0
  0
VERTEX
  5
1FAB
  8
0
 10
19.662511863979599
 20
48.409645721436917
 30
0.0
  0
VERTEX
  5
1FAC
  8
0
 10
19.731971957138029
 20
48.08946863299262
 30
0.0
  0
SEQEND
  5
1FAD
  8
0
  0
POLYLINE
  5
18F4
  8
0
 66
     1
 10
0.0
 20
0.0
 30
0.0
  0
VERTEX
  5
1FAE
  8
0
 10
19.008251600083842
 20
52.214533433922938
 30
0.0
  0
VERTEX
  5
1FAF
  8
0
 10
19.01269410425925
 20
52.151476127410021
 30
0.0
  0
VERTEX
  5
1FB0
  8
0
 10
19.02186467592426
 20
52.027505984113482
 30
0.0
  0
VERTEX
  5
1FB1
  8
0
 10
19.031377355191779
 20
51.906842196914099
 30
0.0
  0
VERTEX
  5
1FB2
  8
0
 10
19.036245819992072
 20
51.847911107298373
 30
0.0
  0
VERTEX
  5
1FB3
  8
0
 10
19.041179575172968
 20
51.789995203885567
 30
0.0
  0
VERTEX
  5
1FB4
  8
0
 10
19.05121226862741
 20
51.677436787727473
 30
0.0
  0
VERTEX
  5
1FB5
  8
0
 10
19.06141059649249
 20
51.569592257968459
 30
0.0
  0
VERTEX
  5
1FB6
  8
0
 10
19.071704791726969
 20
51.466834374900813
 30
0.0
  0
VERTEX
  5
1FB7
  8
0
 10
19.0821683948279
 20
51.36812752351328
 30
0.0
  0
VERTEX
  5
1FB8
  8
0
 10
19.09315869920351
 20
51.270181018571478
 30
0.0
  0
VERTEX
  5
1FB9
  8
0
 10
19.098849390621119
 20
51.221621597713842
 30
0.0
  0
VERTEX
  5
1FBA
  8
0
 10
19.10466389427361
 20
51.173447963223289
 30
0.0
  0
VERTEX
  5
1FBB
  8
0
 10
19.116642628810752
 20
51.078570333994158
 30
0.0
  0
VERTEX
  5
1FBC
  8
0
 10
19.12904834283551
 20
50.986139607450617
 30
0.0
  0
VERTEX
  5
1FBD
  8
0
 10
19.141829973675669
 20
50.896689329200903
 30
0.0
  0
VERTEX
  5
1FBE
  8
0
 10
19.154932863964088
 20
50.810688675277319
 30
0.0
  0
VERTEX
  5
1FBF
  8
0
 10
19.16830017794285
 20
50.728535372012253
 30
0.0
  0
VERTEX
  5
1FC0
  8
0
 10
19.17506385914686
 20
50.689011684654943
 30
0.0
  0
VERTEX
  5
1FC1
  8
0
 10
19.181869862556109
 20
50.650576530450323
 30
0.0
  0
VERTEX
  5
1FC2
  8
0
 10
19.195574083573739
 20
50.577109306329092
 30
0.0
  0
VERTEX
  5
1FC3
  8
0
 10
19.209341044924852
 20
50.508369142639268
 30
0.0
  0
VERTEX
  5
1FC4
  8
0
 10
19.216224784365689
 20
50.475827389982513
 30
0.0
  0
SEQEND
  5
1FC5
  8
0
  0
POLYLINE
  5
18F7
  8
0
 66
     1
 10
0.0
 20
0.0
 30
0.0
  0
VERTEX
  5
1FC6
  8
0
 10
18.329414249713121
 20
58.506445430603328
 30
0.0
  0
VERTEX
  5
1FC7
  8
0
 10
18.352993779662739
 20
58.510401423930929
 30
0.0
  0
VERTEX
  5
1FC8
  8
0
 10
18.399956782848641
 20
58.518537475864711
 30
0.0
  0
VERTEX
  5
1FC9
  8
0
 10
18.446614867456251
 20
58.526974287981837
 30
0.0
  0
VERTEX
  5
1FCA
  8
0
 10
18.469813523360191
 20
58.53130613417779
 30
0.0
  0
VERTEX
  5
1FCB
  8
0
 10
18.492916861348331
 20
58.535713904517152
 30
0.0
  0
VERTEX
  5
1FCC
  8
0
 10
18.53881294028821
 20
58.544757954312288
 30
0.0
  0
VERTEX
  5
1FCD
  8
0
 10
18.584254794922028
 20
58.554107653888153
 30
0.0
  0
VERTEX
  5
1FCE
  8
0
 10
18.62919578678077
 20
58.563763814304892
 30
0.0
  0
VERTEX
  5
1FCF
  8
0
 10
18.673591093881551
 20
58.573726852421302
 30
0.0
  0
VERTEX
  5
1FD0
  8
0
 10
18.71739786925286
 20
58.583996812717217
 30
0.0
  0
VERTEX
  5
1FD1
  8
0
 10
18.73906780304878
 20
58.589246822046888
 30
0.0
  0
VERTEX
  5
1FD2
  8
0
 10
18.760575492862191
 20
58.594573422235086
 30
0.0
  0
VERTEX
  5
1FD3
  8
0
 10
18.803084734635689
 20
58.605455878419221
 30
0.0
  0
VERTEX
  5
1FD4
  8
0
 10
18.844887651930058
 20
58.616642781308421
 30
0.0
  0
VERTEX
  5
1FD5
  8
0
 10
18.885947809897971
 20
58.628132146378711
 30
0.0
  0
VERTEX
  5
1FD6
  8
0
 10
18.926230436837951
 20
58.639921409722071
 30
0.0
  0
VERTEX
  5
1FD7
  8
0
 10
18.965702564319969
 20
58.65200743725363
 30
0.0
  0
VERTEX
  5
1FD8
  8
0
 10
18.985124912430479
 20
58.658160605566287
 30
0.0
  0
VERTEX
  5
1FD9
  8
0
 10
19.00433315288214
 20
58.664386538479228
 30
0.0
  0
VERTEX
  5
1FDA
  8
0
 10
19.042093203915979
 20
58.677054485389007
 30
0.0
  0
VERTEX
  5
1FDB
  8
0
 10
19.078956242013131
 20
58.690006675108222
 30
0.0
  0
VERTEX
  5
1FDC
  8
0
 10
19.09704563316043
 20
58.696588503528623
 30
0.0
  0
SEQEND
  5
1FDD
  8
0
  0
POLYLINE
  5
18F9
  8
0
 66
     1
 10
0.0
 20
0.0
 30
0.0
  0
VERTEX
  5
1FDE
  8
0
 10
19.751145323349078
 20
47.915016543648861
 30
0.0
  0
VERTEX
  5
1FDF
  8
0
 10
19.75002350803172
 20
47.873587676187682
 30
0.0
  0
VERTEX
  5
1FE0
  8
0
 10
19.74101509443631
 20
47.791643334117552
 30
0.0
  0
VERTEX
  5
1FE1
  8
0
 10
19.72297317870067
 20
47.711373056814509
 30
0.0
  0
VERTEX
  5
1FE2
  8
0
 10
19.710590640159889
 20
47.672046851701772
 30
0.0
  0
VERTEX
  5
1FE3
  8
0
 10
19.695998043117751
 20
47.633356854517061
 30
0.0
  0
VERTEX
  5
1FE4
  8
0
 10
19.660326222482212
 20
47.558169241413367
 30
0.0
  0
VERTEX
  5
1FE5
  8
0
 10
19.616328591630861
 20
47.48636177464634
 30
0.0
  0
VERTEX
  5
1FE6
  8
0
 10
19.564517362557101
 20
47.418462112477648
 30
0.0
  0
VERTEX
  5
1FE7
  8
0
 10
19.505392511286431
 20
47.354803565785502
 30
0.0
  0
VERTEX
  5
1FE8
  8
0
 10
19.436909563864671
 20
47.293556637480471
 30
0.0
  0
VERTEX
  5
1FE9
  8
0
 10
19.398802395441059
 20
47.263853540414438
 30
0.0
  0
VERTEX
  5
1FEA
  8
0
 10
19.358110271907599
 20
47.234952332245577
 30
0.0
  0
VERTEX
  5
1FEB
  8
0
 10
19.2690221336787
 20
47.180095774485018
 30
0.0
  0
VERTEX
  5
1FEC
  8
0
 10
19.1698735047739
 20
47.13001675225366
 30
0.0
  0
VERTEX
  5
1FED
  8
0
 10
19.061112308484979
 20
47.085651669636512
 30
0.0
  0
VERTEX
  5
1FEE
  8
0
 10
18.943347914494321
 20
47.047790449379207
 30
0.0
  0
VERTEX
  5
1FEF
  8
0
 10
18.817376440208619
 20
47.01706606426545
 30
0.0
  0
VERTEX
  5
1FF0
  8
0
 10
18.75164628067699
 20
47.004533723463183
 30
0.0
  0
VERTEX
  5
1FF1
  8
0
 10
18.684289741253419
 20
46.9939409721987
 30
0.0
  0
VERTEX
  5
1FF2
  8
0
 10
18.545374382136401
 20
46.978638934495379
 30
0.0
  0
VERTEX
  5
1FF3
  8
0
 10
18.402131914272928
 20
46.971127642927947
 30
0.0
  0
VERTEX
  5
1FF4
  8
0
 10
18.329414249713121
 20
46.970209412454423
 30
0.0
  0
SEQEND
  5
1FF5
  8
0
  0
POLYLINE
  5
18FA
  8
0
 66
     1
 10
0.0
 20
0.0
 30
0.0
  0
VERTEX
  5
1FF6
  8
0
 10
19.731971957138029
 20
48.08946863299262
 30
0.0
  0
VERTEX
  5
1FF7
  8
0
 10
19.737780022212771
 20
48.0603659844353
 30
0.0
  0
VERTEX
  5
1FF8
  8
0
 10
19.746302030740189
 20
48.002119953207639
 30
0.0
  0
VERTEX
  5
1FF9
  8
0
 10
19.750604324098191
 20
47.943982691703667
 30
0.0
  0
VERTEX
  5
1FFA
  8
0
 10
19.751145323349078
 20
47.915016543648861
 30
0.0
  0
SEQEND
  5
1FFB
  8
0
  0
POLYLINE
  5
1915
  8
0
 66
     1
 10
0.0
 20
0.0
 30
0.0
  0
VERTEX
  5
1FFC
  8
0
 10
24.033176637896759
 20
47.915016543648861
 30
0.0
  0
VERTEX
  5
1FFD
  8
0
 10
24.033717637147682
 20
47.943982691703617
 30
0.0
  0
VERTEX
  5
1FFE
  8
0
 10
24.038019930505641
 20
48.002119953207412
 30
0.0
  0
VERTEX
  5
1FFF
  8
0
 10
24.04654193903303
 20
48.060365984435109
 30
0.0
  0
VERTEX
  5
2000
  8
0
 10
24.052350004107812
 20
48.08946863299262
 30
0.0
  0
SEQEND
  5
2001
  8
0
  0
POLYLINE
  5
1916
  8
0
 66
     1
 10
0.0
 20
0.0
 30
0.0
  0
VERTEX
  5
2002
  8
0
 10
25.454907711532741
 20
46.970209412454423
 30
0.0
  0
VERTEX
  5
2003
  8
0
 10
25.38219004697288
 20
46.971127642927947
 30
0.0
  0
VERTEX
  5
2004
  8
0
 10
25.238947579109379
 20
46.978638934495379
 30
0.0
  0
VERTEX
  5
2005
  8
0
 10
25.100032219992329
 20
46.993940972198722
 30
0.0
  0
VERTEX
  5
2006
  8
0
 10
25.032675680568701
 20
47.004533723463211
 30
0.0
  0
VERTEX
  5
2007
  8
0
 10
24.966945521037079
 20
47.017066064265471
 30
0.0
  0
VERTEX
  5
2008
  8
0
 10
24.840974046751342
 20
47.047790449379256
 30
0.0
  0
VERTEX
  5
2009
  8
0
 10
24.723209652760659
 20
47.08565166963659
 30
0.0
  0
VERTEX
  5
200A
  8
0
 10
24.61444845647171
 20
47.130016752253781
 30
0.0
  0
VERTEX
  5
200B
  8
0
 10
24.51529982756691
 20
47.18009577448516
 30
0.0
  0
VERTEX
  5
200C
  8
0
 10
24.426211689338011
 20
47.234952332245747
 30
0.0
  0
VERTEX
  5
200D
  8
0
 10
24.385519565804518
 20
47.263853540414637
 30
0.0
  0
VERTEX
  5
200E
  8
0
 10
24.347412397380939
 20
47.293556637480698
 30
0.0
  0
VERTEX
  5
200F
  8
0
 10
24.278929449959179
 20
47.354803565785758
 30
0.0
  0
VERTEX
  5
2010
  8
0
 10
24.219804598688508
 20
47.41846211247794
 30
0.0
  0
VERTEX
  5
2011
  8
0
 10
24.167993369614781
 20
47.486361774646653
 30
0.0
  0
VERTEX
  5
2012
  8
0
 10
24.12399573876343
 20
47.558169241413751
 30
0.0
  0
VERTEX
  5
2013
  8
0
 10
24.088323918127909
 20
47.633356854517451
 30
0.0
  0
VERTEX
  5
2014
  8
0
 10
24.073731321085798
 20
47.672046851702198
 30
0.0
  0
VERTEX
  5
2015
  8
0
 10
24.06134878254505
 20
47.711373056814963
 30
0.0
  0
VERTEX
  5
2016
  8
0
 10
24.04330686680947
 20
47.791643334118028
 30
0.0
  0
VERTEX
  5
2017
  8
0
 10
24.034298453214092
 20
47.873587676188073
 30
0.0
  0
VERTEX
  5
2018
  8
0
 10
24.033176637896759
 20
47.915016543648861
 30
0.0
  0
SEQEND
  5
2019
  8
0
  0
POLYLINE
  5
1918
  8
0
 66
     1
 10
0.0
 20
0.0
 30
0.0
  0
VERTEX
  5
201A
  8
0
 10
24.687273354676389
 20
58.696589598136207
 30
0.0
  0
VERTEX
  5
201B
  8
0
 10
24.705362791446671
 20
58.690007728020092
 30
0.0
  0
VERTEX
  5
201C
  8
0
 10
24.742225928039488
 20
58.677055456714093
 30
0.0
  0
VERTEX
  5
201D
  8
0
 10
24.779986087558431
 20
58.664387430525871
 30
0.0
  0
VERTEX
  5
201E
  8
0
 10
24.799194386013539
 20
58.658161458843061
 30
0.0
  0
VERTEX
  5
201F
  8
0
 10
24.81861679459502
 20
58.65200825235631
 30
0.0
  0
VERTEX
  5
2020
  8
0
 10
24.85808905028529
 20
58.639922150309772
 30
0.0
  0
VERTEX
  5
2021
  8
0
 10
24.89837181486746
 20
58.628132814966548
 30
0.0
  0
VERTEX
  5
2022
  8
0
 10
24.93943211956881
 20
58.616643380488362
 30
0.0
  0
VERTEX
  5
2023
  8
0
 10
24.981235192304322
 20
58.605456410850351
 30
0.0
  0
VERTEX
  5
2024
  8
0
 10
25.023744597804871
 20
58.594573890633242
 30
0.0
  0
VERTEX
  5
2025
  8
0
 10
25.045252372447351
 20
58.58924725946185
 30
0.0
  0
VERTEX
  5
2026
  8
0
 10
25.066922392969762
 20
58.58399721984447
 30
0.0
  0
VERTEX
  5
2027
  8
0
 10
25.110729347231288
 20
58.573727201076117
 30
0.0
  0
VERTEX
  5
2028
  8
0
 10
25.155124840067259
 20
58.563764107303918
 30
0.0
  0
VERTEX
  5
2029
  8
0
 10
25.200066023984991
 20
58.554107894058163
 30
0.0
  0
VERTEX
  5
202A
  8
0
 10
25.245508076435922
 20
58.544758144484902
 30
0.0
  0
VERTEX
  5
202B
  8
0
 10
25.291404358348359
 20
58.535714047522028
 30
0.0
  0
VERTEX
  5
202C
  8
0
 10
25.314507799558388
 20
58.531306254657373
 30
0.0
  0
VERTEX
  5
202D
  8
0
 10
25.337706559731942
 20
58.526974386639417
 30
0.0
  0
VERTEX
  5
202E
  8
0
 10
25.38436485568306
 20
58.518537532978641
 30
0.0
  0
VERTEX
  5
202F
  8
0
 10
25.431328073370882
 20
58.510401442280582
 30
0.0
  0
VERTEX
  5
2030
  8
0
 10
25.454907711532741
 20
58.506445430603328
 30
0.0
  0
SEQEND
  5
2031
  8
0
  0
LINE
  5
191B
  8
0
 10
27.892160980622918
 20
43.670209412454412
 30
0.0
 11
15.89216098062292
 21
43.670209412454412
 31
0.0
  0
POLYLINE
  5
1921
  8
0
 66
     1
 10
0.0
 20
0.0
 30
0.0
  0
VERTEX
  5
2032
  8
0
 10
25.454907711532709
 20
58.506445430603328
 30
0.0
  0
VERTEX
  5
2033
  8
0
 10
25.578633949804701
 20
58.485561801834692
 30
0.0
  0
VERTEX
  5
2034
  8
0
 10
25.816563311896662
 20
58.443460153504383
 30
0.0
  0
VERTEX
  5
2035
  8
0
 10
26.041085070942842
 20
58.401399266615648
 30
0.0
  0
VERTEX
  5
2036
  8
0
 10
26.148097859582212
 20
58.380559143918688
 30
0.0
  0
VERTEX
  5
2037
  8
0
 10
26.25266824874425
 20
58.359702161690059
 30
0.0
  0
VERTEX
  5
2038
  8
0
 10
26.45592377038901
 20
58.317774657876512
 30
0.0
  0
VERTEX
  5
2039
  8
0
 10
26.65000253920249
 20
58.27603839126656
 30
0.0
  0
VERTEX
  5
203A
  8
0
 10
26.833438198216012
 20
58.23507148924115
 30
0.0
  0
VERTEX
  5
203B
  8
0
 10
27.004932307882228
 20
58.195443497642749
 30
0.0
  0
VERTEX
  5
203C
  8
0
 10
27.163344451131511
 20
58.157704394007723
 30
0.0
  0
VERTEX
  5
203D
  8
0
 10
27.237325899169551
 20
58.139708089615752
 30
0.0
  0
VERTEX
  5
203E
  8
0
 10
27.307673197552479
 20
58.122377195694021
 30
0.0
  0
VERTEX
  5
203F
  8
0
 10
27.437075816523478
 20
58.089942491381677
 30
0.0
  0
VERTEX
  5
2040
  8
0
 10
27.550932905454371
 20
58.060811892274621
 30
0.0
  0
VERTEX
  5
2041
  8
0
 10
27.6487522501304
 20
58.03534348981497
 30
0.0
  0
VERTEX
  5
2042
  8
0
 10
27.730147085854242
 20
58.013841730962248
 30
0.0
  0
VERTEX
  5
2043
  8
0
 10
27.794913364712439
 20
57.99653230306113
 30
0.0
  0
VERTEX
  5
2044
  8
0
 10
27.82104951413902
 20
57.98949697534588
 30
0.0
  0
VERTEX
  5
2045
  8
0
 10
27.843038060026739
 20
57.983555778620698
 30
0.0
  0
VERTEX
  5
2046
  8
0
 10
27.874693499221848
 20
57.974966851025513
 30
0.0
  0
VERTEX
  5
2047
  8
0
 10
27.890248628731339
 20
57.970730886034957
 30
0.0
  0
VERTEX
  5
2048
  8
0
 10
27.892160980622918
 20
57.970209412454423
 30
0.0
  0
SEQEND
  5
2049
  8
0
  0
LINE
  5
1922
  8
0
 10
25.454907711532709
 20
46.970209412454423
 30
0.0
 11
18.329414249713121
 21
46.970209412454423
 31
0.0
  0
POLYLINE
  5
1923
  8
0
 66
     1
 10
0.0
 20
0.0
 30
0.0
  0
VERTEX
  5
204A
  8
0
 10
15.89216098062292
 20
57.970209412454423
 30
0.0
  0
VERTEX
  5
204B
  8
0
 10
15.894073332514489
 20
57.970730886034957
 30
0.0
  0
VERTEX
  5
204C
  8
0
 10
15.90962846202401
 20
57.974966851025513
 30
0.0
  0
VERTEX
  5
204D
  8
0
 10
15.941283901219091
 20
57.983555778620698
 30
0.0
  0
VERTEX
  5
204E
  8
0
 10
15.96327244710684
 20
57.98949697534588
 30
0.0
  0
VERTEX
  5
204F
  8
0
 10
15.989408596533391
 20
57.99653230306113
 30
0.0
  0
VERTEX
  5
2050
  8
0
 10
16.05417487539162
 20
58.013841730962248
 30
0.0
  0
VERTEX
  5
2051
  8
0
 10
16.135569711115458
 20
58.03534348981497
 30
0.0
  0
VERTEX
  5
2052
  8
0
 10
16.233389055791491
 20
58.060811892274621
 30
0.0
  0
VERTEX
  5
2053
  8
0
 10
16.347246144722391
 20
58.089942491381677
 30
0.0
  0
VERTEX
  5
2054
  8
0
 10
16.47664876369339
 20
58.122377195694021
 30
0.0
  0
VERTEX
  5
2055
  8
0
 10
16.546996062076289
 20
58.139708089615723
 30
0.0
  0
VERTEX
  5
2056
  8
0
 10
16.620977510114329
 20
58.157704394007723
 30
0.0
  0
VERTEX
  5
2057
  8
0
 10
16.779389653363641
 20
58.195443497642749
 30
0.0
  0
VERTEX
  5
2058
  8
0
 10
16.95088376302985
 20
58.23507148924115
 30
0.0
  0
VERTEX
  5
2059
  8
0
 10
17.134319422043369
 20
58.27603839126656
 30
0.0
  0
VERTEX
  5
205A
  8
0
 10
17.328398190856831
 20
58.317774657876512
 30
0.0
  0
VERTEX
  5
205B
  8
0
 10
17.531653712501591
 20
58.359702161690059
 30
0.0
  0
VERTEX
  5
205C
  8
0
 10
17.636224101663629
 20
58.380559143918688
 30
0.0
  0
VERTEX
  5
205D
  8
0
 10
17.74323689030302
 20
58.401399266615648
 30
0.0
  0
VERTEX
  5
205E
  8
0
 10
17.967758649349211
 20
58.443460153504383
 30
0.0
  0
VERTEX
  5
205F
  8
0
 10
18.20568801144114
 20
58.485561801834692
 30
0.0
  0
VERTEX
  5
2060
  8
0
 10
18.329414249713121
 20
58.506445430603328
 30
0.0
  0
SEQEND
  5
2061
  8
0
  0
LINE
  5
1927
  8
0
 10
24.337705212603449
 20
59.970209412454423
 30
0.0
 11
19.446616748642409
 21
59.970209412454423
 31
0.0
  0
LINE
  5
1929
  8
0
 10
26.892160980622918
 20
43.470209412454423
 30
0.0
 11
16.892160980622918
 21
43.470209412454423
 31
0.0
  0
LINE
  5
192A
  8
0
 10
24.892160980622918
 20
28.083709412454411
 30
0.0
 11
24.892160980622918
 21
43.470209412454423
 31
0.0
  0
LINE
  5
192B
  8
0
 10
18.892160980622918
 20
43.470209412454423
 30
0.0
 11
18.892160980622918
 21
28.083709412454411
 31
0.0
  0
LINE
  5
192C
  8
0
 10
24.278660980622931
 20
27.47020941245442
 30
0.0
 11
24.892160980622918
 21
28.083709412454411
 31
0.0
  0
LINE
  5
192D
  8
0
 10
18.892160980622918
 20
28.083709412454411
 30
0.0
 11
19.505660980622931
 21
27.47020941245442
 31
0.0
  0
LINE
  5
192E
  8
0
 10
26.392160980622918
 20
58.331109604599149
 30
0.0
 11
26.392160980622918
 21
58.709236375508411
 31
0.0
  0
LINE
  5
1931
  8
0
 10
17.392160980622918
 20
58.709236375508411
 30
0.0
 11
17.392160980622918
 21
58.331109604599149
 31
0.0
  0
ARC
  5
1932
  8
0
 10
21.892160980622862
 20
51.310209412454633
 30
0.0
 40
8.6599999999997781
 50
107.859282596955
 51
121.3074684253498
  0
ARC
  5
1934
  8
0
 10
21.89216098062289
 20
51.310209412454427
 30
0.0
 40
8.6599999999999966
 50
58.692531574650218
 51
72.140717403044846
  0
ARC
  5
1935
  8
0
 10
28.692160980622852
 20
54.72020941245443
 30
0.0
 40
9.8599999999999373
 50
169.3258612017577
 51
190.67413879824221
  0
ARC
  5
1936
  8
0
 10
15.09216098062293
 20
54.72020941245443
 30
0.0
 40
9.8600000000000048
 50
349.32586120175608
 51
10.6741387982439
  0
LINE
  5
1939
  8
0
 10
19.002773495452121
 20
57.562111375504237
 30
0.0
 11
19.002773495452121
 21
52.378307449406442
 31
0.0
  0
LINE
  5
193A
  8
0
 10
24.781548465793719
 20
52.378307449404574
 30
0.0
 11
24.781548465793719
 21
57.562111375502397
 31
0.0
  0
LINE
  5
193D
  8
0
 10
27.892160980622918
 20
43.670209412454412
 30
0.0
 11
27.892160980622918
 21
57.970209412454423
 31
0.0
  0
LINE
  5
193E
  8
0
 10
15.89216098062292
 20
57.970209412454423
 30
0.0
 11
15.89216098062292
 21
43.670209412454412
 31
0.0
  0
LINE
  5
1941
  8
0
 10
26.892160980622918
 20
43.470209412454423
 30
0.0
 11
26.892160980622918
 21
43.670209412454412
 31
0.0
  0
LINE
  5
1942
  8
0
 10
16.892160980622918
 20
43.670209412454412
 30
0.0
 11
16.892160980622918
 21
43.470209412454423
 31
0.0
  0
LINE
  5
19C9
  8
1
 10
76.076147135703479
 20
25.470209412454452
 30
0.0
 11
76.076147135703479
 21
61.970209412454437
 31
0.0
  0
LINE
  5
19CA
  8
3
 10
73.076147135703479
 20
43.470209412454452
 30
0.0
 11
73.689647135703495
 21
42.42020941245444
 31
0.0
  0
LINE
  5
19CB
  8
3
 10
73.689647135703495
 20
27.470209412454452
 30
0.0
 11
73.689647135703495
 21
42.42020941245444
 31
0.0
  0
LINE
  5
19CC
  8
0
 10
79.076147135703479
 20
42.42020941245444
 30
0.0
 11
73.076147135703479
 21
42.42020941245444
 31
0.0
  0
LINE
  5
19CD
  8
3
 10
79.076147135703479
 20
43.470209412454452
 30
0.0
 11
78.462647135703492
 21
42.42020941245444
 31
0.0
  0
LINE
  5
19CE
  8
3
 10
78.462647135703492
 20
27.470209412454452
 30
0.0
 11
78.462647135703492
 21
42.42020941245444
 31
0.0
  0
LINE
  5
19CF
  8
0
 10
79.076147135703479
 20
28.083709412454439
 30
0.0
 11
73.076147135703479
 21
28.083709412454439
 31
0.0
  0
LINE
  5
19D1
  8
0
 10
78.462647135703492
 20
27.470209412454452
 30
0.0
 11
73.689647135703495
 21
27.470209412454452
 31
0.0
  0
POLYLINE
  5
19D5
  8
0
 10
64.803941172086411
 20
51.60315035494925
 30
0.0
 66
     1
 70
     8
  0
VERTEX
  8
0
  5
218E
 10
64.8039
 20
51.6032
 30
0.000000
  70
    32
  0
VERTEX
  8
0
  5
218F
 10
64.9561
 20
51.6069
 30
0.000000
  70
    32
  0
VERTEX
  8
0
  5
2190
 10
65.1078
 20
51.6182
 30
0.000000
  70
    32
  0
VERTEX
  8
0
  5
2191
 10
65.2588
 20
51.6369
 30
0.000000
  70
    32
  0
VERTEX
  8
0
  5
2192
 10
65.4087
 20
51.6630
 30
0.000000
  70
    32
  0
VERTEX
  8
0
  5
2193
 10
65.5572
 20
51.6966
 30
0.000000
  70
    32
  0
VERTEX
  8
0
  5
2194
 10
65.7038
 20
51.7374
 30
0.000000
  70
    32
  0
VERTEX
  8
0
  5
2195
 10
65.8483
 20
51.7854
 30
0.000000
  70
    32
  0
VERTEX
  8
0
  5
2196
 10
65.9903
 20
51.8404
 30
0.000000
  70
    32
  0
VERTEX
  8
0
  5
2197
 10
66.1294
 20
51.9024
 30
0.000000
  70
    32
  0
VERTEX
  8
0
  5
2198
 10
66.2653
 20
51.9712
 30
0.000000
  70
    32
  0
VERTEX
  8
0
  5
2199
 10
66.3977
 20
52.0466
 30
0.000000
  70
    32
  0
VERTEX
  8
0
  5
219A
 10
66.5262
 20
52.1285
 30
0.000000
  70
    32
  0
VERTEX
  8
0
  5
219B
 10
66.6506
 20
52.2166
 30
0.000000
  70
    32
  0
VERTEX
  8
0
  5
219C
 10
66.7705
 20
52.3107
 30
0.000000
  70
    32
  0
VERTEX
  8
0
  5
219D
 10
66.8858
 20
52.4106
 30
0.000000
  70
    32
  0
VERTEX
  8
0
  5
219E
 10
66.9960
 20
52.5161
 30
0.000000
  70
    32
  0
VERTEX
  8
0
  5
219F
 10
67.1009
 20
52.6269
 30
0.000000
  70
    32
  0
VERTEX
  8
0
  5
21A0
 10
67.2003
 20
52.7428
 30
0.000000
  70
    32
  0
VERTEX
  8
0
  5
21A1
 10
67.2939
 20
52.8634
 30
0.000000
  70
    32
  0
VERTEX
  8
0
  5
21A2
 10
67.3815
 20
52.9885
 30
0.000000
  70
    32
  0
VERTEX
  8
0
  5
21A3
 10
67.4629
 20
53.1177
 30
0.000000
  70
    32
  0
VERTEX
  8
0
  5
21A4
 10
67.5379
 20
53.2508
 30
0.000000
  70
    32
  0
VERTEX
  8
0
  5
21A5
 10
67.6063
 20
53.3875
 30
0.000000
  70
    32
  0
VERTEX
  8
0
  5
21A6
 10
67.6680
 20
53.5274
 30
0.000000
  70
    32
  0
VERTEX
  8
0
  5
21A7
 10
67.7227
 20
53.6701
 30
0.000000
  70
    32
  0
VERTEX
  8
0
  5
21A8
 10
67.7704
 20
53.8154
 30
0.000000
  70
    32
  0
VERTEX
  8
0
  5
21A9
 10
67.8110
 20
53.9628
 30
0.000000
  70
    32
  0
VERTEX
  8
0
  5
21AA
 10
67.8444
 20
54.1121
 30
0.000000
  70
    32
  0
VERTEX
  8
0
  5
21AB
 10
67.8704
 20
54.2628
 30
0.000000
  70
    32
  0
VERTEX
  8
0
  5
21AC
 10
67.8890
 20
54.4147
 30
0.000000
  70
    32
  0
VERTEX
  8
0
  5
21AD
 10
67.9002
 20
54.5673
 30
0.000000
  70
    32
  0
VERTEX
  8
0
  5
21AE
 10
67.9039
 20
54.7202
 30
0.000000
  70
    32
  0
VERTEX
  8
0
  5
21AF
 10
67.9002
 20
54.8732
 30
0.000000
  70
    32
  0
VERTEX
  8
0
  5
21B0
 10
67.8890
 20
55.0257
 30
0.000000
  70
    32
  0
VERTEX
  8
0
  5
21B1
 10
67.8704
 20
55.1776
 30
0.000000
  70
    32
  0
VERTEX
  8
0
  5
21B2
 10
67.8444
 20
55.3283
 30
0.000000
  70
    32
  0
VERTEX
  8
0
  5
21B3
 10
67.8110
 20
55.4776
 30
0.000000
  70
    32
  0
VERTEX
  8
0
  5
21B4
 10
67.7704
 20
55.6250
 30
0.000000
  70
    32
  0
VERTEX
  8
0
  5
21B5
 10
67.7227
 20
55.7703
 30
0.000000
  70
    32
  0
VERTEX
  8
0
  5
21B6
 10
67.6680
 20
55.9131
 30
0.000000
  70
    32
  0
VERTEX
  8
0
  5
21B7
 10
67.6063
 20
56.0529
 30
0.000000
  70
    32
  0
VERTEX
  8
0
  5
21B8
 10
67.5379
 20
56.1896
 30
0.000000
  70
    32
  0
VERTEX
  8
0
  5
21B9
 10
67.4629
 20
56.3227
 30
0.000000
  70
    32
  0
VERTEX
  8
0
  5
21BA
 10
67.3815
 20
56.4520
 30
0.000000
  70
    32
  0
VERTEX
  8
0
  5
21BB
 10
67.2939
 20
56.5770
 30
0.000000
  70
    32
  0
VERTEX
  8
0
  5
21BC
 10
67.2003
 20
56.6977
 30
0.000000
  70
    32
  0
VERTEX
  8
0
  5
21BD
 10
67.1009
 20
56.8135
 30
0.000000
  70
    32
  0
VERTEX
  8
0
  5
21BE
 10
66.9960
 20
56.9243
 30
0.000000
  70
    32
  0
VERTEX
  8
0
  5
21BF
 10
66.8858
 20
57.0298
 30
0.000000
  70
    32
  0
VERTEX
  8
0
  5
21C0
 10
66.7705
 20
57.1297
 30
0.000000
  70
    32
  0
VERTEX
  8
0
  5
21C1
 10
66.6506
 20
57.2239
 30
0.000000
  70
    32
  0
VERTEX
  8
0
  5
21C2
 10
66.5262
 20
57.3119
 30
0.000000
  70
    32
  0
VERTEX
  8
0
  5
21C3
 10
66.3977
 20
57.3938
 30
0.000000
  70
    32
  0
VERTEX
  8
0
  5
21C4
 10
66.2653
 20
57.4692
 30
0.000000
  70
    32
  0
VERTEX
  8
0
  5
21C5
 10
66.1294
 20
57.5380
 30
0.000000
  70
    32
  0
VERTEX
  8
0
  5
21C6
 10
65.9903
 20
57.6000
 30
0.000000
  70
    32
  0
VERTEX
  8
0
  5
21C7
 10
65.8483
 20
57.6551
 30
0.000000
  70
    32
  0
VERTEX
  8
0
  5
21C8
 10
65.7038
 20
57.7030
 30
0.000000
  70
    32
  0
VERTEX
  8
0
  5
21C9
 10
65.5572
 20
57.7439
 30
0.000000
  70
    32
  0
VERTEX
  8
0
  5
21CA
 10
65.4087
 20
57.7774
 30
0.000000
  70
    32
  0
VERTEX
  8
0
  5
21CB
 10
65.2588
 20
57.8035
 30
0.000000
  70
    32
  0
VERTEX
  8
0
  5
21CC
 10
65.1078
 20
57.8223
 30
0.000000
  70
    32
  0
VERTEX
  8
0
  5
21CD
 10
64.9561
 20
57.8335
 30
0.000000
  70
    32
  0
VERTEX
  8
0
  5
21CE
 10
64.8039
 20
57.8373
 30
0.000000
  70
    32
  0
VERTEX
  8
0
  5
21CF
 10
64.6518
 20
57.8335
 30
0.000000
  70
    32
  0
VERTEX
  8
0
  5
21D0
 10
64.5001
 20
57.8223
 30
0.000000
  70
    32
  0
VERTEX
  8
0
  5
21D1
 10
64.3491
 20
57.8035
 30
0.000000
  70
    32
  0
VERTEX
  8
0
  5
21D2
 10
64.1992
 20
57.7774
 30
0.000000
  70
    32
  0
VERTEX
  8
0
  5
21D3
 10
64.0507
 20
57.7439
 30
0.000000
  70
    32
  0
VERTEX
  8
0
  5
21D4
 10
63.9041
 20
57.7030
 30
0.000000
  70
    32
  0
VERTEX
  8
0
  5
21D5
 10
63.7596
 20
57.6551
 30
0.000000
  70
    32
  0
VERTEX
  8
0
  5
21D6
 10
63.6176
 20
57.6000
 30
0.000000
  70
    32
  0
VERTEX
  8
0
  5
21D7
 10
63.4785
 20
57.5380
 30
0.000000
  70
    32
  0
VERTEX
  8
0
  5
21D8
 10
63.3426
 20
57.4692
 30
0.000000
  70
    32
  0
VERTEX
  8
0
  5
21D9
 10
63.2102
 20
57.3938
 30
0.000000
  70
    32
  0
VERTEX
  8
0
  5
21DA
 10
63.0817
 20
57.3119
 30
0.000000
  70
    32
  0
VERTEX
  8
0
  5
21DB
 10
62.9573
 20
57.2239
 30
0.000000
  70
    32
  0
VERTEX
  8
0
  5
21DC
 10
62.8373
 20
57.1297
 30
0.000000
  70
    32
  0
VERTEX
  8
0
  5
21DD
 10
62.7221
 20
57.0298
 30
0.000000
  70
    32
  0
VERTEX
  8
0
  5
21DE
 10
62.6119
 20
56.9243
 30
0.000000
  70
    32
  0
VERTEX
  8
0
  5
21DF
 10
62.5070
 20
56.8135
 30
0.000000
  70
    32
  0
VERTEX
  8
0
  5
21E0
 10
62.4076
 20
56.6977
 30
0.000000
  70
    32
  0
VERTEX
  8
0
  5
21E1
 10
62.3140
 20
56.5770
 30
0.000000
  70
    32
  0
VERTEX
  8
0
  5
21E2
 10
62.2264
 20
56.4520
 30
0.000000
  70
    32
  0
VERTEX
  8
0
  5
21E3
 10
62.1450
 20
56.3227
 30
0.000000
  70
    32
  0
VERTEX
  8
0
  5
21E4
 10
62.0700
 20
56.1896
 30
0.000000
  70
    32
  0
VERTEX
  8
0
  5
21E5
 10
62.0016
 20
56.0529
 30
0.000000
  70
    32
  0
VERTEX
  8
0
  5
21E6
 10
61.9399
 20
55.9131
 30
0.000000
  70
    32
  0
VERTEX
  8
0
  5
21E7
 10
61.8852
 20
55.7703
 30
0.000000
  70
    32
  0
VERTEX
  8
0
  5
21E8
 10
61.8374
 20
55.6250
 30
0.000000
  70
    32
  0
VERTEX
  8
0
  5
21E9
 10
61.7969
 20
55.4776
 30
0.000000
  70
    32
  0
VERTEX
  8
0
  5
21EA
 10
61.7635
 20
55.3283
 30
0.000000
  70
    32
  0
VERTEX
  8
0
  5
21EB
 10
61.7375
 20
55.1776
 30
0.000000
  70
    32
  0
VERTEX
  8
0
  5
21EC
 10
61.7189
 20
55.0257
 30
0.000000
  70
    32
  0
VERTEX
  8
0
  5
21ED
 10
61.7077
 20
54.8732
 30
0.000000
  70
    32
  0
VERTEX
  8
0
  5
21EE
 10
61.7040
 20
54.7202
 30
0.000000
  70
    32
  0
VERTEX
  8
0
  5
21EF
 10
61.7077
 20
54.5673
 30
0.000000
  70
    32
  0
VERTEX
  8
0
  5
21F0
 10
61.7189
 20
54.4147
 30
0.000000
  70
    32
  0
VERTEX
  8
0
  5
21F1
 10
61.7375
 20
54.2628
 30
0.000000
  70
    32
  0
VERTEX
  8
0
  5
21F2
 10
61.7635
 20
54.1121
 30
0.000000
  70
    32
  0
VERTEX
  8
0
  5
21F3
 10
61.7969
 20
53.9628
 30
0.000000
  70
    32
  0
VERTEX
  8
0
  5
21F4
 10
61.8374
 20
53.8154
 30
0.000000
  70
    32
  0
VERTEX
  8
0
  5
21F5
 10
61.8852
 20
53.6701
 30
0.000000
  70
    32
  0
VERTEX
  8
0
  5
21F6
 10
61.9399
 20
53.5274
 30
0.000000
  70
    32
  0
VERTEX
  8
0
  5
21F7
 10
62.0016
 20
53.3875
 30
0.000000
  70
    32
  0
VERTEX
  8
0
  5
21F8
 10
62.0700
 20
53.2508
 30
0.000000
  70
    32
  0
VERTEX
  8
0
  5
21F9
 10
62.1450
 20
53.1177
 30
0.000000
  70
    32
  0
VERTEX
  8
0
  5
21FA
 10
62.2264
 20
52.9885
 30
0.000000
  70
    32
  0
VERTEX
  8
0
  5
21FB
 10
62.3140
 20
52.8634
 30
0.000000
  70
    32
  0
VERTEX
  8
0
  5
21FC
 10
62.4076
 20
52.7428
 30
0.000000
  70
    32
  0
VERTEX
  8
0
  5
21FD
 10
62.5070
 20
52.6269
 30
0.000000
  70
    32
  0
VERTEX
  8
0
  5
21FE
 10
62.6119
 20
52.5161
 30
0.000000
  70
    32
  0
VERTEX
  8
0
  5
21FF
 10
62.7221
 20
52.4106
 30
0.000000
  70
    32
  0
VERTEX
  8
0
  5
2200
 10
62.8373
 20
52.3107
 30
0.000000
  70
    32
  0
VERTEX
  8
0
  5
2201
 10
62.9573
 20
52.2166
 30
0.000000
  70
    32
  0
VERTEX
  8
0
  5
2202
 10
63.0817
 20
52.1285
 30
0.000000
  70
    32
  0
VERTEX
  8
0
  5
2203
 10
63.2102
 20
52.0466
 30
0.000000
  70
    32
  0
VERTEX
  8
0
  5
2204
 10
63.3426
 20
51.9712
 30
0.000000
  70
    32
  0
VERTEX
  8
0
  5
2205
 10
63.4785
 20
51.9024
 30
0.000000
  70
    32
  0
VERTEX
  8
0
  5
2206
 10
63.6176
 20
51.8404
 30
0.000000
  70
    32
  0
VERTEX
  8
0
  5
2207
 10
63.7596
 20
51.7854
 30
0.000000
  70
    32
  0
VERTEX
  8
0
  5
2208
 10
63.9041
 20
51.7374
 30
0.000000
  70
    32
  0
VERTEX
  8
0
  5
2209
 10
64.0507
 20
51.6966
 30
0.000000
  70
    32
  0
VERTEX
  8
0
  5
220A
 10
64.1992
 20
51.6630
 30
0.000000
  70
    32
  0
VERTEX
  8
0
  5
220B
 10
64.3491
 20
51.6369
 30
0.000000
  70
    32
  0
VERTEX
  8
0
  5
220C
 10
64.5001
 20
51.6182
 30
0.000000
  70
    32
  0
VERTEX
  8
0
  5
220D
 10
64.6518
 20
51.6069
 30
0.000000
  70
    32
  0
VERTEX
  8
0
  5
220E
 10
64.8039
 20
51.6032
 30
0.000000
  70
    32
  0
SEQEND
  8
0
  5
220F
  0
POLYLINE
  5
19D6
  8
0
 10
87.348353099320576
 20
57.837268469959682
 30
0.0
 66
     1
 70
     8
  0
VERTEX
  8
0
  5
2210
 10
87.3484
 20
57.8373
 30
0.000000
  70
    32
  0
VERTEX
  8
0
  5
2211
 10
87.1962
 20
57.8335
 30
0.000000
  70
    32
  0
VERTEX
  8
0
  5
2212
 10
87.0445
 20
57.8223
 30
0.000000
  70
    32
  0
VERTEX
  8
0
  5
2213
 10
86.8935
 20
57.8035
 30
0.000000
  70
    32
  0
VERTEX
  8
0
  5
2214
 10
86.7436
 20
57.7774
 30
0.000000
  70
    32
  0
VERTEX
  8
0
  5
2215
 10
86.5951
 20
57.7439
 30
0.000000
  70
    32
  0
VERTEX
  8
0
  5
2216
 10
86.4485
 20
57.7030
 30
0.000000
  70
    32
  0
VERTEX
  8
0
  5
2217
 10
86.3040
 20
57.6551
 30
0.000000
  70
    32
  0
VERTEX
  8
0
  5
2218
 10
86.1620
 20
57.6000
 30
0.000000
  70
    32
  0
VERTEX
  8
0
  5
2219
 10
86.0229
 20
57.5380
 30
0.000000
  70
    32
  0
VERTEX
  8
0
  5
221A
 10
85.8870
 20
57.4692
 30
0.000000
  70
    32
  0
VERTEX
  8
0
  5
221B
 10
85.7546
 20
57.3938
 30
0.000000
  70
    32
  0
VERTEX
  8
0
  5
221C
 10
85.6261
 20
57.3119
 30
0.000000
  70
    32
  0
VERTEX
  8
0
  5
221D
 10
85.5017
 20
57.2239
 30
0.000000
  70
    32
  0
VERTEX
  8
0
  5
221E
 10
85.3817
 20
57.1297
 30
0.000000
  70
    32
  0
VERTEX
  8
0
  5
221F
 10
85.2665
 20
57.0298
 30
0.000000
  70
    32
  0
VERTEX
  8
0
  5
2220
 10
85.1563
 20
56.9243
 30
0.000000
  70
    32
  0
VERTEX
  8
0
  5
2221
 10
85.0514
 20
56.8135
 30
0.000000
  70
    32
  0
VERTEX
  8
0
  5
2222
 10
84.9520
 20
56.6977
 30
0.000000
  70
    32
  0
VERTEX
  8
0
  5
2223
 10
84.8584
 20
56.5770
 30
0.000000
  70
    32
  0
VERTEX
  8
0
  5
2224
 10
84.7708
 20
56.4520
 30
0.000000
  70
    32
  0
VERTEX
  8
0
  5
2225
 10
84.6894
 20
56.3227
 30
0.000000
  70
    32
  0
VERTEX
  8
0
  5
2226
 10
84.6144
 20
56.1896
 30
0.000000
  70
    32
  0
VERTEX
  8
0
  5
2227
 10
84.5460
 20
56.0529
 30
0.000000
  70
    32
  0
VERTEX
  8
0
  5
2228
 10
84.4843
 20
55.9131
 30
0.000000
  70
    32
  0
VERTEX
  8
0
  5
2229
 10
84.4296
 20
55.7703
 30
0.000000
  70
    32
  0
VERTEX
  8
0
  5
222A
 10
84.3819
 20
55.6250
 30
0.000000
  70
    32
  0
VERTEX
  8
0
  5
222B
 10
84.3413
 20
55.4776
 30
0.000000
  70
    32
  0
VERTEX
  8
0
  5
222C
 10
84.3079
 20
55.3283
 30
0.000000
  70
    32
  0
VERTEX
  8
0
  5
222D
 10
84.2819
 20
55.1776
 30
0.000000
  70
    32
  0
VERTEX
  8
0
  5
222E
 10
84.2633
 20
55.0257
 30
0.000000
  70
    32
  0
VERTEX
  8
0
  5
222F
 10
84.2521
 20
54.8732
 30
0.000000
  70
    32
  0
VERTEX
  8
0
  5
2230
 10
84.2484
 20
54.7202
 30
0.000000
  70
    32
  0
VERTEX
  8
0
  5
2231
 10
84.2521
 20
54.5673
 30
0.000000
  70
    32
  0
VERTEX
  8
0
  5
2232
 10
84.2633
 20
54.4147
 30
0.000000
  70
    32
  0
VERTEX
  8
0
  5
2233
 10
84.2819
 20
54.2628
 30
0.000000
  70
    32
  0
VERTEX
  8
0
  5
2234
 10
84.3079
 20
54.1121
 30
0.000000
  70
    32
  0
VERTEX
  8
0
  5
2235
 10
84.3413
 20
53.9628
 30
0.000000
  70
    32
  0
VERTEX
  8
0
  5
2236
 10
84.3819
 20
53.8154
 30
0.000000
  70
    32
  0
VERTEX
  8
0
  5
2237
 10
84.4296
 20
53.6701
 30
0.000000
  70
    32
  0
VERTEX
  8
0
  5
2238
 10
84.4843
 20
53.5274
 30
0.000000
  70
    32
  0
VERTEX
  8
0
  5
2239
 10
84.5460
 20
53.3875
 30
0.000000
  70
    32
  0
VERTEX
  8
0
  5
223A
 10
84.6144
 20
53.2508
 30
0.000000
  70
    32
  0
VERTEX
  8
0
  5
223B
 10
84.6894
 20
53.1177
 30
0.000000
  70
    32
  0
VERTEX
  8
0
  5
223C
 10
84.7708
 20
52.9885
 30
0.000000
  70
    32
  0
VERTEX
  8
0
  5
223D
 10
84.8584
 20
52.8634
 30
0.000000
  70
    32
  0
VERTEX
  8
0
  5
223E
 10
84.9520
 20
52.7428
 30
0.000000
  70
    32
  0
VERTEX
  8
0
  5
223F
 10
85.0514
 20
52.6269
 30
0.000000
  70
    32
  0
VERTEX
  8
0
  5
2240
 10
85.1563
 20
52.5161
 30
0.000000
  70
    32
  0
VERTEX
  8
0
  5
2241
 10
85.2665
 20
52.4106
 30
0.000000
  70
    32
  0
VERTEX
  8
0
  5
2242
 10
85.3817
 20
52.3107
 30
0.000000
  70
    32
  0
VERTEX
  8
0
  5
2243
 10
85.5017
 20
52.2166
 30
0.000000
  70
    32
  0
VERTEX
  8
0
  5
2244
 10
85.6261
 20
52.1285
 30
0.000000
  70
    32
  0
VERTEX
  8
0
  5
2245
 10
85.7546
 20
52.0466
 30
0.000000
  70
    32
  0
VERTEX
  8
0
  5
2246
 10
85.8870
 20
51.9712
 30
0.000000
  70
    32
  0
VERTEX
  8
0
  5
2247
 10
86.0229
 20
51.9024
 30
0.000000
  70
    32
  0
VERTEX
  8
0
  5
2248
 10
86.1620
 20
51.8404
 30
0.000000
  70
    32
  0
VERTEX
  8
0
  5
2249
 10
86.3040
 20
51.7854
 30
0.000000
  70
    32
  0
VERTEX
  8
0
  5
224A
 10
86.4485
 20
51.7374
 30
0.000000
  70
    32
  0
VERTEX
  8
0
  5
224B
 10
86.5951
 20
51.6966
 30
0.000000
  70
    32
  0
VERTEX
  8
0
  5
224C
 10
86.7436
 20
51.6630
 30
0.000000
  70
    32
  0
VERTEX
  8
0
  5
224D
 10
86.8935
 20
51.6369
 30
0.000000
  70
    32
  0
VERTEX
  8
0
  5
224E
 10
87.0445
 20
51.6182
 30
0.000000
  70
    32
  0
VERTEX
  8
0
  5
224F
 10
87.1962
 20
51.6069
 30
0.000000
  70
    32
  0
VERTEX
  8
0
  5
2250
 10
87.3484
 20
51.6032
 30
0.000000
  70
    32
  0
VERTEX
  8
0
  5
2251
 10
87.5005
 20
51.6069
 30
0.000000
  70
    32
  0
VERTEX
  8
0
  5
2252
 10
87.6522
 20
51.6182
 30
0.000000
  70
    32
  0
VERTEX
  8
0
  5
2253
 10
87.8032
 20
51.6369
 30
0.000000
  70
    32
  0
VERTEX
  8
0
  5
2254
 10
87.9531
 20
51.6630
 30
0.000000
  70
    32
  0
VERTEX
  8
0
  5
2255
 10
88.1016
 20
51.6966
 30
0.000000
  70
    32
  0
VERTEX
  8
0
  5
2256
 10
88.2482
 20
51.7374
 30
0.000000
  70
    32
  0
VERTEX
  8
0
  5
2257
 10
88.3927
 20
51.7854
 30
0.000000
  70
    32
  0
VERTEX
  8
0
  5
2258
 10
88.5347
 20
51.8404
 30
0.000000
  70
    32
  0
VERTEX
  8
0
  5
2259
 10
88.6738
 20
51.9024
 30
0.000000
  70
    32
  0
VERTEX
  8
0
  5
225A
 10
88.8097
 20
51.9712
 30
0.000000
  70
    32
  0
VERTEX
  8
0
  5
225B
 10
88.9421
 20
52.0466
 30
0.000000
  70
    32
  0
VERTEX
  8
0
  5
225C
 10
89.0706
 20
52.1285
 30
0.000000
  70
    32
  0
VERTEX
  8
0
  5
225D
 10
89.1950
 20
52.2166
 30
0.000000
  70
    32
  0
VERTEX
  8
0
  5
225E
 10
89.3150
 20
52.3107
 30
0.000000
  70
    32
  0
VERTEX
  8
0
  5
225F
 10
89.4302
 20
52.4106
 30
0.000000
  70
    32
  0
VERTEX
  8
0
  5
2260
 10
89.5404
 20
52.5161
 30
0.000000
  70
    32
  0
VERTEX
  8
0
  5
2261
 10
89.6453
 20
52.6269
 30
0.000000
  70
    32
  0
VERTEX
  8
0
  5
2262
 10
89.7447
 20
52.7428
 30
0.000000
  70
    32
  0
VERTEX
  8
0
  5
2263
 10
89.8383
 20
52.8634
 30
0.000000
  70
    32
  0
VERTEX
  8
0
  5
2264
 10
89.9259
 20
52.9885
 30
0.000000
  70
    32
  0
VERTEX
  8
0
  5
2265
 10
90.0073
 20
53.1177
 30
0.000000
  70
    32
  0
VERTEX
  8
0
  5
2266
 10
90.0823
 20
53.2508
 30
0.000000
  70
    32
  0
VERTEX
  8
0
  5
2267
 10
90.1507
 20
53.3875
 30
0.000000
  70
    32
  0
VERTEX
  8
0
  5
2268
 10
90.2124
 20
53.5274
 30
0.000000
  70
    32
  0
VERTEX
  8
0
  5
2269
 10
90.2671
 20
53.6701
 30
0.000000
  70
    32
  0
VERTEX
  8
0
  5
226A
 10
90.3149
 20
53.8154
 30
0.000000
  70
    32
  0
VERTEX
  8
0
  5
226B
 10
90.3554
 20
53.9628
 30
0.000000
  70
    32
  0
VERTEX
  8
0
  5
226C
 10
90.3888
 20
54.1121
 30
0.000000
  70
    32
  0
VERTEX
  8
0
  5
226D
 10
90.4148
 20
54.2628
 30
0.000000
  70
    32
  0
VERTEX
  8
0
  5
226E
 10
90.4334
 20
54.4147
 30
0.000000
  70
    32
  0
VERTEX
  8
0
  5
226F
 10
90.4446
 20
54.5673
 30
0.000000
  70
    32
  0
VERTEX
  8
0
  5
2270
 10
90.4483
 20
54.7202
 30
0.000000
  70
    32
  0
VERTEX
  8
0
  5
2271
 10
90.4446
 20
54.8732
 30
0.000000
  70
    32
  0
VERTEX
  8
0
  5
2272
 10
90.4334
 20
55.0257
 30
0.000000
  70
    32
  0
VERTEX
  8
0
  5
2273
 10
90.4148
 20
55.1776
 30
0.000000
  70
    32
  0
VERTEX
  8
0
  5
2274
 10
90.3888
 20
55.3283
 30
0.000000
  70
    32
  0
VERTEX
  8
0
  5
2275
 10
90.3554
 20
55.4776
 30
0.000000
  70
    32
  0
VERTEX
  8
0
  5
2276
 10
90.3149
 20
55.6250
 30
0.000000
  70
    32
  0
VERTEX
  8
0
  5
2277
 10
90.2671
 20
55.7703
 30
0.000000
  70
    32
  0
VERTEX
  8
0
  5
2278
 10
90.2124
 20
55.9131
 30
0.000000
  70
    32
  0
VERTEX
  8
0
  5
2279
 10
90.1507
 20
56.0529
 30
0.000000
  70
    32
  0
VERTEX
  8
0
  5
227A
 10
90.0823
 20
56.1896
 30
0.000000
  70
    32
  0
VERTEX
  8
0
  5
227B
 10
90.0073
 20
56.3227
 30
0.000000
  70
    32
  0
VERTEX
  8
0
  5
227C
 10
89.9259
 20
56.4520
 30
0.000000
  70
    32
  0
VERTEX
  8
0
  5
227D
 10
89.8383
 20
56.5770
 30
0.000000
  70
    32
  0
VERTEX
  8
0
  5
227E
 10
89.7447
 20
56.6977
 30
0.000000
  70
    32
  0
VERTEX
  8
0
  5
227F
 10
89.6453
 20
56.8135
 30
0.000000
  70
    32
  0
VERTEX
  8
0
  5
2280
 10
89.5404
 20
56.9243
 30
0.000000
  70
    32
  0
VERTEX
  8
0
  5
2281
 10
89.4302
 20
57.0298
 30
0.000000
  70
    32
  0
VERTEX
  8
0
  5
2282
 10
89.3150
 20
57.1297
 30
0.000000
  70
    32
  0
VERTEX
  8
0
  5
2283
 10
89.1950
 20
57.2239
 30
0.000000
  70
    32
  0
VERTEX
  8
0
  5
2284
 10
89.0706
 20
57.3119
 30
0.000000
  70
    32
  0
VERTEX
  8
0
  5
2285
 10
88.9421
 20
57.3938
 30
0.000000
  70
    32
  0
VERTEX
  8
0
  5
2286
 10
88.8097
 20
57.4692
 30
0.000000
  70
    32
  0
VERTEX
  8
0
  5
2287
 10
88.6738
 20
57.5380
 30
0.000000
  70
    32
  0
VERTEX
  8
0
  5
2288
 10
88.5347
 20
57.6000
 30
0.000000
  70
    32
  0
VERTEX
  8
0
  5
2289
 10
88.3927
 20
57.6551
 30
0.000000
  70
    32
  0
VERTEX
  8
0
  5
228A
 10
88.2482
 20
57.7030
 30
0.000000
  70
    32
  0
VERTEX
  8
0
  5
228B
 10
88.1016
 20
57.7439
 30
0.000000
  70
    32
  0
VERTEX
  8
0
  5
228C
 10
87.9531
 20
57.7774
 30
0.000000
  70
    32
  0
VERTEX
  8
0
  5
228D
 10
87.8032
 20
57.8035
 30
0.000000
  70
    32
  0
VERTEX
  8
0
  5
228E
 10
87.6522
 20
57.8223
 30
0.000000
  70
    32
  0
VERTEX
  8
0
  5
228F
 10
87.5005
 20
57.8335
 30
0.000000
  70
    32
  0
VERTEX
  8
0
  5
2290
 10
87.3484
 20
57.8373
 30
0.000000
  70
    32
  0
SEQEND
  8
0
  5
2291
  0
POLYLINE
  5
19DE
  8
0
 66
     1
 10
0.0
 20
0.0
 30
0.0
  0
VERTEX
  5
2062
  8
0
 10
67.766633854293048
 20
59.599839042084071
 30
0.0
  0
VERTEX
  5
2063
  8
0
 10
67.816474853012977
 20
59.579578873342783
 30
0.0
  0
VERTEX
  5
2064
  8
0
 10
67.916304744914271
 20
59.539424499547202
 30
0.0
  0
VERTEX
  5
2065
  8
0
 10
68.01632983880836
 20
59.499758876604758
 30
0.0
  0
VERTEX
  5
2066
  8
0
 10
68.066414838924857
 20
59.480109643689509
 30
0.0
  0
SEQEND
  5
2067
  8
0
  0
POLYLINE
  5
19DF
  8
0
 66
     1
 10
0.0
 20
0.0
 30
0.0
  0
VERTEX
  5
2068
  8
0
 10
65.878108108517893
 20
59.970209412454452
 30
0.0
  0
VERTEX
  5
2069
  8
0
 10
65.931901043079336
 20
59.969920036099708
 30
0.0
  0
VERTEX
  5
206A
  8
0
 10
66.039462006677525
 20
59.967605226230731
 30
0.0
  0
VERTEX
  5
206B
  8
0
 10
66.146948265233021
 20
59.96297667822374
 30
0.0
  0
VERTEX
  5
206C
  8
0
 10
66.200647826597674
 20
59.959795380273953
 30
0.0
  0
VERTEX
  5
206D
  8
0
 10
66.254310053815175
 20
59.956036535044497
 30
0.0
  0
VERTEX
  5
206E
  8
0
 10
66.361497665121647
 20
59.94678800990134
 30
0.0
  0
VERTEX
  5
206F
  8
0
 10
66.468461472492152
 20
59.935235384757547
 30
0.0
  0
VERTEX
  5
2070
  8
0
 10
66.575151952885165
 20
59.921384008348817
 30
0.0
  0
VERTEX
  5
2071
  8
0
 10
66.68151970980648
 20
59.905240293706882
 30
0.0
  0
VERTEX
  5
2072
  8
0
 10
66.787515496179125
 20
59.886811715190262
 30
0.0
  0
VERTEX
  5
2073
  8
0
 10
66.840358557167292
 20
59.876743227081029
 30
0.0
  0
VERTEX
  5
2074
  8
0
 10
66.893090237144577
 20
59.866106805023911
 30
0.0
  0
VERTEX
  5
2075
  8
0
 10
66.998195052783274
 20
59.843135149348697
 30
0.0
  0
VERTEX
  5
2076
  8
0
 10
67.102781280746044
 20
59.817907383783179
 30
0.0
  0
VERTEX
  5
2077
  8
0
 10
67.206800498783878
 20
59.790435188499529
 30
0.0
  0
VERTEX
  5
2078
  8
0
 10
67.310204547167075
 20
59.760731282815598
 30
0.0
  0
VERTEX
  5
2079
  8
0
 10
67.412945550982442
 20
59.728809419306131
 30
0.0
  0
VERTEX
  5
207A
  8
0
 10
67.464052533604104
 20
59.712021332020427
 30
0.0
  0
VERTEX
  5
207B
  8
0
 10
67.514975942299117
 20
59.694684377435479
 30
0.0
  0
VERTEX
  5
207C
  8
0
 10
67.616248482191764
 20
59.658371956714731
 30
0.0
  0
VERTEX
  5
207D
  8
0
 10
67.716716282611742
 20
59.619888969386878
 30
0.0
  0
VERTEX
  5
207E
  8
0
 10
67.766633854293048
 20
59.599839042084071
 30
0.0
  0
SEQEND
  5
207F
  8
0
  0
POLYLINE
  5
19F4
  8
0
 66
     1
 10
0.0
 20
0.0
 30
0.0
  0
VERTEX
  5
2080
  8
0
 10
84.385660417113954
 20
59.599839042084071
 30
0.0
  0
VERTEX
  5
2081
  8
0
 10
84.435577988795217
 20
59.619888969386878
 30
0.0
  0
VERTEX
  5
2082
  8
0
 10
84.536045789215223
 20
59.658371956714731
 30
0.0
  0
VERTEX
  5
2083
  8
0
 10
84.637318329107856
 20
59.694684377435479
 30
0.0
  0
VERTEX
  5
2084
  8
0
 10
84.688241737802912
 20
59.712021332020427
 30
0.0
  0
VERTEX
  5
2085
  8
0
 10
84.739348720424545
 20
59.728809419306131
 30
0.0
  0
VERTEX
  5
2086
  8
0
 10
84.842089724239941
 20
59.760731282815598
 30
0.0
  0
VERTEX
  5
2087
  8
0
 10
84.945493772623067
 20
59.790435188499529
 30
0.0
  0
VERTEX
  5
2088
  8
0
 10
85.049512990660958
 20
59.817907383783179
 30
0.0
  0
VERTEX
  5
2089
  8
0
 10
85.154099218623713
 20
59.843135149348697
 30
0.0
  0
VERTEX
  5
208A
  8
0
 10
85.259204034262439
 20
59.866106805023911
 30
0.0
  0
VERTEX
  5
208B
  8
0
 10
85.311935714239667
 20
59.876743227081029
 30
0.0
  0
VERTEX
  5
208C
  8
0
 10
85.364778775227819
 20
59.886811715190262
 30
0.0
  0
VERTEX
  5
208D
  8
0
 10
85.470774561600535
 20
59.905240293706882
 30
0.0
  0
VERTEX
  5
208E
  8
0
 10
85.577142318521794
 20
59.921384008348817
 30
0.0
  0
VERTEX
  5
208F
  8
0
 10
85.683832798914807
 20
59.935235384757547
 30
0.0
  0
VERTEX
  5
2090
  8
0
 10
85.790796606285355
 20
59.94678800990134
 30
0.0
  0
VERTEX
  5
2091
  8
0
 10
85.897984217591784
 20
59.956036535044497
 30
0.0
  0
VERTEX
  5
2092
  8
0
 10
85.951646444809285
 20
59.959795380273953
 30
0.0
  0
VERTEX
  5
2093
  8
0
 10
86.005346006173966
 20
59.96297667822374
 30
0.0
  0
VERTEX
  5
2094
  8
0
 10
86.112832264729434
 20
59.967605226230731
 30
0.0
  0
VERTEX
  5
2095
  8
0
 10
86.220393228327666
 20
59.969920036099708
 30
0.0
  0
VERTEX
  5
2096
  8
0
 10
86.274186162889066
 20
59.970209412454452
 30
0.0
  0
SEQEND
  5
2097
  8
0
  0
POLYLINE
  5
19F5
  8
0
 66
     1
 10
0.0
 20
0.0
 30
0.0
  0
VERTEX
  5
2098
  8
0
 10
84.085879432482116
 20
59.480109643689509
 30
0.0
  0
VERTEX
  5
2099
  8
0
 10
84.135964432598655
 20
59.499758876604758
 30
0.0
  0
VERTEX
  5
209A
  8
0
 10
84.235989526492745
 20
59.539424499547202
 30
0.0
  0
VERTEX
  5
209B
  8
0
 10
84.33581941839401
 20
59.579578873342783
 30
0.0
  0
VERTEX
  5
209C
  8
0
 10
84.385660417113954
 20
59.599839042084071
 30
0.0
  0
SEQEND
  5
209D
  8
0
  0
POLYLINE
  5
19F8
  8
0
 66
     1
 10
0.0
 20
0.0
 30
0.0
  0
VERTEX
  5
209E
  8
0
 10
80.903862596297699
 20
58.50644545010293
 30
0.0
  0
VERTEX
  5
209F
  8
0
 10
80.964362791399878
 20
58.520143032524423
 30
0.0
  0
VERTEX
  5
20A0
  8
0
 10
81.094162638740897
 20
58.550136573846359
 30
0.0
  0
VERTEX
  5
20A1
  8
0
 10
81.235072240117503
 20
58.583636714449611
 30
0.0
  0
VERTEX
  5
20A2
  8
0
 10
81.309409799999955
 20
58.60170544314299
 30
0.0
  0
VERTEX
  5
20A3
  8
0
 10
81.386159861478291
 20
58.620648179208708
 30
0.0
  0
VERTEX
  5
20A4
  8
0
 10
81.546282776498515
 20
58.661112386270908
 30
0.0
  0
VERTEX
  5
20A5
  8
0
 10
81.714108781544596
 20
58.704899904243071
 30
0.0
  0
VERTEX
  5
20A6
  8
0
 10
81.888251638042945
 20
58.751834327309851
 30
0.0
  0
VERTEX
  5
20A7
  8
0
 10
82.067085945137933
 20
58.80163241300518
 30
0.0
  0
VERTEX
  5
20A8
  8
0
 10
82.248832184004186
 20
58.853913352432834
 30
0.0
  0
VERTEX
  5
20A9
  8
0
 10
82.340214126244177
 20
58.880840888527089
 30
0.0
  0
VERTEX
  5
20AA
  8
0
 10
82.431608178333406
 20
58.908202980596812
 30
0.0
  0
VERTEX
  5
20AB
  8
0
 10
82.613435030372557
 20
58.963927804749268
 30
0.0
  0
VERTEX
  5
20AC
  8
0
 10
82.798362381401432
 20
59.022373672442889
 30
0.0
  0
VERTEX
  5
20AD
  8
0
 10
82.989607454085544
 20
59.084710461599663
 30
0.0
  0
VERTEX
  5
20AE
  8
0
 10
83.185647571657569
 20
59.150627198798773
 30
0.0
  0
VERTEX
  5
20AF
  8
0
 10
83.384946412197962
 20
59.219752715410081
 30
0.0
  0
VERTEX
  5
20B0
  8
0
 10
83.485329637803133
 20
59.255383450101313
 30
0.0
  0
VERTEX
  5
20B1
  8
0
 10
83.585938695520497
 20
59.29164488954568
 30
0.0
  0
VERTEX
  5
20B2
  8
0
 10
83.787074337253998
 20
59.365802075858042
 30
0.0
  0
VERTEX
  5
20B3
  8
0
 10
83.9869164764076
 20
59.441699275618511
 30
0.0
  0
VERTEX
  5
20B4
  8
0
 10
84.085879432482159
 20
59.480109643689509
 30
0.0
  0
SEQEND
  5
20B5
  8
0
  0
POLYLINE
  5
19FC
  8
0
 66
     1
 10
0.0
 20
0.0
 30
0.0
  0
VERTEX
  5
20B6
  8
0
 10
68.066414838924857
 20
59.480109643689509
 30
0.0
  0
VERTEX
  5
20B7
  8
0
 10
68.165377799054511
 20
59.441699274055857
 30
0.0
  0
VERTEX
  5
20B8
  8
0
 10
68.365219946443673
 20
59.365802071258393
 30
0.0
  0
VERTEX
  5
20B9
  8
0
 10
68.566355596429787
 20
59.291644882085009
 30
0.0
  0
VERTEX
  5
20BA
  8
0
 10
68.666964658224515
 20
59.255383441295081
 30
0.0
  0
VERTEX
  5
20BB
  8
0
 10
68.767347887840444
 20
59.219752705325412
 30
0.0
  0
VERTEX
  5
20BC
  8
0
 10
68.966646736105332
 20
59.150627186383879
 30
0.0
  0
VERTEX
  5
20BD
  8
0
 10
69.162686860852091
 20
59.084710447190261
 30
0.0
  0
VERTEX
  5
20BE
  8
0
 10
69.353931939975155
 20
59.022373656407503
 30
0.0
  0
VERTEX
  5
20BF
  8
0
 10
69.538859296529722
 20
58.963927787478767
 30
0.0
  0
VERTEX
  5
20C0
  8
0
 10
69.720686156439228
 20
58.908202961476221
 30
0.0
  0
VERTEX
  5
20C1
  8
0
 10
69.812080212339424
 20
58.880840868573962
 30
0.0
  0
VERTEX
  5
20C2
  8
0
 10
69.903462158205215
 20
58.853913331735967
 30
0.0
  0
VERTEX
  5
20C3
  8
0
 10
70.08520840367089
 20
58.801632391099631
 30
0.0
  0
VERTEX
  5
20C4
  8
0
 10
70.264042716345443
 20
58.751834304579702
 30
0.0
  0
VERTEX
  5
20C5
  8
0
 10
70.438185577231081
 20
58.70489988107947
 30
0.0
  0
VERTEX
  5
20C6
  8
0
 10
70.606011585394242
 20
58.661112363042839
 30
0.0
  0
VERTEX
  5
20C7
  8
0
 10
70.766134502150635
 20
58.620648156271493
 30
0.0
  0
VERTEX
  5
20C8
  8
0
 10
70.842884563943983
 20
58.601705420480172
 30
0.0
  0
VERTEX
  5
20C9
  8
0
 10
70.91722212376925
 20
58.583636692141383
 30
0.0
  0
VERTEX
  5
20CA
  8
0
 10
71.058131723921065
 20
58.550136552468317
 30
0.0
  0
VERTEX
  5
20CB
  8
0
 10
71.187931568572878
 20
58.520143012341343
 30
0.0
  0
VERTEX
  5
20CC
  8
0
 10
71.248431761803374
 20
58.506445430603371
 30
0.0
  0
SEQEND
  5
20CD
  8
0
  0
LINE
  5
19FD
  8
0
 10
82.076147135703479
 20
43.67020941245444
 30
0.0
 11
70.076147135703465
 21
43.67020941245444
 31
0.0
  0
POLYLINE
  5
19FF
  8
0
 66
     1
 10
0.0
 20
0.0
 30
0.0
  0
VERTEX
  5
20CE
  8
0
 10
71.248431761803374
 20
58.506445430603371
 30
0.0
  0
VERTEX
  5
20CF
  8
0
 10
71.27939786151785
 20
58.499503872100192
 30
0.0
  0
VERTEX
  5
20D0
  8
0
 10
71.342235747035744
 20
58.485561801561637
 30
0.0
  0
VERTEX
  5
20D1
  8
0
 10
71.406238854374635
 20
58.47155930032006
 30
0.0
  0
VERTEX
  5
20D2
  8
0
 10
71.438660970422234
 20
58.464542204324758
 30
0.0
  0
VERTEX
  5
20D3
  8
0
 10
71.471354451421007
 20
58.457518173681493
 30
0.0
  0
VERTEX
  5
20D4
  8
0
 10
71.537527708299137
 20
58.443460152680288
 30
0.0
  0
VERTEX
  5
20D5
  8
0
 10
71.6047017907959
 20
58.429406815348088
 30
0.0
  0
VERTEX
  5
20D6
  8
0
 10
71.672817965724221
 20
58.415379507748419
 30
0.0
  0
VERTEX
  5
20D7
  8
0
 10
71.741815718521138
 20
58.401399265252863
 30
0.0
  0
VERTEX
  5
20D8
  8
0
 10
71.811632883600112
 20
58.387486734497273
 30
0.0
  0
VERTEX
  5
20D9
  8
0
 10
71.846844449424651
 20
58.380559142294111
 30
0.0
  0
VERTEX
  5
20DA
  8
0
 10
71.882414201934182
 20
58.3736216245603
 30
0.0
  0
VERTEX
  5
20DB
  8
0
 10
71.954742486529653
 20
58.359702159782941
 30
0.0
  0
VERTEX
  5
20DC
  8
0
 10
72.028635903865109
 20
58.345740567459849
 30
0.0
  0
VERTEX
  5
20DD
  8
0
 10
72.104068700272194
 20
58.331757690975351
 30
0.0
  0
VERTEX
  5
20DE
  8
0
 10
72.181013108187074
 20
58.31777465541883
 30
0.0
  0
VERTEX
  5
20DF
  8
0
 10
72.259439485817424
 20
58.303812787373928
 30
0.0
  0
VERTEX
  5
20E0
  8
0
 10
72.299198674271594
 20
58.296846491124327
 30
0.0
  0
VERTEX
  5
20E1
  8
0
 10
72.339316466475111
 20
58.28989353492365
 30
0.0
  0
VERTEX
  5
20E2
  8
0
 10
72.420611118289116
 20
58.276038388297152
 30
0.0
  0
VERTEX
  5
20E3
  8
0
 10
72.503289115021829
 20
58.262268801607668
 30
0.0
  0
VERTEX
  5
20E4
  8
0
 10
72.545135804203852
 20
58.25542276886015
 30
0.0
  0
VERTEX
  5
20E5
  8
0
 10
72.587314918707818
 20
58.248606116158541
 30
0.0
  0
VERTEX
  5
20E6
  8
0
 10
72.672651974808787
 20
58.235071485821301
 30
0.0
  0
VERTEX
  5
20E7
  8
0
 10
72.759262918588206
 20
58.22168580531617
 30
0.0
  0
VERTEX
  5
20E8
  8
0
 10
72.803034213092246
 20
58.215055269221281
 30
0.0
  0
VERTEX
  5
20E9
  8
0
 10
72.84710954001747
 20
58.208469679481667
 30
0.0
  0
VERTEX
  5
20EA
  8
0
 10
72.936152041727894
 20
58.195443493854803
 30
0.0
  0
VERTEX
  5
20EB
  8
0
 10
73.026348813041693
 20
58.182627394454173
 30
0.0
  0
VERTEX
  5
20EC
  8
0
 10
73.117656566054052
 20
58.170041212431428
 30
0.0
  0
VERTEX
  5
20ED
  8
0
 10
73.210030487105996
 20
58.157704389953423
 30
0.0
  0
VERTEX
  5
20EE
  8
0
 10
73.303424396831531
 20
58.145635908870432
 30
0.0
  0
VERTEX
  5
20EF
  8
0
 10
73.350489084404444
 20
58.13970808547186
 30
0.0
  0
VERTEX
  5
20F0
  8
0
 10
73.39779091937271
 20
58.133854222578051
 30
0.0
  0
VERTEX
  5
20F1
  8
0
 10
73.493081661373537
 20
58.122377191492021
 30
0.0
  0
VERTEX
  5
20F2
  8
0
 10
73.589247401364901
 20
58.111222022565002
 30
0.0
  0
VERTEX
  5
20F3
  8
0
 10
73.686238290137766
 20
58.100405213287829
 30
0.0
  0
VERTEX
  5
20F4
  8
0
 10
73.784004191206293
 20
58.08994248716327
 30
0.0
  0
VERTEX
  5
20F5
  8
0
 10
73.882511493350535
 20
58.079847088623481
 30
0.0
  0
VERTEX
  5
20F6
  8
0
 10
73.932031661681194
 20
58.074941228802132
 30
0.0
  0
VERTEX
  5
20F7
  8
0
 10
73.981720821859255
 20
58.070132279807709
 30
0.0
  0
VERTEX
  5
20F8
  8
0
 10
74.081579482508346
 20
58.06081188817673
 30
0.0
  0
VERTEX
  5
20F9
  8
0
 10
74.182033333862421
 20
58.051898964208767
 30
0.0
  0
VERTEX
  5
20FA
  8
0
 10
74.283026970627247
 20
58.043405722139781
 30
0.0
  0
VERTEX
  5
20FB
  8
0
 10
74.384503914525766
 20
58.035343485983802
 30
0.0
  0
VERTEX
  5
20FC
  8
0
 10
74.486406812941993
 20
58.027722641211177
 30
0.0
  0
VERTEX
  5
20FD
  8
0
 10
74.537499884022225
 20
58.024080718880882
 30
0.0
  0
VERTEX
  5
20FE
  8
0
 10
74.588677645622369
 20
58.020552592447487
 30
0.0
  0
VERTEX
  5
20FF
  8
0
 10
74.691257939761144
 20
58.013841727544403
 30
0.0
  0
VERTEX
  5
2100
  8
0
 10
74.794088993820537
 20
58.007597388361503
 30
0.0
  0
VERTEX
  5
2101
  8
0
 10
74.897112110447836
 20
58.00182584858657
 30
0.0
  0
VERTEX
  5
2102
  8
0
 10
75.000268812521142
 20
57.99653230019792
 30
0.0
  0
VERTEX
  5
2103
  8
0
 10
75.103500402304164
 20
57.991720876342427
 30
0.0
  0
VERTEX
  5
2104
  8
0
 10
75.155125612796382
 20
57.989496972809953
 30
0.0
  0
VERTEX
  5
2105
  8
0
 10
75.206746987941244
 20
57.987394684056468
 30
0.0
  0
VERTEX
  5
2106
  8
0
 10
75.309947494567353
 20
57.983555776443282
 30
0.0
  0
VERTEX
  5
2107
  8
0
 10
75.413039896282385
 20
57.980205119843973
 30
0.0
  0
VERTEX
  5
2108
  8
0
 10
75.515961450660882
 20
57.977342568900987
 30
0.0
  0
VERTEX
  5
2109
  8
0
 10
75.618648935264844
 20
57.974966849650222
 30
0.0
  0
VERTEX
  5
210A
  8
0
 10
75.721038886105703
 20
57.97307555071994
 30
0.0
  0
VERTEX
  5
210B
  8
0
 10
75.772102446962634
 20
57.972310493983898
 30
0.0
  0
VERTEX
  5
210C
  8
0
 10
75.823067838157499
 20
57.971665122680342
 30
0.0
  0
VERTEX
  5
210D
  8
0
 10
75.924672568176931
 20
57.970730885557671
 30
0.0
  0
VERTEX
  5
210E
  8
0
 10
76.025790340233698
 20
57.970267044503807
 30
0.0
  0
VERTEX
  5
210F
  8
0
 10
76.076147206445853
 20
57.970209412454452
 30
0.0
  0
VERTEX
  5
2110
  8
0
 10
76.126504073055003
 20
57.97026704482856
 30
0.0
  0
VERTEX
  5
2111
  8
0
 10
76.227621845840645
 20
57.970730886539577
 30
0.0
  0
VERTEX
  5
2112
  8
0
 10
76.329226576501114
 20
57.971665124328368
 30
0.0
  0
VERTEX
  5
2113
  8
0
 10
76.380191967983365
 20
57.972310495967811
 30
0.0
  0
VERTEX
  5
2114
  8
0
 10
76.431255529105314
 20
57.973075553041433
 30
0.0
  0
VERTEX
  5
2115
  8
0
 10
76.533645480409461
 20
57.974966852650951
 30
0.0
  0
VERTEX
  5
2116
  8
0
 10
76.636332965387325
 20
57.977342572585179
 30
0.0
  0
VERTEX
  5
2117
  8
0
 10
76.739254520050537
 20
57.980205124214208
 30
0.0
  0
VERTEX
  5
2118
  8
0
 10
76.842346921961663
 20
57.983555781500549
 30
0.0
  0
VERTEX
  5
2119
  8
0
 10
76.945547428696045
 20
57.987394689800212
 30
0.0
  0
VERTEX
  5
211A
  8
0
 10
76.997168803862451
 20
57.98949697889622
 30
0.0
  0
VERTEX
  5
211B
  8
0
 10
77.048794014354712
 20
57.99172088277048
 30
0.0
  0
VERTEX
  5
211C
  8
0
 10
77.152025604074197
 20
57.996532307306651
 30
0.0
  0
VERTEX
  5
211D
  8
0
 10
77.255182306000677
 20
58.0018258563709
 30
0.0
  0
VERTEX
  5
211E
  8
0
 10
77.358205422398953
 20
58.00759739681488
 30
0.0
  0
VERTEX
  5
211F
  8
0
 10
77.461036476146873
 20
58.013841736658762
 30
0.0
  0
VERTEX
  5
2120
  8
0
 10
77.56361676989161
 20
58.020552602213243
 30
0.0
  0
VERTEX
  5
2121
  8
0
 10
77.614794531263783
 20
58.024080728968258
 30
0.0
  0
VERTEX
  5
2122
  8
0
 10
77.665887602095381
 20
58.027722651617253
 30
0.0
  0
VERTEX
  5
2123
  8
0
 10
77.767790499953094
 20
58.035343497017671
 30
0.0
  0
VERTEX
  5
2124
  8
0
 10
77.869267443211868
 20
58.043405733787537
 30
0.0
  0
VERTEX
  5
2125
  8
0
 10
77.970261079256773
 20
58.051898976455121
 30
0.0
  0
VERTEX
  5
2126
  8
0
 10
78.070714929812226
 20
58.06081190100506
 30
0.0
  0
VERTEX
  5
2127
  8
0
 10
78.170573589585615
 20
58.070132293200302
 30
0.0
  0
VERTEX
  5
2128
  8
0
 10
78.22026274929749
 20
58.074941242469819
 30
0.0
  0
VERTEX
  5
2129
  8
0
 10
78.269782917143431
 20
58.079847102561402
 30
0.0
  0
VERTEX
  5
212A
  8
0
 10
78.368290218263724
 20
58.089942501626538
 30
0.0
  0
VERTEX
  5
212B
  8
0
 10
78.466056118273798
 20
58.100405228259532
 30
0.0
  0
VERTEX
  5
212C
  8
0
 10
78.563047005921135
 20
58.111222038023968
 30
0.0
  0
VERTEX
  5
212D
  8
0
 10
78.659212744716456
 20
58.12237720741556
 30
0.0
  0
VERTEX
  5
212E
  8
0
 10
78.754503485451494
 20
58.133854238942448
 30
0.0
  0
VERTEX
  5
212F
  8
0
 10
78.801805319761058
 20
58.139708102047493
 30
0.0
  0
VERTEX
  5
2130
  8
0
 10
78.848870006658217
 20
58.145635925651
 30
0.0
  0
VERTEX
  5
2131
  8
0
 10
78.942263914981936
 20
58.157704407124619
 30
0.0
  0
VERTEX
  5
2132
  8
0
 10
79.034637834566155
 20
58.170041229966891
 30
0.0
  0
VERTEX
  5
2133
  8
0
 10
79.125945586046754
 20
58.182627412326852
 30
0.0
  0
VERTEX
  5
2134
  8
0
 10
79.216142355766806
 20
58.195443512037073
 30
0.0
  0
VERTEX
  5
2135
  8
0
 10
79.305184855823654
 20
58.208469697945368
 30
0.0
  0
VERTEX
  5
2136
  8
0
 10
79.349260181900533
 20
58.215055287815041
 30
0.0
  0
VERTEX
  5
2137
  8
0
 10
79.393031475542159
 20
58.221685824032797
 30
0.0
  0
VERTEX
  5
2138
  8
0
 10
79.47964241755605
 20
58.235071504762047
 30
0.0
  0
VERTEX
  5
2139
  8
0
 10
79.564979471838456
 20
58.248606135294203
 30
0.0
  0
VERTEX
  5
213A
  8
0
 10
79.607158585413572
 20
58.255422788082178
 30
0.0
  0
VERTEX
  5
213B
  8
0
 10
79.649005273653842
 20
58.262268820908659
 30
0.0
  0
VERTEX
  5
213C
  8
0
 10
79.731683268465176
 20
58.27603840773353
 30
0.0
  0
VERTEX
  5
213D
  8
0
 10
79.812977918308604
 20
58.289893554465337
 30
0.0
  0
VERTEX
  5
213E
  8
0
 10
79.853095709509006
 20
58.29684651070734
 30
0.0
  0
VERTEX
  5
213F
  8
0
 10
79.892854896948421
 20
58.303812806990678
 30
0.0
  0
VERTEX
  5
2140
  8
0
 10
79.971281272515597
 20
58.317774675080429
 30
0.0
  0
VERTEX
  5
2141
  8
0
 10
80.048225678324386
 20
58.331757710651701
 30
0.0
  0
VERTEX
  5
2142
  8
0
 10
80.123658472584935
 20
58.345740587121057
 30
0.0
  0
VERTEX
  5
2143
  8
0
 10
80.197551887736154
 20
58.359702179399463
 30
0.0
  0
VERTEX
  5
2144
  8
0
 10
80.269880170112657
 20
58.373621644103039
 30
0.0
  0
VERTEX
  5
2145
  8
0
 10
80.305449921500639
 20
58.380559161789229
 30
0.0
  0
VERTEX
  5
2146
  8
0
 10
80.340661486572998
 20
58.387486754012407
 30
0.0
  0
VERTEX
  5
2147
  8
0
 10
80.410478650543496
 20
58.401399284877542
 30
0.0
  0
VERTEX
  5
2148
  8
0
 10
80.479476402143348
 20
58.415379527453879
 30
0.0
  0
VERTEX
  5
2149
  8
0
 10
80.547592575788414
 20
58.429406835105013
 30
0.0
  0
VERTEX
  5
214A
  8
0
 10
80.614766656918221
 20
58.443460172458927
 30
0.0
  0
VERTEX
  5
214B
  8
0
 10
80.680939912348265
 20
58.457518193451662
 30
0.0
  0
VERTEX
  5
214C
  8
0
 10
80.713633392593351
 20
58.464542224079267
 30
0.0
  0
VERTEX
  5
214D
  8
0
 10
80.746055507868036
 20
58.47155932005127
 30
0.0
  0
VERTEX
  5
214E
  8
0
 10
80.81005861360461
 20
58.485561821223271
 30
0.0
  0
VERTEX
  5
214F
  8
0
 10
80.872896497447314
 20
58.499503891661462
 30
0.0
  0
VERTEX
  5
2150
  8
0
 10
80.903862596297699
 20
58.50644545010293
 30
0.0
  0
SEQEND
  5
2151
  8
0
  0
LINE
  5
1A04
  8
0
 10
87.076147135703479
 20
59.970209412454452
 30
0.0
 11
86.274186162889066
 21
59.970209412454452
 31
0.0
  0
LINE
  5
1A05
  8
0
 10
65.878108108517893
 20
59.970209412454452
 30
0.0
 11
65.076147135703465
 21
59.970209412454452
 31
0.0
  0
LINE
  5
1A06
  8
0
 10
81.076147135703465
 20
43.470209412454452
 30
0.0
 11
71.076147135703479
 21
43.470209412454452
 31
0.0
  0
LINE
  5
1A07
  8
0
 10
79.076147135703479
 20
28.083709412454439
 30
0.0
 11
79.076147135703479
 21
43.470209412454452
 31
0.0
  0
LINE
  5
1A08
  8
0
 10
73.076147135703479
 20
43.470209412454452
 30
0.0
 11
73.076147135703479
 21
28.083709412454439
 31
0.0
  0
LINE
  5
1A09
  8
0
 10
78.462647135703492
 20
27.470209412454452
 30
0.0
 11
79.076147135703479
 21
28.083709412454439
 31
0.0
  0
LINE
  5
1A0A
  8
0
 10
73.076147135703479
 20
28.083709412454439
 30
0.0
 11
73.689647135703495
 21
27.470209412454452
 31
0.0
  0
LINE
  5
1A0B
  8
0
 10
80.576147135703479
 20
58.435363386394201
 30
0.0
 11
80.576147135703479
 21
58.709236375508439
 31
0.0
  0
LINE
  5
1A0C
  8
0
 10
71.576147135703479
 20
58.709236375508439
 30
0.0
 11
71.576147135703479
 21
58.435363386385497
 31
0.0
  0
ARC
  5
1A0D
  8
0
 10
76.076147135703479
 20
51.310209412454491
 30
0.0
 40
8.6599999999999593
 50
58.692531574650289
 51
121.3074684253497
  0
LINE
  5
1A0E
  8
0
 10
82.076147135703479
 20
43.67020941245444
 30
0.0
 11
82.076147135703479
 21
46.970209412454452
 31
0.0
  0
LINE
  5
1A0F
  8
0
 10
70.076147135703465
 20
46.970209412454452
 30
0.0
 11
70.076147135703465
 21
43.67020941245444
 31
0.0
  0
LINE
  5
1A10
  8
0
 10
82.076147135703479
 20
46.970209412454452
 30
0.0
 11
89.267158371658553
 21
50.475827389982541
 31
0.0
  0
LINE
  5
1A11
  8
0
 10
62.885135899748441
 20
50.475827389982541
 30
0.0
 11
70.076147135703465
 21
46.970209412454452
 31
0.0
  0
ARC
  5
1A12
  8
0
 10
87.076147135703479
 20
54.970209412454452
 30
0.0
 40
4.9999999999999973
 50
295.98923358383257
 51
90.0
  0
ARC
  5
1A13
  8
0
 10
65.076147135703465
 20
54.970209412454452
 30
0.0
 40
4.9999999999999956
 50
90.0
 51
244.01076641616689
  0
LINE
  5
1A14
  8
0
 10
81.076147135703465
 20
43.470209412454452
 30
0.0
 11
81.076147135703465
 21
43.67020941245444
 31
0.0
  0
LINE
  5
1A15
  8
0
 10
71.076147135703479
 20
43.67020941245444
 30
0.0
 11
71.076147135703479
 21
43.470209412454452
 31
0.0
  0
TEXT
  5
1B7E
  8
0
 62
     3
 10
0.0
 20
0.0
 30
0.0
 40
10.0
  1
CWN32AX16
  7
STANDARD1
  0
ENDSEC
  0
EOF
