  0
SECTION
  2
HEADER
  9
$ACADVER
  1
AC1009
  9
$INSBASE
 10
0.0
 20
0.0
 30
0.0
  9
$EXTMIN
 10
0.0
 20
-2.960436562073669
 30
0.0
  9
$EXTMAX
 10
127.245349197281
 20
112.7966621138121
 30
0.0
  9
$LIMMIN
 10
0.0
 20
0.0
  9
$LIMMAX
 10
420.0
 20
297.0
  9
$ORTHOMODE
 70
     1
  9
$REGENMODE
 70
     1
  9
$FILLMODE
 70
     1
  9
$QTEXTMODE
 70
     0
  9
$MIRRTEXT
 70
     1
  9
$DRAGMODE
 70
     2
  9
$LTSCALE
 40
1.0
  9
$OSMODE
 70
  3071
  9
$ATTMODE
 70
     1
  9
$TEXTSIZE
 40
2.5
  9
$TRACEWID
 40
1.0
  9
$TEXTSTYLE
  7
STANDARD
  9
$CLAYER
  8
0
  9
$CELTYPE
  6
BYLAYER
  9
$CECOLOR
 62
   256
  9
$DIMSCALE
 40
1.0
  9
$DIMASZ
 40
2.5
  9
$DIMEXO
 40
0.625
  9
$DIMDLI
 40
3.75
  9
$DIMRND
 40
0.0
  9
$DIMDLE
 40
0.0
  9
$DIMEXE
 40
1.25
  9
$DIMTP
 40
0.0
  9
$DIMTM
 40
0.0
  9
$DIMTXT
 40
2.5
  9
$DIMCEN
 40
2.5
  9
$DIMTSZ
 40
0.0
  9
$DIMTOL
 70
     0
  9
$DIMLIM
 70
     0
  9
$DIMTIH
 70
     0
  9
$DIMTOH
 70
     0
  9
$DIMSE1
 70
     0
  9
$DIMSE2
 70
     0
  9
$DIMTAD
 70
     1
  9
$DIMZIN
 70
     8
  9
$DIMBLK
  1

  9
$DIMASO
 70
     1
  9
$DIMSHO
 70
     1
  9
$DIMPOST
  1

  9
$DIMAPOST
  1

  9
$DIMALT
 70
     0
  9
$DIMALTD
 70
     3
  9
$DIMALTF
 40
0.03937007874016
  9
$DIMLFAC
 40
1.0
  9
$DIMTOFL
 70
     1
  9
$DIMTVP
 40
0.0
  9
$DIMTIX
 70
     0
  9
$DIMSOXD
 70
     0
  9
$DIMSAH
 70
     0
  9
$DIMBLK1
  1

  9
$DIMBLK2
  1

  9
$DIMSTYLE
  2
ISO-25
  9
$DIMCLRD
 70
     0
  9
$DIMCLRE
 70
     0
  9
$DIMCLRT
 70
     0
  9
$DIMTFAC
 40
1.0
  9
$DIMGAP
 40
0.625
  9
$LUNITS
 70
     2
  9
$LUPREC
 70
     4
  9
$SKETCHINC
 40
1.0
  9
$FILLETRAD
 40
10.0
  9
$AUNITS
 70
     0
  9
$AUPREC
 70
     0
  9
$MENU
  1
.
  9
$ELEVATION
 40
0.0
  9
$PELEVATION
 40
0.0
  9
$THICKNESS
 40
0.0
  9
$LIMCHECK
 70
     0
  9
$BLIPMODE
 70
     0
  9
$CHAMFERA
 40
10.0
  9
$CHAMFERB
 40
10.0
  9
$SKPOLY
 70
     0
  9
$TDCREATE
 40
2454974.2412577658
  9
$TDUPDATE
 40
2456598.5047957748
  9
$TDINDWG
 40
0.0443925116
  9
$TDUSRTIMER
 40
0.0443925116
  9
$USRTIMER
 70
     1
  9
$ANGBASE
 50
0.0
  9
$ANGDIR
 70
     0
  9
$PDMODE
 70
     0
  9
$PDSIZE
 40
0.0
  9
$PLINEWID
 40
0.0
  9
$COORDS
 70
     1
  9
$SPLFRAME
 70
     0
  9
$SPLINETYPE
 70
     6
  9
$SPLINESEGS
 70
     8
  9
$ATTDIA
 70
     0
  9
$ATTREQ
 70
     1
  9
$HANDLING
 70
     1
  9
$HANDSEED
  5
F9B
  9
$SURFTAB1
 70
     6
  9
$SURFTAB2
 70
     6
  9
$SURFTYPE
 70
     6
  9
$SURFU
 70
     6
  9
$SURFV
 70
     6
  9
$UCSNAME
  2

  9
$UCSORG
 10
0.0
 20
0.0
 30
0.0
  9
$UCSXDIR
 10
1.0
 20
0.0
 30
0.0
  9
$UCSYDIR
 10
0.0
 20
1.0
 30
0.0
  9
$PUCSNAME
  2

  9
$PUCSORG
 10
0.0
 20
0.0
 30
0.0
  9
$PUCSXDIR
 10
1.0
 20
0.0
 30
0.0
  9
$PUCSYDIR
 10
0.0
 20
1.0
 30
0.0
  9
$USERI1
 70
     0
  9
$USERI2
 70
     0
  9
$USERI3
 70
     0
  9
$USERI4
 70
     0
  9
$USERI5
 70
     0
  9
$USERR1
 40
0.0
  9
$USERR2
 40
0.0
  9
$USERR3
 40
0.0
  9
$USERR4
 40
0.0
  9
$USERR5
 40
0.0
  9
$WORLDVIEW
 70
     1
  9
$SHADEDGE
 70
     3
  9
$SHADEDIF
 70
    70
  9
$TILEMODE
 70
     1
  9
$MAXACTVP
 70
    64
  9
$PLIMCHECK
 70
     0
  9
$PEXTMIN
 10
0.0
 20
0.0
 30
0.0
  9
$PEXTMAX
 10
1000.0
 20
1000.0
 30
0.0
  9
$PLIMMIN
 10
0.0
 20
0.0
  9
$PLIMMAX
 10
100.0
 20
100.0
  9
$UNITMODE
 70
     0
  9
$VISRETAIN
 70
     1
  9
$PLINEGEN
 70
     0
  9
$PSLTSCALE
 70
     1
  0
ENDSEC
  0
SECTION
  2
TABLES
  0
TABLE
  2
VPORT
 70
     1
  0
VPORT
  2
*ACTIVE
 70
     0
 10
0.0
 20
0.0
 11
1.0
 21
1.0
 12
218.30564249092441
 22
147.0112842185321
 13
0.0
 23
0.0
 14
10.0
 24
10.0
 15
10.0
 25
10.0
 16
0.0
 26
0.0
 36
1.0
 17
0.0
 27
0.0
 37
0.0
 40
302.66781211506969
 41
1.831871345029239
 42
50.0
 43
0.0
 44
0.0
 50
0.0
 51
0.0
 71
     0
 72
   100
 73
     1
 74
     3
 75
     0
 76
     0
 77
     0
 78
     0
  0
ENDTAB
  0
TABLE
  2
LTYPE
 70
     3
  0
LTYPE
  2
CONTINUOUS
 70
     0
  3
Solid line
 72
    65
 73
     0
 40
0.0
  0
LTYPE
  2
CENTER
 70
     0
  3
____ _ ____ _ ____ _ ____ _ ____ _ ____ _ ____
 72
    65
 73
     4
 40
2.0
 49
1.25
 49
-0.25
 49
0.25
 49
-0.25
  0
LTYPE
  2
HIDDEN
 70
     0
  3
_ _ _ _ _ _ _ _ _ _ _ _ _ _ _ _ _ _ _ _ _ _ _
 72
    65
 73
     2
 40
0.375
 49
0.25
 49
-0.125
  0
ENDTAB
  0
TABLE
  2
LAYER
 70
     3
  0
LAYER
  2
0
 70
     0
 62
     7
  6
CONTINUOUS
  0
LAYER
  2
1
 70
     0
 62
     1
  6
CENTER
  0
LAYER
  2
2
 70
     0
 62
     2
  6
HIDDEN
  0
ENDTAB
  0
TABLE
  2
STYLE
 70
     2
  0
STYLE
  2
STANDARD
 70
     0
 40
0.0
 41
1.0
 50
0.0
 71
     0
 42
2.5
  3
txt
  4

  0
STYLE
  2
STANDARD1
 70
     0
 40
0.0
 41
1.0
 50
0.0
 71
     0
 42
3.0
  3
txt
  4

  0
ENDTAB
  0
TABLE
  2
VIEW
 70
     0
  0
ENDTAB
  0
TABLE
  2
UCS
 70
     0
  0
ENDTAB
  0
TABLE
  2
APPID
 70
     3
  0
APPID
  2
ACAD
 70
     0
  0
APPID
  2
ACAD_MLEADERVER
 70
     0
  0
APPID
  2
ACAD_NAV_VCDISPLAY
 70
     0
  0
ENDTAB
  0
TABLE
  2
DIMSTYLE
 70
     2
  0
DIMSTYLE
  2
ISO-25
 70
     0
  3

  4

  5

  6

  7

 40
1.0
 41
2.5
 42
0.625
 43
3.75
 44
1.25
 45
0.0
 46
0.0
 47
0.0
 48
0.0
140
2.5
141
2.5
142
0.0
143
0.03937007874016
144
1.0
145
0.0
146
1.0
147
0.625
 71
     0
 72
     0
 73
     0
 74
     0
 75
     0
 76
     0
 77
     1
 78
     8
170
     0
171
     3
172
     1
173
     0
174
     0
175
     0
176
     0
177
     0
178
     0
  0
DIMSTYLE
  2
STANDARD
 70
     0
  3

  4

  5

  6

  7

 40
1.0
 41
0.18
 42
0.0625
 43
0.38
 44
0.18
 45
0.0
 46
0.0
 47
0.0
 48
0.0
140
0.18
141
0.09
142
0.0
143
25.399999999999999
144
1.0
145
0.0
146
1.0
147
0.09
 71
     0
 72
     0
 73
     1
 74
     1
 75
     0
 76
     0
 77
     0
 78
     0
170
     0
171
     2
172
     0
173
     0
174
     0
175
     0
176
     0
177
     0
178
     0
  0
ENDTAB
  0
ENDSEC
  0
SECTION
  2
BLOCKS
  0
BLOCK
  8
0
  2
$MODEL_SPACE
 70
     0
 10
0.0
 20
0.0
 30
0.0
  3
$MODEL_SPACE
  1

  0
ENDBLK
  5
21
  8
0
  0
BLOCK
 67
     1
  8
0
  2
$PAPER_SPACE
 70
     0
 10
0.0
 20
0.0
 30
0.0
  3
$PAPER_SPACE
  1

  0
ENDBLK
  5
1D
 67
     1
  8
0
  0
ENDSEC
  0
SECTION
  2
ENTITIES
  0
LINE
  5
441
  8
0
  6
CONTINUOUS
 62
     7
 10
42.658324116103813
 20
47.246169512017239
 30
0.0
 11
42.658324116103813
 21
47.046169512017237
 31
0.0
  0
LINE
  5
442
  8
0
  6
CONTINUOUS
 62
     7
 10
54.158324116103813
 20
47.046169512017237
 30
0.0
 11
54.158324116103813
 21
47.246169512017239
 31
0.0
  0
LINE
  5
44B
  8
0
  6
CONTINUOUS
 62
     7
 10
41.658324116103813
 20
66.046169512017229
 30
0.0
 11
41.658324116103813
 21
47.246169512017239
 31
0.0
  0
LINE
  5
44C
  8
0
  6
CONTINUOUS
 62
     7
 10
55.158324116103813
 20
47.246169512017239
 30
0.0
 11
55.158324116103813
 21
66.046169512017229
 31
0.0
  0
LINE
  5
44F
  8
0
  6
CONTINUOUS
 62
     7
 10
51.557409973255147
 20
58.159730000499167
 30
0.0
 11
51.557409973255147
 21
64.332609023535781
 31
0.0
  0
LINE
  5
450
  8
0
  6
CONTINUOUS
 62
     7
 10
45.259238258952472
 20
64.332609023535298
 30
0.0
 11
45.259238258952472
 21
58.159730000498712
 31
0.0
  0
ARC
  5
453
  8
0
  6
CONTINUOUS
 62
     7
 10
62.208324116035982
 20
62.146169512012783
 30
0.0
 40
16.999999999932029
 50
183.37228668343241
 51
184.43548217541749
  0
ARC
  5
455
  8
0
  6
CONTINUOUS
 62
     7
 10
62.20832411615536
 20
60.146169512013671
 30
0.0
 40
17.000000000051681
 50
175.5645178245866
 51
176.6277133165643
  0
ARC
  5
457
  8
0
  6
CONTINUOUS
 62
     7
 10
34.608324116163367
 20
62.14616951201333
 30
0.0
 40
16.9999999999403
 50
355.56451782458328
 51
356.62771331656762
  0
ARC
  5
458
  8
0
  6
CONTINUOUS
 62
     7
 10
34.608324116065027
 20
60.146169512014552
 30
0.0
 40
17.00000000003886
 50
3.3722866834348739
 51
4.4354821754134974
  0
ARC
  5
459
  8
0
  6
CONTINUOUS
 62
     7
 10
48.408324116103607
 20
59.046169512016881
 30
0.0
 40
9.0000000000003997
 50
54.314665287347658
 51
71.843280775906081
  0
ARC
  5
45B
  8
0
  6
CONTINUOUS
 62
     7
 10
48.40832411610382
 20
59.046169512017279
 30
0.0
 40
8.9999999999999556
 50
108.15671922409371
 51
125.68533471265231
  0
LINE
  5
45D
  8
0
  6
CONTINUOUS
 62
     7
 10
53.658324116103813
 20
66.320016934760986
 30
0.0
 11
53.658324116103813
 21
66.356265270623965
 31
0.0
  0
LINE
  5
45E
  8
0
  6
CONTINUOUS
 62
     7
 10
43.158324116103813
 20
66.356265270623965
 30
0.0
 11
43.158324116103813
 21
66.320016934760901
 31
0.0
  0
LINE
  5
460
  8
0
  6
CONTINUOUS
 62
     7
 10
54.158324116103813
 20
47.046169512017237
 30
0.0
 11
42.658324116103813
 21
47.046169512017237
 31
0.0
  0
LINE
  5
464
  8
0
  6
CONTINUOUS
 62
     7
 10
50.979218626718783
 20
68.046169512017215
 30
0.0
 11
45.837429605488829
 21
68.046169512017215
 31
0.0
  0
LINE
  5
465
  8
0
  6
CONTINUOUS
 62
     7
 10
51.178474255119461
 20
54.768874658493097
 30
0.0
 11
45.638173977088172
 21
54.768874658493097
 31
0.0
  0
POLYLINE
  5
467
  8
0
  6
CONTINUOUS
 62
     7
 66
     1
 10
0.0
 20
0.0
 30
0.0
  0
VERTEX
  5
6E7
  8
0
  6
CONTINUOUS
 62
     7
 10
41.658324116103813
 20
66.046169512017229
 30
0.0
  0
VERTEX
  5
6E8
  8
0
  6
CONTINUOUS
 62
     7
 10
41.660237613951658
 20
66.046560856147892
 30
0.0
  0
VERTEX
  5
6E9
  8
0
  6
CONTINUOUS
 62
     7
 10
41.675796195392593
 20
66.049738914100203
 30
0.0
  0
VERTEX
  5
6EA
  8
0
  6
CONTINUOUS
 62
     7
 10
41.707455650391523
 20
66.056184089244198
 30
0.0
  0
VERTEX
  5
6EB
  8
0
  6
CONTINUOUS
 62
     7
 10
41.729451182184903
 20
66.060644752398304
 30
0.0
  0
VERTEX
  5
6EC
  8
0
  6
CONTINUOUS
 62
     7
 10
41.755602642863202
 20
66.065929928282912
 30
0.0
  0
VERTEX
  5
6ED
  8
0
  6
CONTINUOUS
 62
     7
 10
41.820445587170262
 20
66.078948769103775
 30
0.0
  0
VERTEX
  5
6EE
  8
0
  6
CONTINUOUS
 62
     7
 10
41.90202660299331
 20
66.095154241936285
 30
0.0
  0
VERTEX
  5
6EF
  8
0
  6
CONTINUOUS
 62
     7
 10
42.000217004107668
 20
66.114401615974742
 30
0.0
  0
VERTEX
  5
6F0
  8
0
  6
CONTINUOUS
 62
     7
 10
42.114719584821898
 20
66.136490723001828
 30
0.0
  0
VERTEX
  5
6F1
  8
0
  6
CONTINUOUS
 62
     7
 10
42.245099691973913
 20
66.161175437178315
 30
0.0
  0
VERTEX
  5
6F2
  8
0
  6
CONTINUOUS
 62
     7
 10
42.316098225225709
 20
66.174407826560156
 30
0.0
  0
VERTEX
  5
6F3
  8
0
  6
CONTINUOUS
 62
     7
 10
42.39086427459906
 20
66.188182310362265
 30
0.0
  0
VERTEX
  5
6F4
  8
0
  6
CONTINUOUS
 62
     7
 10
42.551313097317511
 20
66.217187223889823
 30
0.0
  0
VERTEX
  5
6F5
  8
0
  6
CONTINUOUS
 62
     7
 10
42.72558056136446
 20
66.24783000665613
 30
0.0
  0
VERTEX
  5
6F6
  8
0
  6
CONTINUOUS
 62
     7
 10
42.912665078710234
 20
66.279726796103063
 30
0.0
  0
VERTEX
  5
6F7
  8
0
  6
CONTINUOUS
 62
     7
 10
43.111437339586011
 20
66.312478771081075
 30
0.0
  0
VERTEX
  5
6F8
  8
0
  6
CONTINUOUS
 62
     7
 10
43.320615085194788
 20
66.345675889088653
 30
0.0
  0
VERTEX
  5
6F9
  8
0
  6
CONTINUOUS
 62
     7
 10
43.428663934278141
 20
66.362312402941825
 30
0.0
  0
VERTEX
  5
6FA
  8
0
  6
CONTINUOUS
 62
     7
 10
43.538766911404757
 20
66.378906275409321
 30
0.0
  0
VERTEX
  5
6FB
  8
0
  6
CONTINUOUS
 62
     7
 10
43.765629869660422
 20
66.411952655074614
 30
0.0
  0
VERTEX
  5
6FC
  8
0
  6
CONTINUOUS
 62
     7
 10
44.005951436645688
 20
66.445274045652525
 30
0.0
  0
VERTEX
  5
6FD
  8
0
  6
CONTINUOUS
 62
     7
 10
44.131206766079004
 20
66.461951969994175
 30
0.0
  0
SEQEND
  5
6FE
  8
0
  6
CONTINUOUS
 62
     7
  0
LINE
  5
468
  8
0
  6
CONTINUOUS
 62
     7
 10
52.685441362796219
 20
52.046169512017251
 30
0.0
 11
44.131206766079004
 21
52.046169512017251
 31
0.0
  0
POLYLINE
  5
469
  8
0
  6
CONTINUOUS
 62
     7
 66
     1
 10
0.0
 20
0.0
 30
0.0
  0
VERTEX
  5
6FF
  8
0
  6
CONTINUOUS
 62
     7
 10
52.685441362796219
 20
66.461951983557952
 30
0.0
  0
VERTEX
  5
700
  8
0
  6
CONTINUOUS
 62
     7
 10
52.810696697725092
 20
66.445274058864271
 30
0.0
  0
VERTEX
  5
701
  8
0
  6
CONTINUOUS
 62
     7
 10
53.051018275464671
 20
66.411952667463353
 30
0.0
  0
VERTEX
  5
702
  8
0
  6
CONTINUOUS
 62
     7
 10
53.277881242930157
 20
66.378906287017429
 30
0.0
  0
VERTEX
  5
703
  8
0
  6
CONTINUOUS
 62
     7
 10
53.387984223896041
 20
66.362312414221435
 30
0.0
  0
VERTEX
  5
704
  8
0
  6
CONTINUOUS
 62
     7
 10
53.496033076858083
 20
66.345675900003684
 30
0.0
  0
VERTEX
  5
705
  8
0
  6
CONTINUOUS
 62
     7
 10
53.705210830270843
 20
66.31247878117054
 30
0.0
  0
VERTEX
  5
706
  8
0
  6
CONTINUOUS
 62
     7
 10
53.9039830988958
 20
66.279726805260964
 30
0.0
  0
VERTEX
  5
707
  8
0
  6
CONTINUOUS
 62
     7
 10
54.09106762380263
 20
66.24783001480651
 30
0.0
  0
VERTEX
  5
708
  8
0
  6
CONTINUOUS
 62
     7
 10
54.265335095107801
 20
66.217187230987363
 30
0.0
  0
VERTEX
  5
709
  8
0
  6
CONTINUOUS
 62
     7
 10
54.425783924682463
 20
66.188182316392187
 30
0.0
  0
VERTEX
  5
70A
  8
0
  6
CONTINUOUS
 62
     7
 10
54.500549977304132
 20
66.17440783206041
 30
0.0
  0
VERTEX
  5
70B
  8
0
  6
CONTINUOUS
 62
     7
 10
54.571548513670123
 20
66.161175442156804
 30
0.0
  0
VERTEX
  5
70C
  8
0
  6
CONTINUOUS
 62
     7
 10
54.701928626602303
 20
66.136490726976405
 30
0.0
  0
VERTEX
  5
70D
  8
0
  6
CONTINUOUS
 62
     7
 10
54.816431212456173
 20
66.114401619018821
 30
0.0
  0
VERTEX
  5
70E
  8
0
  6
CONTINUOUS
 62
     7
 10
54.91462161802832
 20
66.095154244145021
 30
0.0
  0
VERTEX
  5
70F
  8
0
  6
CONTINUOUS
 62
     7
 10
54.996202637585149
 20
66.078948770592973
 30
0.0
  0
VERTEX
  5
710
  8
0
  6
CONTINUOUS
 62
     7
 10
55.06104558487381
 20
66.065929929184733
 30
0.0
  0
VERTEX
  5
711
  8
0
  6
CONTINUOUS
 62
     7
 10
55.087197046756401
 20
66.060644753059648
 30
0.0
  0
VERTEX
  5
712
  8
0
  6
CONTINUOUS
 62
     7
 10
55.109192579562567
 20
66.056184089701958
 30
0.0
  0
VERTEX
  5
713
  8
0
  6
CONTINUOUS
 62
     7
 10
55.140852036016781
 20
66.04973891426306
 30
0.0
  0
VERTEX
  5
714
  8
0
  6
CONTINUOUS
 62
     7
 10
55.156410618169062
 20
66.046560856165655
 30
0.0
  0
VERTEX
  5
715
  8
0
  6
CONTINUOUS
 62
     7
 10
55.158324116103813
 20
66.046169512017229
 30
0.0
  0
SEQEND
  5
716
  8
0
  6
CONTINUOUS
 62
     7
  0
LINE
  5
46D
  8
0
  6
CONTINUOUS
 62
     7
 10
55.158324116103813
 20
47.246169512017239
 30
0.0
 11
41.658324116103813
 21
47.246169512017239
 31
0.0
  0
POLYLINE
  5
470
  8
0
  6
CONTINUOUS
 62
     7
 66
     1
 10
0.0
 20
0.0
 30
0.0
  0
VERTEX
  5
717
  8
0
  6
CONTINUOUS
 62
     7
 10
51.36117850051459
 20
66.756157692993526
 30
0.0
  0
VERTEX
  5
718
  8
0
  6
CONTINUOUS
 62
     7
 10
51.388449544044292
 20
66.745954753958301
 30
0.0
  0
VERTEX
  5
719
  8
0
  6
CONTINUOUS
 62
     7
 10
51.444845336122228
 20
66.725817536406083
 30
0.0
  0
VERTEX
  5
71A
  8
0
  6
CONTINUOUS
 62
     7
 10
51.503691270674288
 20
66.706063090633506
 30
0.0
  0
VERTEX
  5
71B
  8
0
  6
CONTINUOUS
 62
     7
 10
51.534023244815963
 20
66.696337921925803
 30
0.0
  0
VERTEX
  5
71C
  8
0
  6
CONTINUOUS
 62
     7
 10
51.564955117692072
 20
66.686718288371992
 30
0.0
  0
VERTEX
  5
71D
  8
0
  6
CONTINUOUS
 62
     7
 10
51.628597721527271
 20
66.667807008580553
 30
0.0
  0
VERTEX
  5
71E
  8
0
  6
CONTINUOUS
 62
     7
 10
51.694572433179921
 20
66.649350453540663
 30
0.0
  0
VERTEX
  5
71F
  8
0
  6
CONTINUOUS
 62
     7
 10
51.762824054380843
 20
66.631367526363846
 30
0.0
  0
VERTEX
  5
720
  8
0
  6
CONTINUOUS
 62
     7
 10
51.833289067296271
 20
66.613874805530969
 30
0.0
  0
VERTEX
  5
721
  8
0
  6
CONTINUOUS
 62
     7
 10
51.90589612801211
 20
66.596886493346631
 30
0.0
  0
VERTEX
  5
722
  8
0
  6
CONTINUOUS
 62
     7
 10
51.942978633133983
 20
66.588585272720479
 30
0.0
  0
VERTEX
  5
723
  8
0
  6
CONTINUOUS
 62
     7
 10
51.980566650594717
 20
66.580414392591422
 30
0.0
  0
VERTEX
  5
724
  8
0
  6
CONTINUOUS
 62
     7
 10
52.057215577556661
 20
66.564467889769702
 30
0.0
  0
VERTEX
  5
725
  8
0
  6
CONTINUOUS
 62
     7
 10
52.135764159434189
 20
66.54905169645329
 30
0.0
  0
VERTEX
  5
726
  8
0
  6
CONTINUOUS
 62
     7
 10
52.216123988641677
 20
66.534169572216456
 30
0.0
  0
VERTEX
  5
727
  8
0
  6
CONTINUOUS
 62
     7
 10
52.298190294466323
 20
66.519825374346766
 30
0.0
  0
VERTEX
  5
728
  8
0
  6
CONTINUOUS
 62
     7
 10
52.381850753967321
 20
66.506021268196093
 30
0.0
  0
VERTEX
  5
729
  8
0
  6
CONTINUOUS
 62
     7
 10
52.42424178412395
 20
66.499321962886285
 30
0.0
  0
VERTEX
  5
72A
  8
0
  6
CONTINUOUS
 62
     7
 10
52.466986142815401
 20
66.492757726425964
 30
0.0
  0
VERTEX
  5
72B
  8
0
  6
CONTINUOUS
 62
     7
 10
52.553471056203861
 20
66.480033550586185
 30
0.0
  0
VERTEX
  5
72C
  8
0
  6
CONTINUOUS
 62
     7
 10
52.641174716587471
 20
66.46784590948451
 30
0.0
  0
VERTEX
  5
72D
  8
0
  6
CONTINUOUS
 62
     7
 10
52.685441362796219
 20
66.461951983557952
 30
0.0
  0
SEQEND
  5
72E
  8
0
  6
CONTINUOUS
 62
     7
  0
POLYLINE
  5
472
  8
0
  6
CONTINUOUS
 62
     7
 66
     1
 10
0.0
 20
0.0
 30
0.0
  0
VERTEX
  5
72F
  8
0
  6
CONTINUOUS
 62
     7
 10
52.685441362796219
 20
52.046169512017251
 30
0.0
  0
VERTEX
  5
730
  8
0
  6
CONTINUOUS
 62
     7
 10
52.584392006718701
 20
52.047086914525607
 30
0.0
  0
VERTEX
  5
731
  8
0
  6
CONTINUOUS
 62
     7
 10
52.38500487872669
 20
52.054612525858261
 30
0.0
  0
VERTEX
  5
732
  8
0
  6
CONTINUOUS
 62
     7
 10
52.191143907121919
 20
52.06999145230435
 30
0.0
  0
VERTEX
  5
733
  8
0
  6
CONTINUOUS
 62
     7
 10
52.096942264235537
 20
52.080658320396708
 30
0.0
  0
VERTEX
  5
734
  8
0
  6
CONTINUOUS
 62
     7
 10
52.004873590588559
 20
52.0932928252018
 30
0.0
  0
VERTEX
  5
735
  8
0
  6
CONTINUOUS
 62
     7
 10
51.82798714914712
 20
52.12431281982844
 30
0.0
  0
VERTEX
  5
736
  8
0
  6
CONTINUOUS
 62
     7
 10
51.662026384687742
 20
52.16259506668402
 30
0.0
  0
VERTEX
  5
737
  8
0
  6
CONTINUOUS
 62
     7
 10
51.508177662896209
 20
52.207492701427718
 30
0.0
  0
VERTEX
  5
738
  8
0
  6
CONTINUOUS
 62
     7
 10
51.367367772175072
 20
52.258197535430547
 30
0.0
  0
VERTEX
  5
739
  8
0
  6
CONTINUOUS
 62
     7
 10
51.240305778838639
 20
52.313757804561867
 30
0.0
  0
VERTEX
  5
73A
  8
0
  6
CONTINUOUS
 62
     7
 10
51.18207079700553
 20
52.343036819896042
 30
0.0
  0
VERTEX
  5
73B
  8
0
  6
CONTINUOUS
 62
     7
 10
51.127406601925301
 20
52.373134846691698
 30
0.0
  0
VERTEX
  5
73C
  8
0
  6
CONTINUOUS
 62
     7
 10
51.028808940780088
 20
52.435227558315688
 30
0.0
  0
VERTEX
  5
73D
  8
0
  6
CONTINUOUS
 62
     7
 10
50.943528602870558
 20
52.49959484405349
 30
0.0
  0
VERTEX
  5
73E
  8
0
  6
CONTINUOUS
 62
     7
 10
50.868392693844903
 20
52.568297148691379
 30
0.0
  0
VERTEX
  5
73F
  8
0
  6
CONTINUOUS
 62
     7
 10
50.804172749164522
 20
52.641094318374307
 30
0.0
  0
VERTEX
  5
740
  8
0
  6
CONTINUOUS
 62
     7
 10
50.751839831309923
 20
52.7173859779219
 30
0.0
  0
VERTEX
  5
741
  8
0
  6
CONTINUOUS
 62
     7
 10
50.730365962812307
 20
52.756646443569252
 30
0.0
  0
VERTEX
  5
742
  8
0
  6
CONTINUOUS
 62
     7
 10
50.712115652414177
 20
52.79654185871442
 30
0.0
  0
VERTEX
  5
743
  8
0
  6
CONTINUOUS
 62
     7
 10
50.685478998664479
 20
52.877906377220143
 30
0.0
  0
VERTEX
  5
744
  8
0
  6
CONTINUOUS
 62
     7
 10
50.672159627668997
 20
52.960828710030363
 30
0.0
  0
VERTEX
  5
745
  8
0
  6
CONTINUOUS
 62
     7
 10
50.670500252612953
 20
53.002679505544819
 30
0.0
  0
SEQEND
  5
746
  8
0
  6
CONTINUOUS
 62
     7
  0
POLYLINE
  5
473
  8
0
  6
CONTINUOUS
 62
     7
 66
     1
 10
0.0
 20
0.0
 30
0.0
  0
VERTEX
  5
747
  8
0
  6
CONTINUOUS
 62
     7
 10
50.670500252612953
 20
53.002679505544819
 30
0.0
  0
VERTEX
  5
748
  8
0
  6
CONTINUOUS
 62
     7
 10
50.671215057798278
 20
53.030300723444299
 30
0.0
  0
VERTEX
  5
749
  8
0
  6
CONTINUOUS
 62
     7
 10
50.676898872455581
 20
53.085644330967902
 30
0.0
  0
VERTEX
  5
74A
  8
0
  6
CONTINUOUS
 62
     7
 10
50.688153591847893
 20
53.140967739963862
 30
0.0
  0
VERTEX
  5
74B
  8
0
  6
CONTINUOUS
 62
     7
 10
50.695821161593472
 20
53.168564562524317
 30
0.0
  0
SEQEND
  5
74C
  8
0
  6
CONTINUOUS
 62
     7
  0
POLYLINE
  5
492
  8
0
  6
CONTINUOUS
 62
     7
 66
     1
 10
0.0
 20
0.0
 30
0.0
  0
VERTEX
  5
74D
  8
0
  6
CONTINUOUS
 62
     7
 10
46.120827070614148
 20
53.168564562524317
 30
0.0
  0
VERTEX
  5
74E
  8
0
  6
CONTINUOUS
 62
     7
 10
46.12849464035974
 20
53.140967739963862
 30
0.0
  0
VERTEX
  5
74F
  8
0
  6
CONTINUOUS
 62
     7
 10
46.139749359752038
 20
53.085644330967902
 30
0.0
  0
VERTEX
  5
750
  8
0
  6
CONTINUOUS
 62
     7
 10
46.145433174409362
 20
53.030300723444299
 30
0.0
  0
VERTEX
  5
751
  8
0
  6
CONTINUOUS
 62
     7
 10
46.146147979594673
 20
53.002679505544819
 30
0.0
  0
SEQEND
  5
752
  8
0
  6
CONTINUOUS
 62
     7
  0
POLYLINE
  5
493
  8
0
  6
CONTINUOUS
 62
     7
 66
     1
 10
0.0
 20
0.0
 30
0.0
  0
VERTEX
  5
753
  8
0
  6
CONTINUOUS
 62
     7
 10
46.146147979594673
 20
53.002679505544819
 30
0.0
  0
VERTEX
  5
754
  8
0
  6
CONTINUOUS
 62
     7
 10
46.144488604538623
 20
52.960828710030363
 30
0.0
  0
VERTEX
  5
755
  8
0
  6
CONTINUOUS
 62
     7
 10
46.13116923354314
 20
52.877906377220143
 30
0.0
  0
VERTEX
  5
756
  8
0
  6
CONTINUOUS
 62
     7
 10
46.104532579793442
 20
52.79654185871442
 30
0.0
  0
VERTEX
  5
757
  8
0
  6
CONTINUOUS
 62
     7
 10
46.086282269395291
 20
52.756646443569252
 30
0.0
  0
VERTEX
  5
758
  8
0
  6
CONTINUOUS
 62
     7
 10
46.064808400897697
 20
52.7173859779219
 30
0.0
  0
VERTEX
  5
759
  8
0
  6
CONTINUOUS
 62
     7
 10
46.01247548304309
 20
52.641094318374307
 30
0.0
  0
VERTEX
  5
75A
  8
0
  6
CONTINUOUS
 62
     7
 10
45.94825553836273
 20
52.568297148691379
 30
0.0
  0
VERTEX
  5
75B
  8
0
  6
CONTINUOUS
 62
     7
 10
45.873119629337047
 20
52.49959484405349
 30
0.0
  0
VERTEX
  5
75C
  8
0
  6
CONTINUOUS
 62
     7
 10
45.787839291427531
 20
52.435227558315688
 30
0.0
  0
VERTEX
  5
75D
  8
0
  6
CONTINUOUS
 62
     7
 10
45.689241630282339
 20
52.373134846691698
 30
0.0
  0
VERTEX
  5
75E
  8
0
  6
CONTINUOUS
 62
     7
 10
45.63457743520209
 20
52.343036819896042
 30
0.0
  0
VERTEX
  5
75F
  8
0
  6
CONTINUOUS
 62
     7
 10
45.576342453368987
 20
52.313757804561867
 30
0.0
  0
VERTEX
  5
760
  8
0
  6
CONTINUOUS
 62
     7
 10
45.449280460032547
 20
52.258197535430547
 30
0.0
  0
VERTEX
  5
761
  8
0
  6
CONTINUOUS
 62
     7
 10
45.308470569311417
 20
52.207492701427718
 30
0.0
  0
VERTEX
  5
762
  8
0
  6
CONTINUOUS
 62
     7
 10
45.154621847519898
 20
52.162595066684041
 30
0.0
  0
VERTEX
  5
763
  8
0
  6
CONTINUOUS
 62
     7
 10
44.988661083060521
 20
52.12431281982844
 30
0.0
  0
VERTEX
  5
764
  8
0
  6
CONTINUOUS
 62
     7
 10
44.811774641619081
 20
52.0932928252018
 30
0.0
  0
VERTEX
  5
765
  8
0
  6
CONTINUOUS
 62
     7
 10
44.719705967972082
 20
52.080658320396722
 30
0.0
  0
VERTEX
  5
766
  8
0
  6
CONTINUOUS
 62
     7
 10
44.62550432328711
 20
52.069991452121528
 30
0.0
  0
VERTEX
  5
767
  8
0
  6
CONTINUOUS
 62
     7
 10
44.431643312331403
 20
52.054612523473317
 30
0.0
  0
VERTEX
  5
768
  8
0
  6
CONTINUOUS
 62
     7
 10
44.23225613317495
 20
52.047086912832739
 30
0.0
  0
VERTEX
  5
769
  8
0
  6
CONTINUOUS
 62
     7
 10
44.131206766079004
 20
52.046169512017251
 30
0.0
  0
SEQEND
  5
76A
  8
0
  6
CONTINUOUS
 62
     7
  0
POLYLINE
  5
495
  8
0
  6
CONTINUOUS
 62
     7
 66
     1
 10
0.0
 20
0.0
 30
0.0
  0
VERTEX
  5
76B
  8
0
  6
CONTINUOUS
 62
     7
 10
44.131206766079004
 20
66.461951969994175
 30
0.0
  0
VERTEX
  5
76C
  8
0
  6
CONTINUOUS
 62
     7
 10
44.175473415718749
 20
66.467845895992753
 30
0.0
  0
VERTEX
  5
76D
  8
0
  6
CONTINUOUS
 62
     7
 10
44.263177082974202
 20
66.480033537285493
 30
0.0
  0
VERTEX
  5
76E
  8
0
  6
CONTINUOUS
 62
     7
 10
44.349662003220963
 20
66.492757713381025
 30
0.0
  0
VERTEX
  5
76F
  8
0
  6
CONTINUOUS
 62
     7
 10
44.392406365327012
 20
66.499321949994183
 30
0.0
  0
VERTEX
  5
770
  8
0
  6
CONTINUOUS
 62
     7
 10
44.434797398883617
 20
66.506021255473783
 30
0.0
  0
VERTEX
  5
771
  8
0
  6
CONTINUOUS
 62
     7
 10
44.518457865125839
 20
66.519825362015865
 30
0.0
  0
VERTEX
  5
772
  8
0
  6
CONTINUOUS
 62
     7
 10
44.600524177589513
 20
66.534169560347181
 30
0.0
  0
VERTEX
  5
773
  8
0
  6
CONTINUOUS
 62
     7
 10
44.680884013306212
 20
66.549051685116751
 30
0.0
  0
VERTEX
  5
774
  8
0
  6
CONTINUOUS
 62
     7
 10
44.75943260153695
 20
66.564467879037721
 30
0.0
  0
VERTEX
  5
775
  8
0
  6
CONTINUOUS
 62
     7
 10
44.836081534660529
 20
66.580414382533462
 30
0.0
  0
VERTEX
  5
776
  8
0
  6
CONTINUOUS
 62
     7
 10
44.873669555128423
 20
66.588585263026516
 30
0.0
  0
VERTEX
  5
777
  8
0
  6
CONTINUOUS
 62
     7
 10
44.910752063205372
 20
66.596886484034712
 30
0.0
  0
VERTEX
  5
778
  8
0
  6
CONTINUOUS
 62
     7
 10
44.983359129665331
 20
66.613874797036942
 30
0.0
  0
VERTEX
  5
779
  8
0
  6
CONTINUOUS
 62
     7
 10
45.053824148088182
 20
66.631367518758566
 30
0.0
  0
VERTEX
  5
77A
  8
0
  6
CONTINUOUS
 62
     7
 10
45.122075774542537
 20
66.649350446893393
 30
0.0
  0
VERTEX
  5
77B
  8
0
  6
CONTINUOUS
 62
     7
 10
45.188050491179382
 20
66.667807002958284
 30
0.0
  0
VERTEX
  5
77C
  8
0
  6
CONTINUOUS
 62
     7
 10
45.251693099716043
 20
66.686718283838871
 30
0.0
  0
VERTEX
  5
77D
  8
0
  6
CONTINUOUS
 62
     7
 10
45.282624974833283
 20
66.69633791796025
 30
0.0
  0
VERTEX
  5
77E
  8
0
  6
CONTINUOUS
 62
     7
 10
45.312956951141381
 20
66.706063087250214
 30
0.0
  0
VERTEX
  5
77F
  8
0
  6
CONTINUOUS
 62
     7
 10
45.371802889798197
 20
66.725817534229407
 30
0.0
  0
VERTEX
  5
780
  8
0
  6
CONTINUOUS
 62
     7
 10
45.42819868567085
 20
66.745954753040195
 30
0.0
  0
VERTEX
  5
781
  8
0
  6
CONTINUOUS
 62
     7
 10
45.455469730979928
 20
66.756157692722525
 30
0.0
  0
SEQEND
  5
782
  8
0
  6
CONTINUOUS
 62
     7
  0
POLYLINE
  5
498
  8
0
  6
CONTINUOUS
 62
     7
 66
     1
 10
0.0
 20
0.0
 30
0.0
  0
VERTEX
  5
783
  8
0
  6
CONTINUOUS
 62
     7
 10
45.26384206058529
 20
57.979370777966409
 30
0.0
  0
VERTEX
  5
784
  8
0
  6
CONTINUOUS
 62
     7
 10
45.270718328804151
 20
57.851975475548898
 30
0.0
  0
VERTEX
  5
785
  8
0
  6
CONTINUOUS
 62
     7
 10
45.285367637893607
 20
57.600052829196329
 30
0.0
  0
VERTEX
  5
786
  8
0
  6
CONTINUOUS
 62
     7
 10
45.301112291957217
 20
57.354064792901021
 30
0.0
  0
VERTEX
  5
787
  8
0
  6
CONTINUOUS
 62
     7
 10
45.309351531626668
 20
57.234011578008449
 30
0.0
  0
VERTEX
  5
788
  8
0
  6
CONTINUOUS
 62
     7
 10
45.317807327145509
 20
57.116281934136509
 30
0.0
  0
VERTEX
  5
789
  8
0
  6
CONTINUOUS
 62
     7
 10
45.335271315000433
 20
56.888806403983942
 30
0.0
  0
VERTEX
  5
78A
  8
0
  6
CONTINUOUS
 62
     7
 10
45.353291248339701
 20
56.673493540119999
 30
0.0
  0
VERTEX
  5
78B
  8
0
  6
CONTINUOUS
 62
     7
 10
45.371624091807263
 20
56.47194360740221
 30
0.0
  0
VERTEX
  5
78C
  8
0
  6
CONTINUOUS
 62
     7
 10
45.390533485128337
 20
56.280287323743117
 30
0.0
  0
VERTEX
  5
78D
  8
0
  6
CONTINUOUS
 62
     7
 10
45.410785432311741
 20
56.091240572890619
 30
0.0
  0
VERTEX
  5
78E
  8
0
  6
CONTINUOUS
 62
     7
 10
45.421377311346468
 20
55.99845122443665
 30
0.0
  0
VERTEX
  5
78F
  8
0
  6
CONTINUOUS
 62
     7
 10
45.432253069453701
 20
55.907221553808732
 30
0.0
  0
VERTEX
  5
790
  8
0
  6
CONTINUOUS
 62
     7
 10
45.454766796510228
 20
55.730535584710651
 30
0.0
  0
VERTEX
  5
791
  8
0
  6
CONTINUOUS
 62
     7
 10
45.478131918882873
 20
55.563174270341108
 30
0.0
  0
VERTEX
  5
792
  8
0
  6
CONTINUOUS
 62
     7
 10
45.50213727063106
 20
55.40675111976006
 30
0.0
  0
VERTEX
  5
793
  8
0
  6
CONTINUOUS
 62
     7
 10
45.5265470067026
 20
55.262564372674241
 30
0.0
  0
VERTEX
  5
794
  8
0
  6
CONTINUOUS
 62
     7
 10
45.551102396840371
 20
55.131578890896229
 30
0.0
  0
VERTEX
  5
795
  8
0
  6
CONTINUOUS
 62
     7
 10
45.563349002537677
 20
55.071239685419151
 30
0.0
  0
VERTEX
  5
796
  8
0
  6
CONTINUOUS
 62
     7
 10
45.575526803824353
 20
55.01440138412206
 30
0.0
  0
VERTEX
  5
797
  8
0
  6
CONTINUOUS
 62
     7
 10
45.599809477822667
 20
54.910142570025322
 30
0.0
  0
VERTEX
  5
798
  8
0
  6
CONTINUOUS
 62
     7
 10
45.625124550453933
 20
54.813799176379121
 30
0.0
  0
VERTEX
  5
799
  8
0
  6
CONTINUOUS
 62
     7
 10
45.638173977088172
 20
54.768874658493097
 30
0.0
  0
SEQEND
  5
79A
  8
0
  6
CONTINUOUS
 62
     7
  0
POLYLINE
  5
499
  8
0
  6
CONTINUOUS
 62
     7
 66
     1
 10
0.0
 20
0.0
 30
0.0
  0
VERTEX
  5
79B
  8
0
  6
CONTINUOUS
 62
     7
 10
45.638173977088172
 20
54.768874658493132
 30
0.0
  0
VERTEX
  5
79C
  8
0
  6
CONTINUOUS
 62
     7
 10
45.734456405069601
 20
54.449132588466171
 30
0.0
  0
VERTEX
  5
79D
  8
0
  6
CONTINUOUS
 62
     7
 10
45.90591442575586
 20
53.880251474367491
 30
0.0
  0
VERTEX
  5
79E
  8
0
  6
CONTINUOUS
 62
     7
 10
46.05405225061758
 20
53.38947756760205
 30
0.0
  0
VERTEX
  5
79F
  8
0
  6
CONTINUOUS
 62
     7
 10
46.120827070614148
 20
53.168564562524317
 30
0.0
  0
SEQEND
  5
7A0
  8
0
  6
CONTINUOUS
 62
     7
  0
POLYLINE
  5
49D
  8
0
  6
CONTINUOUS
 62
     7
 66
     1
 10
0.0
 20
0.0
 30
0.0
  0
VERTEX
  5
7A1
  8
0
  6
CONTINUOUS
 62
     7
 10
45.837429605488829
 20
68.046169512017258
 30
0.0
  0
VERTEX
  5
7A2
  8
0
  6
CONTINUOUS
 62
     7
 10
45.81892081466205
 20
68.043453894558326
 30
0.0
  0
VERTEX
  5
7A3
  8
0
  6
CONTINUOUS
 62
     7
 10
45.780760394750502
 20
68.020662520206002
 30
0.0
  0
VERTEX
  5
7A4
  8
0
  6
CONTINUOUS
 62
     7
 10
45.741717316750929
 20
67.973132469305938
 30
0.0
  0
VERTEX
  5
7A5
  8
0
  6
CONTINUOUS
 62
     7
 10
45.722101851023041
 20
67.939852500651739
 30
0.0
  0
VERTEX
  5
7A6
  8
0
  6
CONTINUOUS
 62
     7
 10
45.702547872205827
 20
67.900297476130106
 30
0.0
  0
VERTEX
  5
7A7
  8
0
  6
CONTINUOUS
 62
     7
 10
45.663973658334641
 20
67.803118205747779
 30
0.0
  0
VERTEX
  5
7A8
  8
0
  6
CONTINUOUS
 62
     7
 10
45.626692490034003
 20
67.68410550907214
 30
0.0
  0
VERTEX
  5
7A9
  8
0
  6
CONTINUOUS
 62
     7
 10
45.59136808845988
 20
67.547297036029136
 30
0.0
  0
VERTEX
  5
7AA
  8
0
  6
CONTINUOUS
 62
     7
 10
45.557253516639371
 20
67.391471118701304
 30
0.0
  0
VERTEX
  5
7AB
  8
0
  6
CONTINUOUS
 62
     7
 10
45.522772540916492
 20
67.208414505793826
 30
0.0
  0
VERTEX
  5
7AC
  8
0
  6
CONTINUOUS
 62
     7
 10
45.50562375718016
 20
67.107073613237503
 30
0.0
  0
VERTEX
  5
7AD
  8
0
  6
CONTINUOUS
 62
     7
 10
45.488657101629798
 20
66.999608303421553
 30
0.0
  0
VERTEX
  5
7AE
  8
0
  6
CONTINUOUS
 62
     7
 10
45.455602261856022
 20
66.768059901099292
 30
0.0
  0
VERTEX
  5
7AF
  8
0
  6
CONTINUOUS
 62
     7
 10
45.424210901087463
 20
66.518043296992914
 30
0.0
  0
VERTEX
  5
7B0
  8
0
  6
CONTINUOUS
 62
     7
 10
45.395009117657558
 20
66.255209030106727
 30
0.0
  0
VERTEX
  5
7B1
  8
0
  6
CONTINUOUS
 62
     7
 10
45.368346072459133
 20
65.985551101306669
 30
0.0
  0
VERTEX
  5
7B2
  8
0
  6
CONTINUOUS
 62
     7
 10
45.342730581097747
 20
65.69488513447746
 30
0.0
  0
VERTEX
  5
7B3
  8
0
  6
CONTINUOUS
 62
     7
 10
45.330219432292502
 20
65.539761162698881
 30
0.0
  0
VERTEX
  5
7B4
  8
0
  6
CONTINUOUS
 62
     7
 10
45.31801468282611
 20
65.378878389714032
 30
0.0
  0
VERTEX
  5
7B5
  8
0
  6
CONTINUOUS
 62
     7
 10
45.294806778981354
 20
65.042524331170767
 30
0.0
  0
VERTEX
  5
7B6
  8
0
  6
CONTINUOUS
 62
     7
 10
45.273589163876551
 20
64.691717084556885
 30
0.0
  0
VERTEX
  5
7B7
  8
0
  6
CONTINUOUS
 62
     7
 10
45.26384206058529
 20
64.512968246068084
 30
0.0
  0
SEQEND
  5
7B8
  8
0
  6
CONTINUOUS
 62
     7
  0
POLYLINE
  5
49E
  8
0
  6
CONTINUOUS
 62
     7
 66
     1
 10
0.0
 20
0.0
 30
0.0
  0
VERTEX
  5
7B9
  8
0
  6
CONTINUOUS
 62
     7
 10
51.552806171622322
 20
64.512968246068112
 30
0.0
  0
VERTEX
  5
7BA
  8
0
  6
CONTINUOUS
 62
     7
 10
51.543059068331083
 20
64.691717084556885
 30
0.0
  0
VERTEX
  5
7BB
  8
0
  6
CONTINUOUS
 62
     7
 10
51.521841453226273
 20
65.042524331170796
 30
0.0
  0
VERTEX
  5
7BC
  8
0
  6
CONTINUOUS
 62
     7
 10
51.498633549381523
 20
65.378878389714032
 30
0.0
  0
VERTEX
  5
7BD
  8
0
  6
CONTINUOUS
 62
     7
 10
51.486428799915132
 20
65.539761162698881
 30
0.0
  0
VERTEX
  5
7BE
  8
0
  6
CONTINUOUS
 62
     7
 10
51.473917651109879
 20
65.69488513447746
 30
0.0
  0
VERTEX
  5
7BF
  8
0
  6
CONTINUOUS
 62
     7
 10
51.448302159748494
 20
65.985551101306669
 30
0.0
  0
VERTEX
  5
7C0
  8
0
  6
CONTINUOUS
 62
     7
 10
51.421639114550061
 20
66.255209030106727
 30
0.0
  0
VERTEX
  5
7C1
  8
0
  6
CONTINUOUS
 62
     7
 10
51.392437331120171
 20
66.518043296992914
 30
0.0
  0
VERTEX
  5
7C2
  8
0
  6
CONTINUOUS
 62
     7
 10
51.361045970351597
 20
66.768059901099321
 30
0.0
  0
VERTEX
  5
7C3
  8
0
  6
CONTINUOUS
 62
     7
 10
51.327991130577828
 20
66.999608303421581
 30
0.0
  0
VERTEX
  5
7C4
  8
0
  6
CONTINUOUS
 62
     7
 10
51.311024475027473
 20
67.107073613237503
 30
0.0
  0
VERTEX
  5
7C5
  8
0
  6
CONTINUOUS
 62
     7
 10
51.293875691291127
 20
67.208414505793854
 30
0.0
  0
VERTEX
  5
7C6
  8
0
  6
CONTINUOUS
 62
     7
 10
51.259394715568249
 20
67.391471118701304
 30
0.0
  0
VERTEX
  5
7C7
  8
0
  6
CONTINUOUS
 62
     7
 10
51.225280143747717
 20
67.547297036029136
 30
0.0
  0
VERTEX
  5
7C8
  8
0
  6
CONTINUOUS
 62
     7
 10
51.189955742173623
 20
67.68410550907214
 30
0.0
  0
VERTEX
  5
7C9
  8
0
  6
CONTINUOUS
 62
     7
 10
51.152674573872979
 20
67.803118205747779
 30
0.0
  0
VERTEX
  5
7CA
  8
0
  6
CONTINUOUS
 62
     7
 10
51.114100360001807
 20
67.900297476130106
 30
0.0
  0
VERTEX
  5
7CB
  8
0
  6
CONTINUOUS
 62
     7
 10
51.094546381184578
 20
67.939852500651739
 30
0.0
  0
VERTEX
  5
7CC
  8
0
  6
CONTINUOUS
 62
     7
 10
51.07493091545669
 20
67.973132469305938
 30
0.0
  0
VERTEX
  5
7CD
  8
0
  6
CONTINUOUS
 62
     7
 10
51.035887837457132
 20
68.020662520206002
 30
0.0
  0
VERTEX
  5
7CE
  8
0
  6
CONTINUOUS
 62
     7
 10
50.997727417545569
 20
68.043453894558326
 30
0.0
  0
VERTEX
  5
7CF
  8
0
  6
CONTINUOUS
 62
     7
 10
50.979218626718783
 20
68.046169512017258
 30
0.0
  0
SEQEND
  5
7D0
  8
0
  6
CONTINUOUS
 62
     7
  0
POLYLINE
  5
4A1
  8
0
  6
CONTINUOUS
 62
     7
 66
     1
 10
0.0
 20
0.0
 30
0.0
  0
VERTEX
  5
7D1
  8
0
  6
CONTINUOUS
 62
     7
 10
50.695821161593472
 20
53.168564562524317
 30
0.0
  0
VERTEX
  5
7D2
  8
0
  6
CONTINUOUS
 62
     7
 10
50.762595981590039
 20
53.389477567602
 30
0.0
  0
VERTEX
  5
7D3
  8
0
  6
CONTINUOUS
 62
     7
 10
50.910733806451717
 20
53.880251474367348
 30
0.0
  0
VERTEX
  5
7D4
  8
0
  6
CONTINUOUS
 62
     7
 10
51.082191827137969
 20
54.449132588466057
 30
0.0
  0
VERTEX
  5
7D5
  8
0
  6
CONTINUOUS
 62
     7
 10
51.178474255119461
 20
54.768874658493132
 30
0.0
  0
SEQEND
  5
7D6
  8
0
  6
CONTINUOUS
 62
     7
  0
POLYLINE
  5
4A2
  8
0
  6
CONTINUOUS
 62
     7
 66
     1
 10
0.0
 20
0.0
 30
0.0
  0
VERTEX
  5
7D7
  8
0
  6
CONTINUOUS
 62
     7
 10
51.178474255119461
 20
54.768874658493097
 30
0.0
  0
VERTEX
  5
7D8
  8
0
  6
CONTINUOUS
 62
     7
 10
51.191523681753687
 20
54.813799176379121
 30
0.0
  0
VERTEX
  5
7D9
  8
0
  6
CONTINUOUS
 62
     7
 10
51.216838754384959
 20
54.910142570025322
 30
0.0
  0
VERTEX
  5
7DA
  8
0
  6
CONTINUOUS
 62
     7
 10
51.241121428383281
 20
55.01440138412206
 30
0.0
  0
VERTEX
  5
7DB
  8
0
  6
CONTINUOUS
 62
     7
 10
51.253299229669963
 20
55.071239685419151
 30
0.0
  0
VERTEX
  5
7DC
  8
0
  6
CONTINUOUS
 62
     7
 10
51.265545835367249
 20
55.131578890896229
 30
0.0
  0
VERTEX
  5
7DD
  8
0
  6
CONTINUOUS
 62
     7
 10
51.290101225505033
 20
55.262564372674241
 30
0.0
  0
VERTEX
  5
7DE
  8
0
  6
CONTINUOUS
 62
     7
 10
51.314510961576559
 20
55.40675111976006
 30
0.0
  0
VERTEX
  5
7DF
  8
0
  6
CONTINUOUS
 62
     7
 10
51.33851631332476
 20
55.563174270341108
 30
0.0
  0
VERTEX
  5
7E0
  8
0
  6
CONTINUOUS
 62
     7
 10
51.361881435697391
 20
55.730535584710623
 30
0.0
  0
VERTEX
  5
7E1
  8
0
  6
CONTINUOUS
 62
     7
 10
51.384395162753933
 20
55.907221553808732
 30
0.0
  0
VERTEX
  5
7E2
  8
0
  6
CONTINUOUS
 62
     7
 10
51.395270920861151
 20
55.99845122443665
 30
0.0
  0
VERTEX
  5
7E3
  8
0
  6
CONTINUOUS
 62
     7
 10
51.4058627998959
 20
56.091240572890619
 30
0.0
  0
VERTEX
  5
7E4
  8
0
  6
CONTINUOUS
 62
     7
 10
51.426114747079261
 20
56.280287323743103
 30
0.0
  0
VERTEX
  5
7E5
  8
0
  6
CONTINUOUS
 62
     7
 10
51.445024140400371
 20
56.47194360740221
 30
0.0
  0
VERTEX
  5
7E6
  8
0
  6
CONTINUOUS
 62
     7
 10
51.463356983867918
 20
56.673493540119999
 30
0.0
  0
VERTEX
  5
7E7
  8
0
  6
CONTINUOUS
 62
     7
 10
51.481376917207193
 20
56.888806403983942
 30
0.0
  0
VERTEX
  5
7E8
  8
0
  6
CONTINUOUS
 62
     7
 10
51.498840905062089
 20
57.116281934136481
 30
0.0
  0
VERTEX
  5
7E9
  8
0
  6
CONTINUOUS
 62
     7
 10
51.507296700580952
 20
57.23401157800842
 30
0.0
  0
VERTEX
  5
7EA
  8
0
  6
CONTINUOUS
 62
     7
 10
51.515535940250402
 20
57.354064792901021
 30
0.0
  0
VERTEX
  5
7EB
  8
0
  6
CONTINUOUS
 62
     7
 10
51.531280594314012
 20
57.600052829196329
 30
0.0
  0
VERTEX
  5
7EC
  8
0
  6
CONTINUOUS
 62
     7
 10
51.545929903403469
 20
57.851975475548862
 30
0.0
  0
VERTEX
  5
7ED
  8
0
  6
CONTINUOUS
 62
     7
 10
51.552806171622322
 20
57.979370777966381
 30
0.0
  0
SEQEND
  5
7EE
  8
0
  6
CONTINUOUS
 62
     7
  0
POLYLINE
  5
4A3
  8
0
  6
CONTINUOUS
 62
     7
 66
     1
 10
0.0
 20
0.0
 30
0.0
  0
VERTEX
  5
7EF
  8
0
  6
CONTINUOUS
 62
     7
 10
51.552806171622322
 20
57.979370777966381
 30
0.0
  0
VERTEX
  5
7F0
  8
0
  6
CONTINUOUS
 62
     7
 10
51.554237501417347
 20
58.009247627012712
 30
0.0
  0
VERTEX
  5
7F1
  8
0
  6
CONTINUOUS
 62
     7
 10
51.556285227734733
 20
58.069223719671641
 30
0.0
  0
VERTEX
  5
7F2
  8
0
  6
CONTINUOUS
 62
     7
 10
51.557286909217169
 20
58.129494150000227
 30
0.0
  0
VERTEX
  5
7F3
  8
0
  6
CONTINUOUS
 62
     7
 10
51.557409973255147
 20
58.159730000478874
 30
0.0
  0
SEQEND
  5
7F4
  8
0
  6
CONTINUOUS
 62
     7
  0
POLYLINE
  5
4A4
  8
0
  6
CONTINUOUS
 62
     7
 66
     1
 10
0.0
 20
0.0
 30
0.0
  0
VERTEX
  5
7F5
  8
0
  6
CONTINUOUS
 62
     7
 10
51.557409973255147
 20
58.159730000478874
 30
0.0
  0
VERTEX
  5
7F6
  8
0
  6
CONTINUOUS
 62
     7
 10
51.557313794921157
 20
58.186708194182579
 30
0.0
  0
VERTEX
  5
7F7
  8
0
  6
CONTINUOUS
 62
     7
 10
51.556556301354242
 20
58.240800209337749
 30
0.0
  0
VERTEX
  5
7F8
  8
0
  6
CONTINUOUS
 62
     7
 10
51.555070201660733
 20
58.295095188103659
 30
0.0
  0
VERTEX
  5
7F9
  8
0
  6
CONTINUOUS
 62
     7
 10
51.55406090272659
 20
58.32236920212366
 30
0.0
  0
VERTEX
  5
7FA
  8
0
  6
CONTINUOUS
 62
     7
 10
51.552877695747171
 20
58.349732245312786
 30
0.0
  0
VERTEX
  5
7FB
  8
0
  6
CONTINUOUS
 62
     7
 10
51.550000334976417
 20
58.404726032302307
 30
0.0
  0
VERTEX
  5
7FC
  8
0
  6
CONTINUOUS
 62
     7
 10
51.546459274396817
 20
58.46007779434732
 30
0.0
  0
VERTEX
  5
7FD
  8
0
  6
CONTINUOUS
 62
     7
 10
51.5422751111495
 20
58.515788793918553
 30
0.0
  0
VERTEX
  5
7FE
  8
0
  6
CONTINUOUS
 62
     7
 10
51.537467996623249
 20
58.571860297712412
 30
0.0
  0
VERTEX
  5
7FF
  8
0
  6
CONTINUOUS
 62
     7
 10
51.532057743691539
 20
58.628293571007049
 30
0.0
  0
VERTEX
  5
800
  8
0
  6
CONTINUOUS
 62
     7
 10
51.529132564755088
 20
58.65664626630987
 30
0.0
  0
VERTEX
  5
801
  8
0
  6
CONTINUOUS
 62
     7
 10
51.5260639299429
 20
58.68508987847818
 30
0.0
  0
VERTEX
  5
802
  8
0
  6
CONTINUOUS
 62
     7
 10
51.519505997859589
 20
58.742250490694943
 30
0.0
  0
VERTEX
  5
803
  8
0
  6
CONTINUOUS
 62
     7
 10
51.512403352946599
 20
58.799776695595511
 30
0.0
  0
VERTEX
  5
804
  8
0
  6
CONTINUOUS
 62
     7
 10
51.48353720524382
 20
59.004017068315129
 30
0.0
  0
VERTEX
  5
805
  8
0
  6
CONTINUOUS
 62
     7
 10
51.45432665033195
 20
59.182706698865189
 30
0.0
  0
VERTEX
  5
806
  8
0
  6
CONTINUOUS
 62
     7
 10
51.421608635203327
 20
59.364799262312431
 30
0.0
  0
VERTEX
  5
807
  8
0
  6
CONTINUOUS
 62
     7
 10
51.349401173973483
 20
59.73451493129388
 30
0.0
  0
VERTEX
  5
808
  8
0
  6
CONTINUOUS
 62
     7
 10
51.277277855911557
 20
60.095765060995831
 30
0.0
  0
VERTEX
  5
809
  8
0
  6
CONTINUOUS
 62
     7
 10
51.213586372911372
 20
60.446316948908994
 30
0.0
  0
VERTEX
  5
80A
  8
0
  6
CONTINUOUS
 62
     7
 10
51.1834419857028
 20
60.646693045162749
 30
0.0
  0
VERTEX
  5
80B
  8
0
  6
CONTINUOUS
 62
     7
 10
51.175981324538483
 20
60.70413955350957
 30
0.0
  0
VERTEX
  5
80C
  8
0
  6
CONTINUOUS
 62
     7
 10
51.169109577999293
 20
60.761731579867238
 30
0.0
  0
VERTEX
  5
80D
  8
0
  6
CONTINUOUS
 62
     7
 10
51.165908859320687
 20
60.790584258432538
 30
0.0
  0
VERTEX
  5
80E
  8
0
  6
CONTINUOUS
 62
     7
 10
51.162872424462108
 20
60.819475816886069
 30
0.0
  0
VERTEX
  5
80F
  8
0
  6
CONTINUOUS
 62
     7
 10
51.157314379219713
 20
60.877378829489572
 30
0.0
  0
VERTEX
  5
810
  8
0
  6
CONTINUOUS
 62
     7
 10
51.152478434277242
 20
60.93544207753564
 30
0.0
  0
VERTEX
  5
811
  8
0
  6
CONTINUOUS
 62
     7
 10
51.148411421811709
 20
60.993558915460433
 30
0.0
  0
VERTEX
  5
812
  8
0
  6
CONTINUOUS
 62
     7
 10
51.145145007033932
 20
61.051729591288868
 30
0.0
  0
VERTEX
  5
813
  8
0
  6
CONTINUOUS
 62
     7
 10
51.142703757620531
 20
61.11001503111396
 30
0.0
  0
VERTEX
  5
814
  8
0
  6
CONTINUOUS
 62
     7
 10
51.141800496351152
 20
61.139190236171892
 30
0.0
  0
VERTEX
  5
815
  8
0
  6
CONTINUOUS
 62
     7
 10
51.141112341764867
 20
61.168366161630978
 30
0.0
  0
VERTEX
  5
816
  8
0
  6
CONTINUOUS
 62
     7
 10
51.140386236454518
 20
61.226752847554017
 30
0.0
  0
VERTEX
  5
817
  8
0
  6
CONTINUOUS
 62
     7
 10
51.140532410853453
 20
61.285140362744301
 30
0.0
  0
VERTEX
  5
818
  8
0
  6
CONTINUOUS
 62
     7
 10
51.14093258018012
 20
61.314337729658291
 30
0.0
  0
VERTEX
  5
819
  8
0
  6
CONTINUOUS
 62
     7
 10
51.141549467392437
 20
61.343517495395652
 30
0.0
  0
VERTEX
  5
81A
  8
0
  6
CONTINUOUS
 62
     7
 10
51.143427627452482
 20
61.401851031898069
 30
0.0
  0
VERTEX
  5
81B
  8
0
  6
CONTINUOUS
 62
     7
 10
51.146149083525202
 20
61.460116803574152
 30
0.0
  0
VERTEX
  5
81C
  8
0
  6
CONTINUOUS
 62
     7
 10
51.147817090011628
 20
61.489194804188628
 30
0.0
  0
VERTEX
  5
81D
  8
0
  6
CONTINUOUS
 62
     7
 10
51.14968547926982
 20
61.518245070916407
 30
0.0
  0
VERTEX
  5
81E
  8
0
  6
CONTINUOUS
 62
     7
 10
51.154009304387813
 20
61.576289741085873
 30
0.0
  0
VERTEX
  5
81F
  8
0
  6
CONTINUOUS
 62
     7
 10
51.159091202930512
 20
61.634303471037157
 30
0.0
  0
VERTEX
  5
820
  8
0
  6
CONTINUOUS
 62
     7
 10
51.164893393571873
 20
61.69227193444658
 30
0.0
  0
VERTEX
  5
821
  8
0
  6
CONTINUOUS
 62
     7
 10
51.171373093310812
 20
61.750171895086218
 30
0.0
  0
VERTEX
  5
822
  8
0
  6
CONTINUOUS
 62
     7
 10
51.17848640691831
 20
61.807998450364067
 30
0.0
  0
VERTEX
  5
823
  8
0
  6
CONTINUOUS
 62
     7
 10
51.182266446868063
 20
61.836882771370199
 30
0.0
  0
VERTEX
  5
824
  8
0
  6
CONTINUOUS
 62
     7
 10
51.186187667857652
 20
61.86574707019696
 30
0.0
  0
VERTEX
  5
825
  8
0
  6
CONTINUOUS
 62
     7
 10
51.194430164213543
 20
61.923413562883951
 30
0.0
  0
VERTEX
  5
826
  8
0
  6
CONTINUOUS
 62
     7
 10
51.20316677208298
 20
61.980993996305251
 30
0.0
  0
VERTEX
  5
827
  8
0
  6
CONTINUOUS
 62
     7
 10
51.236963325930553
 20
62.181793298996162
 30
0.0
  0
VERTEX
  5
828
  8
0
  6
CONTINUOUS
 62
     7
 10
51.302204288436009
 20
62.522949213265719
 30
0.0
  0
VERTEX
  5
829
  8
0
  6
CONTINUOUS
 62
     7
 10
51.369799247307782
 20
62.859776887001992
 30
0.0
  0
VERTEX
  5
82A
  8
0
  6
CONTINUOUS
 62
     7
 10
51.433823993966463
 20
63.193887361162233
 30
0.0
  0
VERTEX
  5
82B
  8
0
  6
CONTINUOUS
 62
     7
 10
51.462852974459132
 20
63.359812055348577
 30
0.0
  0
VERTEX
  5
82C
  8
0
  6
CONTINUOUS
 62
     7
 10
51.489084062326953
 20
63.524845901411481
 30
0.0
  0
VERTEX
  5
82D
  8
0
  6
CONTINUOUS
 62
     7
 10
51.530818219160793
 20
63.851870430060131
 30
0.0
  0
VERTEX
  5
82E
  8
0
  6
CONTINUOUS
 62
     7
 10
51.547016995713321
 20
64.040367145283824
 30
0.0
  0
VERTEX
  5
82F
  8
0
  6
CONTINUOUS
 62
     7
 10
51.550360023629523
 20
64.093860972589994
 30
0.0
  0
VERTEX
  5
830
  8
0
  6
CONTINUOUS
 62
     7
 10
51.553087701825049
 20
64.147192094790142
 30
0.0
  0
VERTEX
  5
831
  8
0
  6
CONTINUOUS
 62
     7
 10
51.554213174335473
 20
64.173804695436218
 30
0.0
  0
VERTEX
  5
832
  8
0
  6
CONTINUOUS
 62
     7
 10
51.55517516224328
 20
64.200379622785732
 30
0.0
  0
VERTEX
  5
833
  8
0
  6
CONTINUOUS
 62
     7
 10
51.556594715391512
 20
64.25340724593832
 30
0.0
  0
VERTEX
  5
834
  8
0
  6
CONTINUOUS
 62
     7
 10
51.557318187357779
 20
64.306256718111456
 30
0.0
  0
VERTEX
  5
835
  8
0
  6
CONTINUOUS
 62
     7
 10
51.557409973255147
 20
64.332609023460549
 30
0.0
  0
SEQEND
  5
836
  8
0
  6
CONTINUOUS
 62
     7
  0
POLYLINE
  5
4A5
  8
0
  6
CONTINUOUS
 62
     7
 66
     1
 10
0.0
 20
0.0
 30
0.0
  0
VERTEX
  5
837
  8
0
  6
CONTINUOUS
 62
     7
 10
51.557409973255147
 20
64.332609023460549
 30
0.0
  0
VERTEX
  5
838
  8
0
  6
CONTINUOUS
 62
     7
 10
51.55728688639617
 20
64.362847663622517
 30
0.0
  0
VERTEX
  5
839
  8
0
  6
CONTINUOUS
 62
     7
 10
51.556285404583321
 20
64.423108294039395
 30
0.0
  0
VERTEX
  5
83A
  8
0
  6
CONTINUOUS
 62
     7
 10
51.55423778376769
 20
64.483084866678468
 30
0.0
  0
VERTEX
  5
83B
  8
0
  6
CONTINUOUS
 62
     7
 10
51.552806171622322
 20
64.512968246068112
 30
0.0
  0
SEQEND
  5
83C
  8
0
  6
CONTINUOUS
 62
     7
  0
POLYLINE
  5
4AA
  8
0
  6
CONTINUOUS
 62
     7
 66
     1
 10
0.0
 20
0.0
 30
0.0
  0
VERTEX
  5
83D
  8
0
  6
CONTINUOUS
 62
     7
 10
45.26384206058529
 20
64.512968246068084
 30
0.0
  0
VERTEX
  5
83E
  8
0
  6
CONTINUOUS
 62
     7
 10
45.262410730790293
 20
64.483091397021781
 30
0.0
  0
VERTEX
  5
83F
  8
0
  6
CONTINUOUS
 62
     7
 10
45.260363004472872
 20
64.423115304362852
 30
0.0
  0
VERTEX
  5
840
  8
0
  6
CONTINUOUS
 62
     7
 10
45.259361322990458
 20
64.362844874034224
 30
0.0
  0
VERTEX
  5
841
  8
0
  6
CONTINUOUS
 62
     7
 10
45.259238258952472
 20
64.332609023555591
 30
0.0
  0
SEQEND
  5
842
  8
0
  6
CONTINUOUS
 62
     7
  0
POLYLINE
  5
4AB
  8
0
  6
CONTINUOUS
 62
     7
 66
     1
 10
0.0
 20
0.0
 30
0.0
  0
VERTEX
  5
843
  8
0
  6
CONTINUOUS
 62
     7
 10
45.259238258952472
 20
64.332609023555591
 30
0.0
  0
VERTEX
  5
844
  8
0
  6
CONTINUOUS
 62
     7
 10
45.259334437286462
 20
64.305630829852504
 30
0.0
  0
VERTEX
  5
845
  8
0
  6
CONTINUOUS
 62
     7
 10
45.260091930853349
 20
64.251538814698563
 30
0.0
  0
VERTEX
  5
846
  8
0
  6
CONTINUOUS
 62
     7
 10
45.261578030546787
 20
64.197243835933875
 30
0.0
  0
VERTEX
  5
847
  8
0
  6
CONTINUOUS
 62
     7
 10
45.262587329480908
 20
64.169969821914435
 30
0.0
  0
VERTEX
  5
848
  8
0
  6
CONTINUOUS
 62
     7
 10
45.263770536460271
 20
64.142606778725863
 30
0.0
  0
VERTEX
  5
849
  8
0
  6
CONTINUOUS
 62
     7
 10
45.266647897230911
 20
64.087612991737473
 30
0.0
  0
VERTEX
  5
84A
  8
0
  6
CONTINUOUS
 62
     7
 10
45.270188957810348
 20
64.032261229693489
 30
0.0
  0
VERTEX
  5
84B
  8
0
  6
CONTINUOUS
 62
     7
 10
45.274373121057522
 20
63.976550230123252
 30
0.0
  0
VERTEX
  5
84C
  8
0
  6
CONTINUOUS
 62
     7
 10
45.279180235583617
 20
63.92047872633028
 30
0.0
  0
VERTEX
  5
84D
  8
0
  6
CONTINUOUS
 62
     7
 10
45.284590488515157
 20
63.86404545303651
 30
0.0
  0
VERTEX
  5
84E
  8
0
  6
CONTINUOUS
 62
     7
 10
45.287515667451537
 20
63.83569275773408
 30
0.0
  0
VERTEX
  5
84F
  8
0
  6
CONTINUOUS
 62
     7
 10
45.290584302263632
 20
63.807249145566153
 30
0.0
  0
VERTEX
  5
850
  8
0
  6
CONTINUOUS
 62
     7
 10
45.297142234346751
 20
63.750088533350088
 30
0.0
  0
VERTEX
  5
851
  8
0
  6
CONTINUOUS
 62
     7
 10
45.304244879259578
 20
63.692562328450173
 30
0.0
  0
VERTEX
  5
852
  8
0
  6
CONTINUOUS
 62
     7
 10
45.333111026961831
 20
63.488321955732147
 30
0.0
  0
VERTEX
  5
853
  8
0
  6
CONTINUOUS
 62
     7
 10
45.362321581873367
 20
63.309632325182662
 30
0.0
  0
VERTEX
  5
854
  8
0
  6
CONTINUOUS
 62
     7
 10
45.395039597001841
 20
63.127539761735143
 30
0.0
  0
VERTEX
  5
855
  8
0
  6
CONTINUOUS
 62
     7
 10
45.467247058230832
 20
62.757824092757062
 30
0.0
  0
VERTEX
  5
856
  8
0
  6
CONTINUOUS
 62
     7
 10
45.539370376291572
 20
62.396573963061627
 30
0.0
  0
VERTEX
  5
857
  8
0
  6
CONTINUOUS
 62
     7
 10
45.603061859291351
 20
62.046022075155243
 30
0.0
  0
VERTEX
  5
858
  8
0
  6
CONTINUOUS
 62
     7
 10
45.633206246500293
 20
61.845645978905388
 30
0.0
  0
VERTEX
  5
859
  8
0
  6
CONTINUOUS
 62
     7
 10
45.64066690766478
 20
61.788199470559647
 30
0.0
  0
VERTEX
  5
85A
  8
0
  6
CONTINUOUS
 62
     7
 10
45.647538654204247
 20
61.730607444203031
 30
0.0
  0
VERTEX
  5
85B
  8
0
  6
CONTINUOUS
 62
     7
 10
45.65073937288301
 20
61.70175476563827
 30
0.0
  0
VERTEX
  5
85C
  8
0
  6
CONTINUOUS
 62
     7
 10
45.653775807741738
 20
61.67286320718528
 30
0.0
  0
VERTEX
  5
85D
  8
0
  6
CONTINUOUS
 62
     7
 10
45.659333852984503
 20
61.614960194582871
 30
0.0
  0
VERTEX
  5
85E
  8
0
  6
CONTINUOUS
 62
     7
 10
45.664169797927357
 20
61.55689694653784
 30
0.0
  0
VERTEX
  5
85F
  8
0
  6
CONTINUOUS
 62
     7
 10
45.668236810393353
 20
61.498780108614341
 30
0.0
  0
VERTEX
  5
860
  8
0
  6
CONTINUOUS
 62
     7
 10
45.67150322517162
 20
61.440609432787483
 30
0.0
  0
VERTEX
  5
861
  8
0
  6
CONTINUOUS
 62
     7
 10
45.673944474585561
 20
61.382323992964103
 30
0.0
  0
VERTEX
  5
862
  8
0
  6
CONTINUOUS
 62
     7
 10
45.674847735855252
 20
61.353148787906939
 30
0.0
  0
VERTEX
  5
863
  8
0
  6
CONTINUOUS
 62
     7
 10
45.675535890441857
 20
61.3239728624485
 30
0.0
  0
VERTEX
  5
864
  8
0
  6
CONTINUOUS
 62
     7
 10
45.67626199575286
 20
61.265586176526739
 30
0.0
  0
VERTEX
  5
865
  8
0
  6
CONTINUOUS
 62
     7
 10
45.676115821354642
 20
61.207198661337372
 30
0.0
  0
VERTEX
  5
866
  8
0
  6
CONTINUOUS
 62
     7
 10
45.675715652028323
 20
61.178001294423503
 30
0.0
  0
VERTEX
  5
867
  8
0
  6
CONTINUOUS
 62
     7
 10
45.67509876481634
 20
61.14882152868617
 30
0.0
  0
VERTEX
  5
868
  8
0
  6
CONTINUOUS
 62
     7
 10
45.673220604756978
 20
61.090487992183228
 30
0.0
  0
VERTEX
  5
869
  8
0
  6
CONTINUOUS
 62
     7
 10
45.670499148684847
 20
61.032222220505837
 30
0.0
  0
VERTEX
  5
86A
  8
0
  6
CONTINUOUS
 62
     7
 10
45.668831142198712
 20
61.003144219890743
 30
0.0
  0
VERTEX
  5
86B
  8
0
  6
CONTINUOUS
 62
     7
 10
45.666962752940798
 20
60.974093953162367
 30
0.0
  0
VERTEX
  5
86C
  8
0
  6
CONTINUOUS
 62
     7
 10
45.662638927823302
 20
60.916049282991757
 30
0.0
  0
VERTEX
  5
86D
  8
0
  6
CONTINUOUS
 62
     7
 10
45.657557029281072
 20
60.858035553039429
 30
0.0
  0
VERTEX
  5
86E
  8
0
  6
CONTINUOUS
 62
     7
 10
45.651754838640102
 20
60.80006708962901
 30
0.0
  0
VERTEX
  5
86F
  8
0
  6
CONTINUOUS
 62
     7
 10
45.645275138901518
 20
60.74216712898837
 30
0.0
  0
VERTEX
  5
870
  8
0
  6
CONTINUOUS
 62
     7
 10
45.638161825294297
 20
60.684340573709498
 30
0.0
  0
VERTEX
  5
871
  8
0
  6
CONTINUOUS
 62
     7
 10
45.634381785344708
 20
60.655456252702862
 30
0.0
  0
VERTEX
  5
872
  8
0
  6
CONTINUOUS
 62
     7
 10
45.630460564355211
 20
60.626591953875618
 30
0.0
  0
VERTEX
  5
873
  8
0
  6
CONTINUOUS
 62
     7
 10
45.62221806799954
 20
60.568925461187632
 30
0.0
  0
VERTEX
  5
874
  8
0
  6
CONTINUOUS
 62
     7
 10
45.613481460130281
 20
60.511345027765337
 30
0.0
  0
VERTEX
  5
875
  8
0
  6
CONTINUOUS
 62
     7
 10
45.579684906282921
 20
60.310545725070988
 30
0.0
  0
VERTEX
  5
876
  8
0
  6
CONTINUOUS
 62
     7
 10
45.514443943777017
 20
59.96938981079591
 30
0.0
  0
VERTEX
  5
877
  8
0
  6
CONTINUOUS
 62
     7
 10
45.44684898490425
 20
59.632562137054578
 30
0.0
  0
VERTEX
  5
878
  8
0
  6
CONTINUOUS
 62
     7
 10
45.382824238244261
 20
59.298451662889313
 30
0.0
  0
VERTEX
  5
879
  8
0
  6
CONTINUOUS
 62
     7
 10
45.353795257750932
 20
59.132526968700461
 30
0.0
  0
VERTEX
  5
87A
  8
0
  6
CONTINUOUS
 62
     7
 10
45.327564169882457
 20
58.967493122635062
 30
0.0
  0
VERTEX
  5
87B
  8
0
  6
CONTINUOUS
 62
     7
 10
45.285830013047551
 20
58.640468593981552
 30
0.0
  0
VERTEX
  5
87C
  8
0
  6
CONTINUOUS
 62
     7
 10
45.269631236494597
 20
58.451971878755103
 30
0.0
  0
VERTEX
  5
87D
  8
0
  6
CONTINUOUS
 62
     7
 10
45.266288208578317
 20
58.39847805144813
 30
0.0
  0
VERTEX
  5
87E
  8
0
  6
CONTINUOUS
 62
     7
 10
45.263560530382698
 20
58.345146929247193
 30
0.0
  0
VERTEX
  5
87F
  8
0
  6
CONTINUOUS
 62
     7
 10
45.262435057872231
 20
58.318534328600713
 30
0.0
  0
VERTEX
  5
880
  8
0
  6
CONTINUOUS
 62
     7
 10
45.26147306996441
 20
58.291959401250779
 30
0.0
  0
VERTEX
  5
881
  8
0
  6
CONTINUOUS
 62
     7
 10
45.260053516816129
 20
58.238931778097403
 30
0.0
  0
VERTEX
  5
882
  8
0
  6
CONTINUOUS
 62
     7
 10
45.259330044849847
 20
58.186082305923463
 30
0.0
  0
VERTEX
  5
883
  8
0
  6
CONTINUOUS
 62
     7
 10
45.259238258952472
 20
58.159730000573973
 30
0.0
  0
SEQEND
  5
884
  8
0
  6
CONTINUOUS
 62
     7
  0
POLYLINE
  5
4AC
  8
0
  6
CONTINUOUS
 62
     7
 66
     1
 10
0.0
 20
0.0
 30
0.0
  0
VERTEX
  5
885
  8
0
  6
CONTINUOUS
 62
     7
 10
45.259238258952472
 20
58.159730000573973
 30
0.0
  0
VERTEX
  5
886
  8
0
  6
CONTINUOUS
 62
     7
 10
45.259361345811463
 20
58.12949136041194
 30
0.0
  0
VERTEX
  5
887
  8
0
  6
CONTINUOUS
 62
     7
 10
45.260362827624299
 20
58.069230729994949
 30
0.0
  0
VERTEX
  5
888
  8
0
  6
CONTINUOUS
 62
     7
 10
45.262410448439937
 20
58.009254157355912
 30
0.0
  0
VERTEX
  5
889
  8
0
  6
CONTINUOUS
 62
     7
 10
45.26384206058529
 20
57.979370777966409
 30
0.0
  0
SEQEND
  5
88A
  8
0
  6
CONTINUOUS
 62
     7
  0
LINE
  5
4BE
  8
0
  6
CONTINUOUS
 62
     7
 10
53.658324116103813
 20
66.356265270623965
 30
0.0
 11
53.430195152125243
 21
66.356265270623965
 31
0.0
  0
LINE
  5
4C1
  8
0
  6
CONTINUOUS
 62
     7
 10
43.386453080081822
 20
66.356265270623965
 30
0.0
 11
43.158324116103813
 21
66.356265270623965
 31
0.0
  0
LINE
  5
4CA
  8
1
 10
48.40832411610382
 20
44.014757340415137
 30
0.0
 11
48.40832411610382
 21
70.565601366912233
 31
0.0
  0
ARC
  5
4DD
  8
0
  6
CONTINUOUS
 62
     7
 10
104.9964073498885
 20
103.5518018792863
 30
0.0
 40
19.999999999999901
 50
172.14880965889509
 51
187.8511903411048
  0
ARC
  5
4DE
  8
0
  6
CONTINUOUS
 62
     7
 10
104.9964073498887
 20
103.5518018792863
 30
0.0
 40
19.99999999999984
 50
352.14880965889517
 51
7.8511903411048287
  0
ARC
  5
4DF
  8
0
  6
CONTINUOUS
 62
     7
 10
118.59640734988869
 20
117.3518018792852
 30
0.0
 40
16.999999999998899
 50
273.37228668343403
 51
280.29521541550378
  0
ARC
  5
4E0
  8
0
  6
CONTINUOUS
 62
     7
 10
120.59640734988859
 20
117.3518018792864
 30
0.0
 40
17.00000000000005
 50
251.28440123145651
 51
266.62771331656597
  0
ARC
  5
4E1
  8
0
  6
CONTINUOUS
 62
     7
 10
118.59640734988839
 20
89.75180187928504
 30
0.0
 40
17.000000000001311
 50
79.704784584496963
 51
86.627713316565945
  0
ARC
  5
4E2
  8
0
  6
CONTINUOUS
 62
     7
 10
120.59640734988869
 20
89.751801879285978
 30
0.0
 40
17.000000000000391
 50
93.372286683434055
 51
108.7155987685435
  0
ARC
  5
4E3
  8
0
  6
CONTINUOUS
 62
     7
 10
91.396407349888435
 20
89.751801879288166
 30
0.0
 40
16.999999999998199
 50
93.372286683434055
 51
100.2952154155038
  0
ARC
  5
4E4
  8
0
  6
CONTINUOUS
 62
     7
 10
89.396407349888577
 20
89.751801879286134
 30
0.0
 40
17.000000000000249
 50
71.284401231456485
 51
86.627713316565945
  0
ARC
  5
4E5
  8
0
  6
CONTINUOUS
 62
     7
 10
91.396407349888278
 20
117.3518018792839
 30
0.0
 40
16.99999999999752
 50
259.70478458449622
 51
266.62771331656671
  0
ARC
  5
4E6
  8
0
  6
CONTINUOUS
 62
     7
 10
89.396407349888534
 20
117.3518018792868
 30
0.0
 40
17.000000000000419
 50
273.37228668343403
 51
288.7155987685428
  0
POLYLINE
  5
4F1
  8
0
  6
CONTINUOUS
 62
     7
 66
     1
 10
0.0
 20
0.0
 30
0.0
  0
VERTEX
  5
88B
  8
0
  6
CONTINUOUS
 62
     7
 10
110.21835789696929
 20
107.8289191893263
 30
0.0
  0
VERTEX
  5
88C
  8
0
  6
CONTINUOUS
 62
     7
 10
110.1835734904049
 20
107.8710387830323
 30
0.0
  0
VERTEX
  5
88D
  8
0
  6
CONTINUOUS
 62
     7
 10
110.1132047006985
 20
107.9541745203453
 30
0.0
  0
VERTEX
  5
88E
  8
0
  6
CONTINUOUS
 62
     7
 10
110.04181421204311
 20
108.0358145460084
 30
0.0
  0
VERTEX
  5
88F
  8
0
  6
CONTINUOUS
 62
     7
 10
110.00575311813679
 20
108.07606479982191
 30
0.0
  0
VERTEX
  5
890
  8
0
  6
CONTINUOUS
 62
     7
 10
109.9694575693031
 20
108.115930658712
 30
0.0
  0
VERTEX
  5
891
  8
0
  6
CONTINUOUS
 62
     7
 10
109.8961920860941
 20
108.1944960905011
 30
0.0
  0
VERTEX
  5
892
  8
0
  6
CONTINUOUS
 62
     7
 10
109.8220767423734
 20
108.2714856520019
 30
0.0
  0
VERTEX
  5
893
  8
0
  6
CONTINUOUS
 62
     7
 10
109.74713400642879
 20
108.3469135813053
 30
0.0
  0
VERTEX
  5
894
  8
0
  6
CONTINUOUS
 62
     7
 10
109.6707963952399
 20
108.4213590514222
 30
0.0
  0
VERTEX
  5
895
  8
0
  6
CONTINUOUS
 62
     7
 10
109.5928727202274
 20
108.4949796122104
 30
0.0
  0
VERTEX
  5
896
  8
0
  6
CONTINUOUS
 62
     7
 10
109.5533234987091
 20
108.53146202959969
 30
0.0
  0
VERTEX
  5
897
  8
0
  6
CONTINUOUS
 62
     7
 10
109.5133868716414
 20
108.5677161528825
 30
0.0
  0
VERTEX
  5
898
  8
0
  6
CONTINUOUS
 62
     7
 10
109.4323646452616
 20
108.6395108797724
 30
0.0
  0
VERTEX
  5
899
  8
0
  6
CONTINUOUS
 62
     7
 10
109.3498336242923
 20
108.71030744517761
 30
0.0
  0
VERTEX
  5
89A
  8
0
  6
CONTINUOUS
 62
     7
 10
109.26582305336881
 20
108.7800510652832
 30
0.0
  0
VERTEX
  5
89B
  8
0
  6
CONTINUOUS
 62
     7
 10
109.1803637042193
 20
108.8486886276561
 30
0.0
  0
VERTEX
  5
89C
  8
0
  6
CONTINUOUS
 62
     7
 10
109.0934877325226
 20
108.9161687886462
 30
0.0
  0
VERTEX
  5
89D
  8
0
  6
CONTINUOUS
 62
     7
 10
109.0495289029835
 20
108.9494593041177
 30
0.0
  0
VERTEX
  5
89E
  8
0
  6
CONTINUOUS
 62
     7
 10
109.0052285255012
 20
108.98244206088179
 30
0.0
  0
VERTEX
  5
89F
  8
0
  6
CONTINUOUS
 62
     7
 10
108.91562053980719
 20
109.04746089090339
 30
0.0
  0
VERTEX
  5
8A0
  8
0
  6
CONTINUOUS
 62
     7
 10
108.8246991292785
 20
109.1111797268387
 30
0.0
  0
VERTEX
  5
8A1
  8
0
  6
CONTINUOUS
 62
     7
 10
108.77875713834641
 20
109.1425379737334
 30
0.0
  0
VERTEX
  5
8A2
  8
0
  6
CONTINUOUS
 62
     7
 10
108.7325003633993
 20
109.1735550750782
 30
0.0
  0
VERTEX
  5
8A3
  8
0
  6
CONTINUOUS
 62
     7
 10
108.63906104690879
 20
109.234545410679
 30
0.0
  0
VERTEX
  5
8A4
  8
0
  6
CONTINUOUS
 62
     7
 10
108.544419396314
 20
109.2941106935543
 30
0.0
  0
VERTEX
  5
8A5
  8
0
  6
CONTINUOUS
 62
     7
 10
108.4966600917699
 20
109.3233467974995
 30
0.0
  0
VERTEX
  5
8A6
  8
0
  6
CONTINUOUS
 62
     7
 10
108.44861527498161
 20
109.3522122476935
 30
0.0
  0
VERTEX
  5
8A7
  8
0
  6
CONTINUOUS
 62
     7
 10
108.3516900757617
 20
109.40881287718091
 30
0.0
  0
VERTEX
  5
8A8
  8
0
  6
CONTINUOUS
 62
     7
 10
108.2536865892329
 20
109.4638769766558
 30
0.0
  0
VERTEX
  5
8A9
  8
0
  6
CONTINUOUS
 62
     7
 10
108.1546488656947
 20
109.5173706306997
 30
0.0
  0
VERTEX
  5
8AA
  8
0
  6
CONTINUOUS
 62
     7
 10
108.054622070573
 20
109.5692617023503
 30
0.0
  0
VERTEX
  5
8AB
  8
0
  6
CONTINUOUS
 62
     7
 10
107.9536523328852
 20
109.6195199108482
 30
0.0
  0
VERTEX
  5
8AC
  8
0
  6
CONTINUOUS
 62
     7
 10
107.9028285004452
 20
109.6440277529385
 30
0.0
  0
VERTEX
  5
8AD
  8
0
  6
CONTINUOUS
 62
     7
 10
107.8517865864
 20
109.6681168986178
 30
0.0
  0
VERTEX
  5
8AE
  8
0
  6
CONTINUOUS
 62
     7
 10
107.74907240312611
 20
109.7150262873933
 30
0.0
  0
VERTEX
  5
8AF
  8
0
  6
CONTINUOUS
 62
     7
 10
107.64555781877731
 20
109.7602237232968
 30
0.0
  0
VERTEX
  5
8B0
  8
0
  6
CONTINUOUS
 62
     7
 10
107.54128889576231
 20
109.8036878281398
 30
0.0
  0
VERTEX
  5
8B1
  8
0
  6
CONTINUOUS
 62
     7
 10
107.43629303899731
 20
109.84540639689649
 30
0.0
  0
VERTEX
  5
8B2
  8
0
  6
CONTINUOUS
 62
     7
 10
107.3306143952927
 20
109.885361500004
 30
0.0
  0
VERTEX
  5
8B3
  8
0
  6
CONTINUOUS
 62
     7
 10
107.2775348105047
 20
109.9046719006564
 30
0.0
  0
VERTEX
  5
8B4
  8
0
  6
CONTINUOUS
 62
     7
 10
107.2243036271251
 20
109.92353462461359
 30
0.0
  0
VERTEX
  5
8B5
  8
0
  6
CONTINUOUS
 62
     7
 10
107.11741262743899
 20
109.9599089798741
 30
0.0
  0
VERTEX
  5
8B6
  8
0
  6
CONTINUOUS
 62
     7
 10
107.0099943646869
 20
109.99446959800621
 30
0.0
  0
VERTEX
  5
8B7
  8
0
  6
CONTINUOUS
 62
     7
 10
106.90210272292509
 20
110.02720342244849
 30
0.0
  0
VERTEX
  5
8B8
  8
0
  6
CONTINUOUS
 62
     7
 10
106.7937923368131
 20
110.0580993831496
 30
0.0
  0
VERTEX
  5
8B9
  8
0
  6
CONTINUOUS
 62
     7
 10
106.6851184213178
 20
110.0871484590197
 30
0.0
  0
VERTEX
  5
8BA
  8
0
  6
CONTINUOUS
 62
     7
 10
106.6306625102539
 20
110.10097816877639
 30
0.0
  0
VERTEX
  5
8BB
  8
0
  6
CONTINUOUS
 62
     7
 10
106.5761365958863
 20
110.1143437274835
 30
0.0
  0
VERTEX
  5
8BC
  8
0
  6
CONTINUOUS
 62
     7
 10
106.46690270282321
 20
110.13968040101069
 30
0.0
  0
VERTEX
  5
8BD
  8
0
  6
CONTINUOUS
 62
     7
 10
106.3574726195808
 20
110.16315585042101
 30
0.0
  0
VERTEX
  5
8BE
  8
0
  6
CONTINUOUS
 62
     7
 10
106.2479020663107
 20
110.184769614378
 30
0.0
  0
VERTEX
  5
8BF
  8
0
  6
CONTINUOUS
 62
     7
 10
106.1382466863014
 20
110.20452334721359
 30
0.0
  0
VERTEX
  5
8C0
  8
0
  6
CONTINUOUS
 62
     7
 10
106.02856294137599
 20
110.222420653805
 30
0.0
  0
VERTEX
  5
8C1
  8
0
  6
CONTINUOUS
 62
     7
 10
105.9737283778299
 20
110.2306748087815
 30
0.0
  0
VERTEX
  5
8C2
  8
0
  6
CONTINUOUS
 62
     7
 10
105.91890837841041
 20
110.238467105868
 30
0.0
  0
VERTEX
  5
8C3
  8
0
  6
CONTINUOUS
 62
     7
 10
105.8093414512382
 20
110.2526703414234
 30
0.0
  0
VERTEX
  5
8C4
  8
0
  6
CONTINUOUS
 62
     7
 10
105.6999213315311
 20
110.2650401498703
 30
0.0
  0
VERTEX
  5
8C5
  8
0
  6
CONTINUOUS
 62
     7
 10
105.5907077185629
 20
110.27558854096689
 30
0.0
  0
VERTEX
  5
8C6
  8
0
  6
CONTINUOUS
 62
     7
 10
105.4817606478877
 20
110.2843297979898
 30
0.0
  0
VERTEX
  5
8C7
  8
0
  6
CONTINUOUS
 62
     7
 10
105.37314029884919
 20
110.29128051529131
 30
0.0
  0
VERTEX
  5
8C8
  8
0
  6
CONTINUOUS
 62
     7
 10
105.3189714426323
 20
110.29409024497291
 30
0.0
  0
VERTEX
  5
8C9
  8
0
  6
CONTINUOUS
 62
     7
 10
105.26490680072629
 20
110.29645962041
 30
0.0
  0
VERTEX
  5
8CA
  8
0
  6
CONTINUOUS
 62
     7
 10
105.157120037214
 20
110.2998883808164
 30
0.0
  0
VERTEX
  5
8CB
  8
0
  6
CONTINUOUS
 62
     7
 10
105.0498394488352
 20
110.301590395292
 30
0.0
  0
VERTEX
  5
8CC
  8
0
  6
CONTINUOUS
 62
     7
 10
104.9964073751065
 20
110.3018018792863
 30
0.0
  0
VERTEX
  5
8CD
  8
0
  6
CONTINUOUS
 62
     7
 10
104.94297530151481
 20
110.3015903956924
 30
0.0
  0
VERTEX
  5
8CE
  8
0
  6
CONTINUOUS
 62
     7
 10
104.8356947133891
 20
110.29988838202689
 30
0.0
  0
VERTEX
  5
8CF
  8
0
  6
CONTINUOUS
 62
     7
 10
104.72790795010209
 20
110.2964596224423
 30
0.0
  0
VERTEX
  5
8D0
  8
0
  6
CONTINUOUS
 62
     7
 10
104.6738433082982
 20
110.2940902474202
 30
0.0
  0
VERTEX
  5
8D1
  8
0
  6
CONTINUOUS
 62
     7
 10
104.6196744521761
 20
110.291280518156
 30
0.0
  0
VERTEX
  5
8D2
  8
0
  6
CONTINUOUS
 62
     7
 10
104.51105410330629
 20
110.2843298016965
 30
0.0
  0
VERTEX
  5
8D3
  8
0
  6
CONTINUOUS
 62
     7
 10
104.4021070327713
 20
110.2755885455239
 30
0.0
  0
VERTEX
  5
8D4
  8
0
  6
CONTINUOUS
 62
     7
 10
104.2928934199149
 20
110.26504015528489
 30
0.0
  0
VERTEX
  5
8D5
  8
0
  6
CONTINUOUS
 62
     7
 10
104.1834733002912
 20
110.25267034770179
 30
0.0
  0
VERTEX
  5
8D6
  8
0
  6
CONTINUOUS
 62
     7
 10
104.0739063731743
 20
110.2384671130154
 30
0.0
  0
VERTEX
  5
8D7
  8
0
  6
CONTINUOUS
 62
     7
 10
104.0190863737721
 20
110.2306748163651
 30
0.0
  0
VERTEX
  5
8D8
  8
0
  6
CONTINUOUS
 62
     7
 10
103.96425181023631
 20
110.22242066182559
 30
0.0
  0
VERTEX
  5
8D9
  8
0
  6
CONTINUOUS
 62
     7
 10
103.8545680653111
 20
110.2045233561103
 30
0.0
  0
VERTEX
  5
8DA
  8
0
  6
CONTINUOUS
 62
     7
 10
103.7449126852749
 20
110.1847696241532
 30
0.0
  0
VERTEX
  5
8DB
  8
0
  6
CONTINUOUS
 62
     7
 10
103.6353421319515
 20
110.16315586107569
 30
0.0
  0
VERTEX
  5
8DC
  8
0
  6
CONTINUOUS
 62
     7
 10
103.52591204862961
 20
110.1396804125454
 30
0.0
  0
VERTEX
  5
8DD
  8
0
  6
CONTINUOUS
 62
     7
 10
103.4166781554606
 20
110.11434373989739
 30
0.0
  0
VERTEX
  5
8DE
  8
0
  6
CONTINUOUS
 62
     7
 10
103.3621522410301
 20
110.1009781816292
 30
0.0
  0
VERTEX
  5
8DF
  8
0
  6
CONTINUOUS
 62
     7
 10
103.3076963298968
 20
110.0871484723109
 30
0.0
  0
VERTEX
  5
8E0
  8
0
  6
CONTINUOUS
 62
     7
 10
103.19902241424271
 20
110.0580993973155
 30
0.0
  0
VERTEX
  5
8E1
  8
0
  6
CONTINUOUS
 62
     7
 10
103.0907120279459
 20
110.0272034374853
 30
0.0
  0
VERTEX
  5
8E2
  8
0
  6
CONTINUOUS
 62
     7
 10
102.9828203859732
 20
109.9944696139092
 30
0.0
  0
VERTEX
  5
8E3
  8
0
  6
CONTINUOUS
 62
     7
 10
102.8754021229846
 20
109.95990899663749
 30
0.0
  0
VERTEX
  5
8E4
  8
0
  6
CONTINUOUS
 62
     7
 10
102.7685111230367
 20
109.92353464223071
 30
0.0
  0
VERTEX
  5
8E5
  8
0
  6
CONTINUOUS
 62
     7
 10
102.7152799395169
 20
109.9046719186977
 30
0.0
  0
VERTEX
  5
8E6
  8
0
  6
CONTINUOUS
 62
     7
 10
102.6622003545825
 20
109.8853615184675
 30
0.0
  0
VERTEX
  5
8E7
  8
0
  6
CONTINUOUS
 62
     7
 10
102.5565217105671
 20
109.8454064161978
 30
0.0
  0
VERTEX
  5
8E8
  8
0
  6
CONTINUOUS
 62
     7
 10
102.4515258534677
 20
109.80368784827
 30
0.0
  0
VERTEX
  5
8E9
  8
0
  6
CONTINUOUS
 62
     7
 10
102.3472569301033
 20
109.7602237442494
 30
0.0
  0
VERTEX
  5
8EA
  8
0
  6
CONTINUOUS
 62
     7
 10
102.2437423453876
 20
109.71502630916029
 30
0.0
  0
VERTEX
  5
8EB
  8
0
  6
CONTINUOUS
 62
     7
 10
102.14102816172409
 20
109.6681169211884
 30
0.0
  0
VERTEX
  5
8EC
  8
0
  6
CONTINUOUS
 62
     7
 10
102.08998624747549
 20
109.64402777590639
 30
0.0
  0
VERTEX
  5
8ED
  8
0
  6
CONTINUOUS
 62
     7
 10
102.03916241482651
 20
109.6195199342103
 30
0.0
  0
VERTEX
  5
8EE
  8
0
  6
CONTINUOUS
 62
     7
 10
101.9381926767042
 20
109.56926172649089
 30
0.0
  0
VERTEX
  5
8EF
  8
0
  6
CONTINUOUS
 62
     7
 10
101.8381658811259
 20
109.51737065560501
 30
0.0
  0
VERTEX
  5
8F0
  8
0
  6
CONTINUOUS
 62
     7
 10
101.7391281571095
 20
109.46387700231109
 30
0.0
  0
VERTEX
  5
8F1
  8
0
  6
CONTINUOUS
 62
     7
 10
101.6411246700814
 20
109.40881290357051
 30
0.0
  0
VERTEX
  5
8F2
  8
0
  6
CONTINUOUS
 62
     7
 10
101.5441994703417
 20
109.352212274801
 30
0.0
  0
VERTEX
  5
8F3
  8
0
  6
CONTINUOUS
 62
     7
 10
101.4961546532859
 20
109.3233468249595
 30
0.0
  0
VERTEX
  5
8F4
  8
0
  6
CONTINUOUS
 62
     7
 10
101.4483953484695
 20
109.2941107213625
 30
0.0
  0
VERTEX
  5
8F5
  8
0
  6
CONTINUOUS
 62
     7
 10
101.3537536973158
 20
109.23454543916991
 30
0.0
  0
VERTEX
  5
8F6
  8
0
  6
CONTINUOUS
 62
     7
 10
101.26031438024791
 20
109.1735551042333
 30
0.0
  0
VERTEX
  5
8F7
  8
0
  6
CONTINUOUS
 62
     7
 10
101.21405760500539
 20
109.1425380032133
 30
0.0
  0
VERTEX
  5
8F8
  8
0
  6
CONTINUOUS
 62
     7
 10
101.16811561377359
 20
109.11117975663861
 30
0.0
  0
VERTEX
  5
8F9
  8
0
  6
CONTINUOUS
 62
     7
 10
101.0771942026326
 20
109.0474609213281
 30
0.0
  0
VERTEX
  5
8FA
  8
0
  6
CONTINUOUS
 62
     7
 10
100.9875862163094
 20
108.9824420919103
 30
0.0
  0
VERTEX
  5
8FB
  8
0
  6
CONTINUOUS
 62
     7
 10
100.9432858385064
 20
108.94945933544
 30
0.0
  0
VERTEX
  5
8FC
  8
0
  6
CONTINUOUS
 62
     7
 10
100.8993270086424
 20
108.9161688202565
 30
0.0
  0
VERTEX
  5
8FD
  8
0
  6
CONTINUOUS
 62
     7
 10
100.812451036284
 20
108.8486886598253
 30
0.0
  0
VERTEX
  5
8FE
  8
0
  6
CONTINUOUS
 62
     7
 10
100.7269916864574
 20
108.7800510979874
 30
0.0
  0
VERTEX
  5
8FF
  8
0
  6
CONTINUOUS
 62
     7
 10
100.6429811148417
 20
108.7103074783921
 30
0.0
  0
VERTEX
  5
900
  8
0
  6
CONTINUOUS
 62
     7
 10
100.5604500931661
 20
108.6395109134717
 30
0.0
  0
VERTEX
  5
901
  8
0
  6
CONTINUOUS
 62
     7
 10
100.4794278660666
 20
108.5677161870403
 30
0.0
  0
VERTEX
  5
902
  8
0
  6
CONTINUOUS
 62
     7
 10
100.4394912386343
 20
108.5314620639768
 30
0.0
  0
VERTEX
  5
903
  8
0
  6
CONTINUOUS
 62
     7
 10
100.3999420167483
 20
108.49497964679981
 30
0.0
  0
VERTEX
  5
904
  8
0
  6
CONTINUOUS
 62
     7
 10
100.3220183409916
 20
108.42135908641551
 30
0.0
  0
VERTEX
  5
905
  8
0
  6
CONTINUOUS
 62
     7
 10
100.2456807290479
 20
108.3469136166742
 30
0.0
  0
VERTEX
  5
906
  8
0
  6
CONTINUOUS
 62
     7
 10
100.17073799262261
 20
108.27148568801169
 30
0.0
  0
VERTEX
  5
907
  8
0
  6
CONTINUOUS
 62
     7
 10
100.0966226485145
 20
108.1944961272614
 30
0.0
  0
VERTEX
  5
908
  8
0
  6
CONTINUOUS
 62
     7
 10
100.02335716489
 20
108.11593069621129
 30
0.0
  0
VERTEX
  5
909
  8
0
  6
CONTINUOUS
 62
     7
 10
99.987061615838087
 20
108.0760648376863
 30
0.0
  0
VERTEX
  5
90A
  8
0
  6
CONTINUOUS
 62
     7
 10
99.951000521706916
 20
108.0358145842346
 30
0.0
  0
VERTEX
  5
90B
  8
0
  6
CONTINUOUS
 62
     7
 10
99.879610032581766
 20
107.95417455928531
 30
0.0
  0
VERTEX
  5
90C
  8
0
  6
CONTINUOUS
 62
     7
 10
99.809241242379784
 20
107.8710388226725
 30
0.0
  0
VERTEX
  5
90D
  8
0
  6
CONTINUOUS
 62
     7
 10
99.774456835558126
 20
107.8289192293111
 30
0.0
  0
SEQEND
  5
90E
  8
0
  6
CONTINUOUS
 62
     7
  0
POLYLINE
  5
4F2
  8
0
  6
CONTINUOUS
 62
     7
 66
     1
 10
0.0
 20
0.0
 30
0.0
  0
VERTEX
  5
90F
  8
0
  6
CONTINUOUS
 62
     7
 10
99.774456750922127
 20
99.27468463259396
 30
0.0
  0
VERTEX
  5
910
  8
0
  6
CONTINUOUS
 62
     7
 10
99.809241157788009
 20
99.232565037490275
 30
0.0
  0
VERTEX
  5
911
  8
0
  6
CONTINUOUS
 62
     7
 10
99.879609948159143
 20
99.149429297410251
 30
0.0
  0
VERTEX
  5
912
  8
0
  6
CONTINUOUS
 62
     7
 10
99.95100043756014
 20
99.067789269019954
 30
0.0
  0
VERTEX
  5
913
  8
0
  6
CONTINUOUS
 62
     7
 10
99.987061531868832
 20
99.027539013858714
 30
0.0
  0
VERTEX
  5
914
  8
0
  6
CONTINUOUS
 62
     7
 10
100.0233570811243
 20
98.987673153631945
 30
0.0
  0
VERTEX
  5
915
  8
0
  6
CONTINUOUS
 62
     7
 10
100.0966225652338
 20
98.909107719203746
 30
0.0
  0
VERTEX
  5
916
  8
0
  6
CONTINUOUS
 62
     7
 10
100.1707379099286
 20
98.832118155112013
 30
0.0
  0
VERTEX
  5
917
  8
0
  6
CONTINUOUS
 62
     7
 10
100.2456806467591
 20
98.756690223425466
 30
0.0
  0
VERTEX
  5
918
  8
0
  6
CONTINUOUS
 62
     7
 10
100.3220182585289
 20
98.682244751314926
 30
0.0
  0
VERTEX
  5
919
  8
0
  6
CONTINUOUS
 62
     7
 10
100.3999419342004
 20
98.608624188530882
 30
0.0
  0
VERTEX
  5
91A
  8
0
  6
CONTINUOUS
 62
     7
 10
100.43949115607739
 20
98.572141770144256
 30
0.0
  0
VERTEX
  5
91B
  8
0
  6
CONTINUOUS
 62
     7
 10
100.47942778352309
 20
98.535887645865216
 30
0.0
  0
VERTEX
  5
91C
  8
0
  6
CONTINUOUS
 62
     7
 10
100.56045001071681
 20
98.464092916988264
 30
0.0
  0
VERTEX
  5
91D
  8
0
  6
CONTINUOUS
 62
     7
 10
100.6429810325766
 20
98.393296349606715
 30
0.0
  0
VERTEX
  5
91E
  8
0
  6
CONTINUOUS
 62
     7
 10
100.72699160446621
 20
98.323552727539749
 30
0.0
  0
VERTEX
  5
91F
  8
0
  6
CONTINUOUS
 62
     7
 10
100.812450954656
 20
98.254915163224524
 30
0.0
  0
VERTEX
  5
920
  8
0
  6
CONTINUOUS
 62
     7
 10
100.89932692746621
 20
98.187435000315133
 30
0.0
  0
VERTEX
  5
921
  8
0
  6
CONTINUOUS
 62
     7
 10
100.94328575758909
 20
98.154144483893873
 30
0.0
  0
VERTEX
  5
922
  8
0
  6
CONTINUOUS
 62
     7
 10
100.9875861356727
 20
98.121161726187239
 30
0.0
  0
VERTEX
  5
923
  8
0
  6
CONTINUOUS
 62
     7
 10
101.07719412262171
 20
98.056142894304074
 30
0.0
  0
VERTEX
  5
924
  8
0
  6
CONTINUOUS
 62
     7
 10
101.1681155344736
 20
97.99242405654158
 30
0.0
  0
VERTEX
  5
925
  8
0
  6
CONTINUOUS
 62
     7
 10
101.2140575260922
 20
97.961065808747193
 30
0.0
  0
VERTEX
  5
926
  8
0
  6
CONTINUOUS
 62
     7
 10
101.2603143017421
 20
97.930048706512622
 30
0.0
  0
VERTEX
  5
927
  8
0
  6
CONTINUOUS
 62
     7
 10
101.3537536196863
 20
97.869058369163554
 30
0.0
  0
VERTEX
  5
928
  8
0
  6
CONTINUOUS
 62
     7
 10
101.4483952717973
 20
97.809493084583835
 30
0.0
  0
VERTEX
  5
929
  8
0
  6
CONTINUOUS
 62
     7
 10
101.4961545771224
 20
97.780256979803823
 30
0.0
  0
VERTEX
  5
92A
  8
0
  6
CONTINUOUS
 62
     7
 10
101.54419939470669
 20
97.75139152878711
 30
0.0
  0
VERTEX
  5
92B
  8
0
  6
CONTINUOUS
 62
     7
 10
101.6411245955622
 20
97.694790897691746
 30
0.0
  0
VERTEX
  5
92C
  8
0
  6
CONTINUOUS
 62
     7
 10
101.7391280837831
 20
97.639726796661023
 30
0.0
  0
VERTEX
  5
92D
  8
0
  6
CONTINUOUS
 62
     7
 10
101.8381658090675
 20
97.586233141116296
 30
0.0
  0
VERTEX
  5
92E
  8
0
  6
CONTINUOUS
 62
     7
 10
101.9381926059871
 20
97.534342068021857
 30
0.0
  0
VERTEX
  5
92F
  8
0
  6
CONTINUOUS
 62
     7
 10
102.0391623455217
 20
97.484083858139812
 30
0.0
  0
VERTEX
  5
930
  8
0
  6
CONTINUOUS
 62
     7
 10
102.08998617890271
 20
97.459576015380364
 30
0.0
  0
VERTEX
  5
931
  8
0
  6
CONTINUOUS
 62
     7
 10
102.1410280939002
 20
97.435486869047665
 30
0.0
  0
VERTEX
  5
932
  8
0
  6
CONTINUOUS
 62
     7
 10
102.2437422791109
 20
97.388577479013378
 30
0.0
  0
VERTEX
  5
933
  8
0
  6
CONTINUOUS
 62
     7
 10
102.3472568654371
 20
97.343380041916546
 30
0.0
  0
VERTEX
  5
934
  8
0
  6
CONTINUOUS
 62
     7
 10
102.45152579046599
 20
97.299915935948107
 30
0.0
  0
VERTEX
  5
935
  8
0
  6
CONTINUOUS
 62
     7
 10
102.5565216492782
 20
97.258197366135164
 30
0.0
  0
VERTEX
  5
936
  8
0
  6
CONTINUOUS
 62
     7
 10
102.6622002950633
 20
97.218242262040803
 30
0.0
  0
VERTEX
  5
937
  8
0
  6
CONTINUOUS
 62
     7
 10
102.715279880903
 20
97.198931860921476
 30
0.0
  0
VERTEX
  5
938
  8
0
  6
CONTINUOUS
 62
     7
 10
102.7685110653416
 20
97.180069136515215
 30
0.0
  0
VERTEX
  5
939
  8
0
  6
CONTINUOUS
 62
     7
 10
102.8754020671655
 20
97.143694780410712
 30
0.0
  0
VERTEX
  5
93A
  8
0
  6
CONTINUOUS
 62
     7
 10
102.9828203320794
 20
97.109134161507455
 30
0.0
  0
VERTEX
  5
93B
  8
0
  6
CONTINUOUS
 62
     7
 10
103.0907119760238
 20
97.076400336367925
 30
0.0
  0
VERTEX
  5
93C
  8
0
  6
CONTINUOUS
 62
     7
 10
103.1990223643357
 20
97.045504375044075
 30
0.0
  0
VERTEX
  5
93D
  8
0
  6
CONTINUOUS
 62
     7
 10
103.3076962820451
 20
97.016455298626454
 30
0.0
  0
VERTEX
  5
93E
  8
0
  6
CONTINUOUS
 62
     7
 10
103.3621521942202
 20
97.002625588624184
 30
0.0
  0
VERTEX
  5
93F
  8
0
  6
CONTINUOUS
 62
     7
 10
103.41667810970139
 20
96.989260029690456
 30
0.0
  0
VERTEX
  5
940
  8
0
  6
CONTINUOUS
 62
     7
 10
103.5259120049964
 20
96.963923355766781
 30
0.0
  0
VERTEX
  5
941
  8
0
  6
CONTINUOUS
 62
     7
 10
103.63534209047459
 20
96.940447906035786
 30
0.0
  0
VERTEX
  5
942
  8
0
  6
CONTINUOUS
 62
     7
 10
103.7449126459811
 20
96.918834141833443
 30
0.0
  0
VERTEX
  5
943
  8
0
  6
CONTINUOUS
 62
     7
 10
103.8545680282237
 20
96.899080408827814
 30
0.0
  0
VERTEX
  5
944
  8
0
  6
CONTINUOUS
 62
     7
 10
103.964251775376
 20
96.881183102141151
 30
0.0
  0
VERTEX
  5
945
  8
0
  6
CONTINUOUS
 62
     7
 10
104.0190863400319
 20
96.872928947144828
 30
0.0
  0
VERTEX
  5
946
  8
0
  6
CONTINUOUS
 62
     7
 10
104.0739063405582
 20
96.865136650057025
 30
0.0
  0
VERTEX
  5
947
  8
0
  6
CONTINUOUS
 62
     7
 10
104.1834732699332
 20
96.850933414553836
 30
0.0
  0
VERTEX
  5
948
  8
0
  6
CONTINUOUS
 62
     7
 10
104.2928933918256
 20
96.838563606231375
 30
0.0
  0
VERTEX
  5
949
  8
0
  6
CONTINUOUS
 62
     7
 10
104.40210700695781
 20
96.828015215330353
 30
0.0
  0
VERTEX
  5
94A
  8
0
  6
CONTINUOUS
 62
     7
 10
104.5110540797718
 20
96.819273958572865
 30
0.0
  0
VERTEX
  5
94B
  8
0
  6
CONTINUOUS
 62
     7
 10
104.6196744309205
 20
96.812323241604815
 30
0.0
  0
VERTEX
  5
94C
  8
0
  6
CONTINUOUS
 62
     7
 10
104.67384328818071
 20
96.809513512114989
 30
0.0
  0
VERTEX
  5
94D
  8
0
  6
CONTINUOUS
 62
     7
 10
104.72790793112139
 20
96.807144136885981
 30
0.0
  0
VERTEX
  5
94E
  8
0
  6
CONTINUOUS
 62
     7
 10
104.8356946966757
 20
96.803715376943842
 30
0.0
  0
VERTEX
  5
94F
  8
0
  6
CONTINUOUS
 62
     7
 10
104.94297528705729
 20
96.802013362994785
 30
0.0
  0
VERTEX
  5
950
  8
0
  6
CONTINUOUS
 62
     7
 10
104.9964073617716
 20
96.801801879286359
 30
0.0
  0
VERTEX
  5
951
  8
0
  6
CONTINUOUS
 62
     7
 10
105.0498394365504
 20
96.80201336318342
 30
0.0
  0
VERTEX
  5
952
  8
0
  6
CONTINUOUS
 62
     7
 10
105.15712002705121
 20
96.803715377514237
 30
0.0
  0
VERTEX
  5
953
  8
0
  6
CONTINUOUS
 62
     7
 10
105.2649067927116
 20
96.807144137843608
 30
0.0
  0
VERTEX
  5
954
  8
0
  6
CONTINUOUS
 62
     7
 10
105.3189714357004
 20
96.809513513268186
 30
0.0
  0
VERTEX
  5
955
  8
0
  6
CONTINUOUS
 62
     7
 10
105.37314029300541
 20
96.812323242954733
 30
0.0
  0
VERTEX
  5
956
  8
0
  6
CONTINUOUS
 62
     7
 10
105.4817606442335
 20
96.819273960319507
 30
0.0
  0
VERTEX
  5
957
  8
0
  6
CONTINUOUS
 62
     7
 10
105.5907077171137
 20
96.828015217477684
 30
0.0
  0
VERTEX
  5
958
  8
0
  6
CONTINUOUS
 62
     7
 10
105.6999213322985
 20
96.838563608782778
 30
0.0
  0
VERTEX
  5
959
  8
0
  6
CONTINUOUS
 62
     7
 10
105.80934145423021
 20
96.850933417512294
 30
0.0
  0
VERTEX
  5
95A
  8
0
  6
CONTINUOUS
 62
     7
 10
105.9189083836313
 20
96.865136653424997
 30
0.0
  0
VERTEX
  5
95B
  8
0
  6
CONTINUOUS
 62
     7
 10
105.9737283841657
 20
96.87292895071829
 30
0.0
  0
VERTEX
  5
95C
  8
0
  6
CONTINUOUS
 62
     7
 10
106.0285629488265
 20
96.881183105920513
 30
0.0
  0
VERTEX
  5
95D
  8
0
  6
CONTINUOUS
 62
     7
 10
106.13824669597879
 20
96.899080413020073
 30
0.0
  0
VERTEX
  5
95E
  8
0
  6
CONTINUOUS
 62
     7
 10
106.2479020782088
 20
96.918834146439565
 30
0.0
  0
VERTEX
  5
95F
  8
0
  6
CONTINUOUS
 62
     7
 10
106.35747263369019
 20
96.940447911056395
 30
0.0
  0
VERTEX
  5
960
  8
0
  6
CONTINUOUS
 62
     7
 10
106.4669027191309
 20
96.963923361202035
 30
0.0
  0
VERTEX
  5
961
  8
0
  6
CONTINUOUS
 62
     7
 10
106.576136614376
 20
96.989260035539985
 30
0.0
  0
VERTEX
  5
962
  8
0
  6
CONTINUOUS
 62
     7
 10
106.6306625298276
 20
97.00262559468058
 30
0.0
  0
VERTEX
  5
963
  8
0
  6
CONTINUOUS
 62
     7
 10
106.68511844196991
 20
97.016455304889433
 30
0.0
  0
VERTEX
  5
964
  8
0
  6
CONTINUOUS
 62
     7
 10
106.7937923596045
 20
97.045504381719212
 30
0.0
  0
VERTEX
  5
965
  8
0
  6
CONTINUOUS
 62
     7
 10
106.9021027478293
 20
97.076400343453429
 30
0.0
  0
VERTEX
  5
966
  8
0
  6
CONTINUOUS
 62
     7
 10
107.0099943916743
 20
97.109134169001095
 30
0.0
  0
VERTEX
  5
967
  8
0
  6
CONTINUOUS
 62
     7
 10
107.1174126564768
 20
97.143694788309773
 30
0.0
  0
VERTEX
  5
968
  8
0
  6
CONTINUOUS
 62
     7
 10
107.2243036581774
 20
97.180069144816613
 30
0.0
  0
VERTEX
  5
969
  8
0
  6
CONTINUOUS
 62
     7
 10
107.2775348425499
 20
97.198931869422722
 30
0.0
  0
VERTEX
  5
96A
  8
0
  6
CONTINUOUS
 62
     7
 10
107.3306144283206
 20
97.218242270740973
 30
0.0
  0
VERTEX
  5
96B
  8
0
  6
CONTINUOUS
 62
     7
 10
107.43629307395921
 20
97.258197375230182
 30
0.0
  0
VERTEX
  5
96C
  8
0
  6
CONTINUOUS
 62
     7
 10
107.5412889326139
 20
97.299915945433625
 30
0.0
  0
VERTEX
  5
96D
  8
0
  6
CONTINUOUS
 62
     7
 10
107.6455578574781
 20
97.343380051789623
 30
0.0
  0
VERTEX
  5
96E
  8
0
  6
CONTINUOUS
 62
     7
 10
107.7490724436315
 20
97.388577489270261
 30
0.0
  0
VERTEX
  5
96F
  8
0
  6
CONTINUOUS
 62
     7
 10
107.8517866286585
 20
97.435486879683168
 30
0.0
  0
VERTEX
  5
970
  8
0
  6
CONTINUOUS
 62
     7
 10
107.9028285435602
 20
97.459576026203081
 30
0.0
  0
VERTEX
  5
971
  8
0
  6
CONTINUOUS
 62
     7
 10
107.9536523768428
 20
97.48408386914825
 30
0.0
  0
VERTEX
  5
972
  8
0
  6
CONTINUOUS
 62
     7
 10
108.0546221161726
 20
97.534342079397192
 30
0.0
  0
VERTEX
  5
973
  8
0
  6
CONTINUOUS
 62
     7
 10
108.15464891287699
 20
97.586233152851946
 30
0.0
  0
VERTEX
  5
974
  8
0
  6
CONTINUOUS
 62
     7
 10
108.2536866379361
 20
97.639726808750083
 30
0.0
  0
VERTEX
  5
975
  8
0
  6
CONTINUOUS
 62
     7
 10
108.35169012592171
 20
97.694790910126827
 30
0.0
  0
VERTEX
  5
976
  8
0
  6
CONTINUOUS
 62
     7
 10
108.44861532653231
 20
97.751391541560452
 30
0.0
  0
VERTEX
  5
977
  8
0
  6
CONTINUOUS
 62
     7
 10
108.4966601439905
 20
97.780256992743304
 30
0.0
  0
VERTEX
  5
978
  8
0
  6
CONTINUOUS
 62
     7
 10
108.5444194491874
 20
97.809493097687366
 30
0.0
  0
VERTEX
  5
979
  8
0
  6
CONTINUOUS
 62
     7
 10
108.639061101035
 20
97.869058382588776
 30
0.0
  0
VERTEX
  5
97A
  8
0
  6
CONTINUOUS
 62
     7
 10
108.7325004187071
 20
97.930048720250795
 30
0.0
  0
VERTEX
  5
97B
  8
0
  6
CONTINUOUS
 62
     7
 10
108.7787571942178
 20
97.961065822638488
 30
0.0
  0
VERTEX
  5
97C
  8
0
  6
CONTINUOUS
 62
     7
 10
108.8246991856952
 20
97.992424070583652
 30
0.0
  0
VERTEX
  5
97D
  8
0
  6
CONTINUOUS
 62
     7
 10
108.9156205972586
 20
98.056142908640567
 30
0.0
  0
VERTEX
  5
97E
  8
0
  6
CONTINUOUS
 62
     7
 10
109.0052285839112
 20
98.121161740808247
 30
0.0
  0
VERTEX
  5
97F
  8
0
  6
CONTINUOUS
 62
     7
 10
109.04952896184361
 20
98.154144498653267
 30
0.0
  0
VERTEX
  5
980
  8
0
  6
CONTINUOUS
 62
     7
 10
109.0934877918134
 20
98.187435015210298
 30
0.0
  0
VERTEX
  5
981
  8
0
  6
CONTINUOUS
 62
     7
 10
109.18036376431181
 20
98.254915178382987
 30
0.0
  0
VERTEX
  5
982
  8
0
  6
CONTINUOUS
 62
     7
 10
109.2658231141825
 20
98.323552742950341
 30
0.0
  0
VERTEX
  5
983
  8
0
  6
CONTINUOUS
 62
     7
 10
109.34983368574601
 20
98.393296365257754
 30
0.0
  0
VERTEX
  5
984
  8
0
  6
CONTINUOUS
 62
     7
 10
109.4323647072729
 20
98.464092932867743
 30
0.0
  0
VERTEX
  5
985
  8
0
  6
CONTINUOUS
 62
     7
 10
109.5133869341275
 20
98.535887661960771
 30
0.0
  0
VERTEX
  5
986
  8
0
  6
CONTINUOUS
 62
     7
 10
109.5533235614014
 20
98.572141786343082
 30
0.0
  0
VERTEX
  5
987
  8
0
  6
CONTINUOUS
 62
     7
 10
109.59287278310509
 20
98.608624204829795
 30
0.0
  0
VERTEX
  5
988
  8
0
  6
CONTINUOUS
 62
     7
 10
109.670796458426
 20
98.682244767804193
 30
0.0
  0
VERTEX
  5
989
  8
0
  6
CONTINUOUS
 62
     7
 10
109.74713406984
 20
98.756690240091771
 30
0.0
  0
VERTEX
  5
98A
  8
0
  6
CONTINUOUS
 62
     7
 10
109.8220768064441
 20
98.832118172080214
 30
0.0
  0
VERTEX
  5
98B
  8
0
  6
CONTINUOUS
 62
     7
 10
109.8961921509564
 20
98.909107736525627
 30
0.0
  0
VERTEX
  5
98C
  8
0
  6
CONTINUOUS
 62
     7
 10
109.96945763487
 20
98.987673171302049
 30
0.0
  0
VERTEX
  5
98D
  8
0
  6
CONTINUOUS
 62
     7
 10
110.00575318402269
 20
99.027539031700783
 30
0.0
  0
VERTEX
  5
98E
  8
0
  6
CONTINUOUS
 62
     7
 10
110.0418142782254
 20
99.067789287032554
 30
0.0
  0
VERTEX
  5
98F
  8
0
  6
CONTINUOUS
 62
     7
 10
110.11320476740509
 20
99.149429315759221
 30
0.0
  0
VERTEX
  5
990
  8
0
  6
CONTINUOUS
 62
     7
 10
110.1835735575427
 20
99.232565056169165
 30
0.0
  0
VERTEX
  5
991
  8
0
  6
CONTINUOUS
 62
     7
 10
110.21835796428731
 20
99.27468465143528
 30
0.0
  0
SEQEND
  5
992
  8
0
  6
CONTINUOUS
 62
     7
  0
POLYLINE
  5
4F4
  8
0
  6
CONTINUOUS
 62
     7
 66
     1
 10
0.0
 20
0.0
 30
0.0
  0
VERTEX
  5
993
  8
0
  6
CONTINUOUS
 62
     7
 10
94.992382723284663
 20
101.2643048337967
 30
0.0
  0
VERTEX
  5
994
  8
0
  6
CONTINUOUS
 62
     7
 10
95.132912506109648
 20
101.2760201453366
 30
0.0
  0
VERTEX
  5
995
  8
0
  6
CONTINUOUS
 62
     7
 10
95.420469209811586
 20
101.2887334972764
 30
0.0
  0
VERTEX
  5
996
  8
0
  6
CONTINUOUS
 62
     7
 10
95.714567575398931
 20
101.28616665918339
 30
0.0
  0
VERTEX
  5
997
  8
0
  6
CONTINUOUS
 62
     7
 10
95.863273659564584
 20
101.2788737145316
 30
0.0
  0
VERTEX
  5
998
  8
0
  6
CONTINUOUS
 62
     7
 10
96.01265709330778
 20
101.2674747706358
 30
0.0
  0
VERTEX
  5
999
  8
0
  6
CONTINUOUS
 62
     7
 10
96.312158097907385
 20
101.23221222472741
 30
0.0
  0
VERTEX
  5
99A
  8
0
  6
CONTINUOUS
 62
     7
 10
96.610543640984275
 20
101.1803305903355
 30
0.0
  0
VERTEX
  5
99B
  8
0
  6
CONTINUOUS
 62
     7
 10
96.905418166687099
 20
101.11215578781309
 30
0.0
  0
VERTEX
  5
99C
  8
0
  6
CONTINUOUS
 62
     7
 10
97.194282898598061
 20
101.02844405797489
 30
0.0
  0
VERTEX
  5
99D
  8
0
  6
CONTINUOUS
 62
     7
 10
97.474733213963063
 20
100.93036474119489
 30
0.0
  0
VERTEX
  5
99E
  8
0
  6
CONTINUOUS
 62
     7
 10
97.611079526693345
 20
100.87641636404889
 30
0.0
  0
VERTEX
  5
99F
  8
0
  6
CONTINUOUS
 62
     7
 10
97.744465697625188
 20
100.8195045238615
 30
0.0
  0
VERTEX
  5
9A0
  8
0
  6
CONTINUOUS
 62
     7
 10
98.003312951248859
 20
100.6968493896384
 30
0.0
  0
VERTEX
  5
9A1
  8
0
  6
CONTINUOUS
 62
     7
 10
98.261187452342938
 20
100.5575748126617
 30
0.0
  0
VERTEX
  5
9A2
  8
0
  6
CONTINUOUS
 62
     7
 10
98.517156037455635
 20
100.4009448915364
 30
0.0
  0
VERTEX
  5
9A3
  8
0
  6
CONTINUOUS
 62
     7
 10
98.768328464500414
 20
100.22756860862241
 30
0.0
  0
VERTEX
  5
9A4
  8
0
  6
CONTINUOUS
 62
     7
 10
99.012041975416111
 20
100.0384362317552
 30
0.0
  0
VERTEX
  5
9A5
  8
0
  6
CONTINUOUS
 62
     7
 10
99.130330658472801
 20
99.938378580249207
 30
0.0
  0
VERTEX
  5
9A6
  8
0
  6
CONTINUOUS
 62
     7
 10
99.245877021745926
 20
99.834915643791064
 30
0.0
  0
VERTEX
  5
9A7
  8
0
  6
CONTINUOUS
 62
     7
 10
99.467812562832052
 20
99.618607232675856
 30
0.0
  0
VERTEX
  5
9A8
  8
0
  6
CONTINUOUS
 62
     7
 10
99.676008842926706
 20
99.391530779090346
 30
0.0
  0
VERTEX
  5
9A9
  8
0
  6
CONTINUOUS
 62
     7
 10
99.774456750922127
 20
99.27468463259396
 30
0.0
  0
SEQEND
  5
9AA
  8
0
  6
CONTINUOUS
 62
     7
  0
POLYLINE
  5
4F6
  8
0
  6
CONTINUOUS
 62
     7
 66
     1
 10
0.0
 20
0.0
 30
0.0
  0
VERTEX
  5
9AB
  8
0
  6
CONTINUOUS
 62
     7
 10
110.21835796428731
 20
99.27468465143528
 30
0.0
  0
VERTEX
  5
9AC
  8
0
  6
CONTINUOUS
 62
     7
 10
110.3168058724621
 20
99.391530797105617
 30
0.0
  0
VERTEX
  5
9AD
  8
0
  6
CONTINUOUS
 62
     7
 10
110.5250021527329
 20
99.618607248955513
 30
0.0
  0
VERTEX
  5
9AE
  8
0
  6
CONTINUOUS
 62
     7
 10
110.7469376937469
 20
99.834915658267676
 30
0.0
  0
VERTEX
  5
9AF
  8
0
  6
CONTINUOUS
 62
     7
 10
110.86248405689361
 20
99.938378593816964
 30
0.0
  0
VERTEX
  5
9B0
  8
0
  6
CONTINUOUS
 62
     7
 10
110.980772739768
 20
100.0384362444196
 30
0.0
  0
VERTEX
  5
9B1
  8
0
  6
CONTINUOUS
 62
     7
 10
111.2244862501441
 20
100.227568619506
 30
0.0
  0
VERTEX
  5
9B2
  8
0
  6
CONTINUOUS
 62
     7
 10
111.4756586764299
 20
100.4009449007076
 30
0.0
  0
VERTEX
  5
9B3
  8
0
  6
CONTINUOUS
 62
     7
 10
111.7316272605875
 20
100.5575748202251
 30
0.0
  0
VERTEX
  5
9B4
  8
0
  6
CONTINUOUS
 62
     7
 10
111.9895017605561
 20
100.6968493957262
 30
0.0
  0
VERTEX
  5
9B5
  8
0
  6
CONTINUOUS
 62
     7
 10
112.24834901328011
 20
100.8195045287839
 30
0.0
  0
VERTEX
  5
9B6
  8
0
  6
CONTINUOUS
 62
     7
 10
112.3817351838735
 20
100.87641636848529
 30
0.0
  0
VERTEX
  5
9B7
  8
0
  6
CONTINUOUS
 62
     7
 10
112.51808149621721
 20
100.93036474515161
 30
0.0
  0
VERTEX
  5
9B8
  8
0
  6
CONTINUOUS
 62
     7
 10
112.79853181067701
 20
101.0284440610112
 30
0.0
  0
VERTEX
  5
9B9
  8
0
  6
CONTINUOUS
 62
     7
 10
113.0873965415299
 20
101.1121557900107
 30
0.0
  0
VERTEX
  5
9BA
  8
0
  6
CONTINUOUS
 62
     7
 10
113.38227106605019
 20
101.18033059180431
 30
0.0
  0
VERTEX
  5
9BB
  8
0
  6
CONTINUOUS
 62
     7
 10
113.680656607853
 20
101.2322122255988
 30
0.0
  0
VERTEX
  5
9BC
  8
0
  6
CONTINUOUS
 62
     7
 10
113.9801576111208
 20
101.26747477105449
 30
0.0
  0
VERTEX
  5
9BD
  8
0
  6
CONTINUOUS
 62
     7
 10
114.1295410441856
 20
101.2788737147804
 30
0.0
  0
VERTEX
  5
9BE
  8
0
  6
CONTINUOUS
 62
     7
 10
114.2782471276703
 20
101.28616665930031
 30
0.0
  0
VERTEX
  5
9BF
  8
0
  6
CONTINUOUS
 62
     7
 10
114.57234549190549
 20
101.2887334972414
 30
0.0
  0
VERTEX
  5
9C0
  8
0
  6
CONTINUOUS
 62
     7
 10
114.85990219429679
 20
101.27602014529231
 30
0.0
  0
VERTEX
  5
9C1
  8
0
  6
CONTINUOUS
 62
     7
 10
115.00043197649249
 20
101.2643048337967
 30
0.0
  0
SEQEND
  5
9C2
  8
0
  6
CONTINUOUS
 62
     7
  0
POLYLINE
  5
4F8
  8
0
  6
CONTINUOUS
 62
     7
 66
     1
 10
0.0
 20
0.0
 30
0.0
  0
VERTEX
  5
9C3
  8
0
  6
CONTINUOUS
 62
     7
 10
115.00043197649249
 20
101.2643048337967
 30
0.0
  0
VERTEX
  5
9C4
  8
0
  6
CONTINUOUS
 62
     7
 10
115.05053324443951
 20
101.2594806303926
 30
0.0
  0
VERTEX
  5
9C5
  8
0
  6
CONTINUOUS
 62
     7
 10
115.1506590542615
 20
101.24983961146479
 30
0.0
  0
VERTEX
  5
9C6
  8
0
  6
CONTINUOUS
 62
     7
 10
115.2506817151813
 20
101.2402085246467
 30
0.0
  0
VERTEX
  5
9C7
  8
0
  6
CONTINUOUS
 62
     7
 10
115.3006540472459
 20
101.2353967363559
 30
0.0
  0
SEQEND
  5
9C8
  8
0
  6
CONTINUOUS
 62
     7
  0
POLYLINE
  5
4F9
  8
0
  6
CONTINUOUS
 62
     7
 66
     1
 10
0.0
 20
0.0
 30
0.0
  0
VERTEX
  5
9C9
  8
0
  6
CONTINUOUS
 62
     7
 10
115.3006540472459
 20
101.2353967363559
 30
0.0
  0
VERTEX
  5
9CA
  8
0
  6
CONTINUOUS
 62
     7
 10
115.3593987931294
 20
101.2297402606882
 30
0.0
  0
VERTEX
  5
9CB
  8
0
  6
CONTINUOUS
 62
     7
 10
115.4773802185549
 20
101.21837994152899
 30
0.0
  0
VERTEX
  5
9CC
  8
0
  6
CONTINUOUS
 62
     7
 10
115.5959869338927
 20
101.2069594137993
 30
0.0
  0
VERTEX
  5
9CD
  8
0
  6
CONTINUOUS
 62
     7
 10
115.655513246553
 20
101.20122768181049
 30
0.0
  0
VERTEX
  5
9CE
  8
0
  6
CONTINUOUS
 62
     7
 10
115.7151820238973
 20
101.1954822320329
 30
0.0
  0
VERTEX
  5
9CF
  8
0
  6
CONTINUOUS
 62
     7
 10
115.8349283901965
 20
101.1839519683969
 30
0.0
  0
VERTEX
  5
9D0
  8
0
  6
CONTINUOUS
 62
     7
 10
115.9551887628387
 20
101.1723722115793
 30
0.0
  0
VERTEX
  5
9D1
  8
0
  6
CONTINUOUS
 62
     7
 10
116.0759257118924
 20
101.1607465656726
 30
0.0
  0
VERTEX
  5
9D2
  8
0
  6
CONTINUOUS
 62
     7
 10
116.19710165909621
 20
101.1490786490519
 30
0.0
  0
VERTEX
  5
9D3
  8
0
  6
CONTINUOUS
 62
     7
 10
116.3186788895546
 20
101.1373720932486
 30
0.0
  0
VERTEX
  5
9D4
  8
0
  6
CONTINUOUS
 62
     7
 10
116.3796061656265
 20
101.1315054638264
 30
0.0
  0
VERTEX
  5
9D5
  8
0
  6
CONTINUOUS
 62
     7
 10
116.4406195634764
 20
101.1256305418201
 30
0.0
  0
VERTEX
  5
9D6
  8
0
  6
CONTINUOUS
 62
     7
 10
116.56288572795179
 20
101.113857649216
 30
0.0
  0
VERTEX
  5
9D7
  8
0
  6
CONTINUOUS
 62
     7
 10
116.6854393287652
 20
101.1020570796405
 30
0.0
  0
VERTEX
  5
9D8
  8
0
  6
CONTINUOUS
 62
     7
 10
116.8082422222392
 20
101.090232505912
 30
0.0
  0
VERTEX
  5
9D9
  8
0
  6
CONTINUOUS
 62
     7
 10
116.9312561871062
 20
101.0783876083199
 30
0.0
  0
VERTEX
  5
9DA
  8
0
  6
CONTINUOUS
 62
     7
 10
117.0544429364045
 20
101.06652607347939
 30
0.0
  0
VERTEX
  5
9DB
  8
0
  6
CONTINUOUS
 62
     7
 10
117.11608912550891
 20
101.0605902206056
 30
0.0
  0
VERTEX
  5
9DC
  8
0
  6
CONTINUOUS
 62
     7
 10
117.1777641293951
 20
101.05465159318381
 30
0.0
  0
VERTEX
  5
9DD
  8
0
  6
CONTINUOUS
 62
     7
 10
117.3011813834944
 20
101.04276786325541
 30
0.0
  0
VERTEX
  5
9DE
  8
0
  6
CONTINUOUS
 62
     7
 10
117.4246562862208
 20
101.0308785823956
 30
0.0
  0
VERTEX
  5
9DF
  8
0
  6
CONTINUOUS
 62
     7
 10
117.48640334668541
 20
101.0249330167145
 30
0.0
  0
SEQEND
  5
9E0
  8
0
  6
CONTINUOUS
 62
     7
  0
LINE
  5
4FA
  8
0
  6
CONTINUOUS
 62
     7
 10
117.48640334668541
 20
101.0249330167145
 30
0.0
 11
117.9436271833235
 21
100.9809073686714
 31
0.0
  0
POLYLINE
  5
4FB
  8
0
  6
CONTINUOUS
 62
     7
 66
     1
 10
0.0
 20
0.0
 30
0.0
  0
VERTEX
  5
9E1
  8
0
  6
CONTINUOUS
 62
     7
 10
117.9436271833235
 20
100.9809073686714
 30
0.0
  0
VERTEX
  5
9E2
  8
0
  6
CONTINUOUS
 62
     7
 10
118.135848325533
 20
100.9623985778446
 30
0.0
  0
VERTEX
  5
9E3
  8
0
  6
CONTINUOUS
 62
     7
 10
118.5321594390593
 20
100.924238157933
 30
0.0
  0
VERTEX
  5
9E4
  8
0
  6
CONTINUOUS
 62
     7
 10
118.9376373073154
 20
100.8851950799334
 30
0.0
  0
VERTEX
  5
9E5
  8
0
  6
CONTINUOUS
 62
     7
 10
119.14135170781149
 20
100.8655796142056
 30
0.0
  0
VERTEX
  5
9E6
  8
0
  6
CONTINUOUS
 62
     7
 10
119.34442754232499
 20
100.8460256353884
 30
0.0
  0
VERTEX
  5
9E7
  8
0
  6
CONTINUOUS
 62
     7
 10
119.7450360704313
 20
100.8074514215172
 30
0.0
  0
VERTEX
  5
9E8
  8
0
  6
CONTINUOUS
 62
     7
 10
120.1322158068449
 20
100.77017025321651
 30
0.0
  0
VERTEX
  5
9E9
  8
0
  6
CONTINUOUS
 62
     7
 10
120.4990737438103
 20
100.7348458516424
 30
0.0
  0
VERTEX
  5
9EA
  8
0
  6
CONTINUOUS
 62
     7
 10
120.85336711838529
 20
100.70073127982189
 30
0.0
  0
VERTEX
  5
9EB
  8
0
  6
CONTINUOUS
 62
     7
 10
121.21146574297801
 20
100.66625030409899
 30
0.0
  0
VERTEX
  5
9EC
  8
0
  6
CONTINUOUS
 62
     7
 10
121.3895626715212
 20
100.64910152036271
 30
0.0
  0
VERTEX
  5
9ED
  8
0
  6
CONTINUOUS
 62
     7
 10
121.5657681265337
 20
100.6321348648123
 30
0.0
  0
VERTEX
  5
9EE
  8
0
  6
CONTINUOUS
 62
     7
 10
121.9090557630046
 20
100.5990800250385
 30
0.0
  0
VERTEX
  5
9EF
  8
0
  6
CONTINUOUS
 62
     7
 10
122.2350675094722
 20
100.56768866426999
 30
0.0
  0
VERTEX
  5
9F0
  8
0
  6
CONTINUOUS
 62
     7
 10
122.5383396258398
 20
100.5384868808401
 30
0.0
  0
VERTEX
  5
9F1
  8
0
  6
CONTINUOUS
 62
     7
 10
122.8152459375911
 20
100.51182383564171
 30
0.0
  0
VERTEX
  5
9F2
  8
0
  6
CONTINUOUS
 62
     7
 10
123.081272986782
 20
100.4862083442803
 30
0.0
  0
VERTEX
  5
9F3
  8
0
  6
CONTINUOUS
 62
     7
 10
123.2112062350533
 20
100.473697195475
 30
0.0
  0
VERTEX
  5
9F4
  8
0
  6
CONTINUOUS
 62
     7
 10
123.3379574045253
 20
100.46149244600861
 30
0.0
  0
VERTEX
  5
9F5
  8
0
  6
CONTINUOUS
 62
     7
 10
123.5789807013508
 20
100.4382845421639
 30
0.0
  0
VERTEX
  5
9F6
  8
0
  6
CONTINUOUS
 62
     7
 10
123.7993340593075
 20
100.4170669270591
 30
0.0
  0
VERTEX
  5
9F7
  8
0
  6
CONTINUOUS
 62
     7
 10
123.90056159736839
 20
100.40731982376781
 30
0.0
  0
SEQEND
  5
9F8
  8
0
  6
CONTINUOUS
 62
     7
  0
POLYLINE
  5
4FE
  8
0
  6
CONTINUOUS
 62
     7
 66
     1
 10
0.0
 20
0.0
 30
0.0
  0
VERTEX
  5
9F9
  8
0
  6
CONTINUOUS
 62
     7
 10
123.90056159736839
 20
100.40731982376781
 30
0.0
  0
VERTEX
  5
9FA
  8
0
  6
CONTINUOUS
 62
     7
 10
123.9454821840676
 20
100.4040135501815
 30
0.0
  0
VERTEX
  5
9FB
  8
0
  6
CONTINUOUS
 62
     7
 10
124.0326631340813
 20
100.40337347920359
 30
0.0
  0
VERTEX
  5
9FC
  8
0
  6
CONTINUOUS
 62
     7
 10
124.11626132174101
 20
100.409924490427
 30
0.0
  0
VERTEX
  5
9FD
  8
0
  6
CONTINUOUS
 62
     7
 10
124.156855882306
 20
100.4156718141863
 30
0.0
  0
VERTEX
  5
9FE
  8
0
  6
CONTINUOUS
 62
     7
 10
124.19661251577431
 20
100.4229620267093
 30
0.0
  0
VERTEX
  5
9FF
  8
0
  6
CONTINUOUS
 62
     7
 10
124.27348905285299
 20
100.4418696609084
 30
0.0
  0
VERTEX
  5
A00
  8
0
  6
CONTINUOUS
 62
     7
 10
124.3466382170237
 20
100.4660526142313
 30
0.0
  0
VERTEX
  5
A01
  8
0
  6
CONTINUOUS
 62
     7
 10
124.41579476852959
 20
100.4949086675241
 30
0.0
  0
VERTEX
  5
A02
  8
0
  6
CONTINUOUS
 62
     7
 10
124.4806785714614
 20
100.5277980922945
 30
0.0
  0
VERTEX
  5
A03
  8
0
  6
CONTINUOUS
 62
     7
 10
124.5409907291676
 20
100.56400931355741
 30
0.0
  0
VERTEX
  5
A04
  8
0
  6
CONTINUOUS
 62
     7
 10
124.5690917751805
 20
100.58294010822431
 30
0.0
  0
VERTEX
  5
A05
  8
0
  6
CONTINUOUS
 62
     7
 10
124.59551779511661
 20
100.6020496281739
 30
0.0
  0
VERTEX
  5
A06
  8
0
  6
CONTINUOUS
 62
     7
 10
124.6434340971273
 20
100.640248718995
 30
0.0
  0
VERTEX
  5
A07
  8
0
  6
CONTINUOUS
 62
     7
 10
124.6849130072638
 20
100.6774850521935
 30
0.0
  0
VERTEX
  5
A08
  8
0
  6
CONTINUOUS
 62
     7
 10
124.72011936146041
 20
100.71261391062779
 30
0.0
  0
VERTEX
  5
A09
  8
0
  6
CONTINUOUS
 62
     7
 10
124.749210003855
 20
100.7444697428587
 30
0.0
  0
VERTEX
  5
A0A
  8
0
  6
CONTINUOUS
 62
     7
 10
124.7724051941039
 20
100.77198046282901
 30
0.0
  0
VERTEX
  5
A0B
  8
0
  6
CONTINUOUS
 62
     7
 10
124.78194168031069
 20
100.7838979424636
 30
0.0
  0
VERTEX
  5
A0C
  8
0
  6
CONTINUOUS
 62
     7
 10
124.7900900968057
 20
100.7943841248568
 30
0.0
  0
VERTEX
  5
A0D
  8
0
  6
CONTINUOUS
 62
     7
 10
124.8020964047829
 20
100.8103773125916
 30
0.0
  0
VERTEX
  5
A0E
  8
0
  6
CONTINUOUS
 62
     7
 10
124.8081680363241
 20
100.81872579280081
 30
0.0
  0
VERTEX
  5
A0F
  8
0
  6
CONTINUOUS
 62
     7
 10
124.8089311767303
 20
100.8197880413223
 30
0.0
  0
SEQEND
  5
A10
  8
0
  6
CONTINUOUS
 62
     7
  0
POLYLINE
  5
502
  8
0
  6
CONTINUOUS
 62
     7
 66
     1
 10
0.0
 20
0.0
 30
0.0
  0
VERTEX
  5
A11
  8
0
  6
CONTINUOUS
 62
     7
 10
123.90056159736839
 20
106.6962839348049
 30
0.0
  0
VERTEX
  5
A12
  8
0
  6
CONTINUOUS
 62
     7
 10
123.7993340593075
 20
106.68653683151361
 30
0.0
  0
VERTEX
  5
A13
  8
0
  6
CONTINUOUS
 62
     7
 10
123.5789807013508
 20
106.6653192164088
 30
0.0
  0
VERTEX
  5
A14
  8
0
  6
CONTINUOUS
 62
     7
 10
123.3379574045253
 20
106.6421113125641
 30
0.0
  0
VERTEX
  5
A15
  8
0
  6
CONTINUOUS
 62
     7
 10
123.2112062350533
 20
106.62990656309771
 30
0.0
  0
VERTEX
  5
A16
  8
0
  6
CONTINUOUS
 62
     7
 10
123.081272986782
 20
106.6173954142924
 30
0.0
  0
VERTEX
  5
A17
  8
0
  6
CONTINUOUS
 62
     7
 10
122.8152459375911
 20
106.591779922931
 30
0.0
  0
VERTEX
  5
A18
  8
0
  6
CONTINUOUS
 62
     7
 10
122.5383396258398
 20
106.56511687773261
 30
0.0
  0
VERTEX
  5
A19
  8
0
  6
CONTINUOUS
 62
     7
 10
122.2350675094722
 20
106.53591509430269
 30
0.0
  0
VERTEX
  5
A1A
  8
0
  6
CONTINUOUS
 62
     7
 10
121.9090557630046
 20
106.5045237335341
 30
0.0
  0
VERTEX
  5
A1B
  8
0
  6
CONTINUOUS
 62
     7
 10
121.5657681265337
 20
106.4714688937604
 30
0.0
  0
VERTEX
  5
A1C
  8
0
  6
CONTINUOUS
 62
     7
 10
121.3895626715212
 20
106.45450223821
 30
0.0
  0
VERTEX
  5
A1D
  8
0
  6
CONTINUOUS
 62
     7
 10
121.21146574297801
 20
106.43735345447359
 30
0.0
  0
VERTEX
  5
A1E
  8
0
  6
CONTINUOUS
 62
     7
 10
120.85336711838529
 20
106.40287247875079
 30
0.0
  0
VERTEX
  5
A1F
  8
0
  6
CONTINUOUS
 62
     7
 10
120.4990737438103
 20
106.3687579069303
 30
0.0
  0
VERTEX
  5
A20
  8
0
  6
CONTINUOUS
 62
     7
 10
120.1322158068449
 20
106.3334335053562
 30
0.0
  0
VERTEX
  5
A21
  8
0
  6
CONTINUOUS
 62
     7
 10
119.7450360704313
 20
106.2961523370555
 30
0.0
  0
VERTEX
  5
A22
  8
0
  6
CONTINUOUS
 62
     7
 10
119.34442754232499
 20
106.2575781231843
 30
0.0
  0
VERTEX
  5
A23
  8
0
  6
CONTINUOUS
 62
     7
 10
119.14135170781149
 20
106.2380241443671
 30
0.0
  0
VERTEX
  5
A24
  8
0
  6
CONTINUOUS
 62
     7
 10
118.9376373073154
 20
106.21840867863919
 30
0.0
  0
VERTEX
  5
A25
  8
0
  6
CONTINUOUS
 62
     7
 10
118.5321594390593
 20
106.1793656006396
 30
0.0
  0
VERTEX
  5
A26
  8
0
  6
CONTINUOUS
 62
     7
 10
118.135848325533
 20
106.14120518072809
 30
0.0
  0
VERTEX
  5
A27
  8
0
  6
CONTINUOUS
 62
     7
 10
117.9436271833235
 20
106.12269638990129
 30
0.0
  0
SEQEND
  5
A28
  8
0
  6
CONTINUOUS
 62
     7
  0
LINE
  5
503
  8
0
  6
CONTINUOUS
 62
     7
 10
117.9436271833235
 20
106.12269638990129
 30
0.0
 11
117.48640334668541
 21
106.0786707418582
 31
0.0
  0
POLYLINE
  5
504
  8
0
  6
CONTINUOUS
 62
     7
 66
     1
 10
0.0
 20
0.0
 30
0.0
  0
VERTEX
  5
A29
  8
0
  6
CONTINUOUS
 62
     7
 10
117.48640334668541
 20
106.0786707418582
 30
0.0
  0
VERTEX
  5
A2A
  8
0
  6
CONTINUOUS
 62
     7
 10
117.4246562862208
 20
106.0727251761771
 30
0.0
  0
VERTEX
  5
A2B
  8
0
  6
CONTINUOUS
 62
     7
 10
117.3011813834944
 20
106.0608358953173
 30
0.0
  0
VERTEX
  5
A2C
  8
0
  6
CONTINUOUS
 62
     7
 10
117.1777641293951
 20
106.0489521653889
 30
0.0
  0
VERTEX
  5
A2D
  8
0
  6
CONTINUOUS
 62
     7
 10
117.11608912550891
 20
106.0430135379671
 30
0.0
  0
VERTEX
  5
A2E
  8
0
  6
CONTINUOUS
 62
     7
 10
117.0544429364045
 20
106.03707768509319
 30
0.0
  0
VERTEX
  5
A2F
  8
0
  6
CONTINUOUS
 62
     7
 10
116.9312561871062
 20
106.0252161502528
 30
0.0
  0
VERTEX
  5
A30
  8
0
  6
CONTINUOUS
 62
     7
 10
116.8082422222392
 20
106.0133712526607
 30
0.0
  0
VERTEX
  5
A31
  8
0
  6
CONTINUOUS
 62
     7
 10
116.6854393287652
 20
106.0015466789322
 30
0.0
  0
VERTEX
  5
A32
  8
0
  6
CONTINUOUS
 62
     7
 10
116.56288572795179
 20
105.9897461093567
 30
0.0
  0
VERTEX
  5
A33
  8
0
  6
CONTINUOUS
 62
     7
 10
116.4406195634764
 20
105.9779732167526
 30
0.0
  0
VERTEX
  5
A34
  8
0
  6
CONTINUOUS
 62
     7
 10
116.3796061656265
 20
105.9720982947463
 30
0.0
  0
VERTEX
  5
A35
  8
0
  6
CONTINUOUS
 62
     7
 10
116.3186788895546
 20
105.9662316653241
 30
0.0
  0
VERTEX
  5
A36
  8
0
  6
CONTINUOUS
 62
     7
 10
116.19710165909621
 20
105.9545251095207
 30
0.0
  0
VERTEX
  5
A37
  8
0
  6
CONTINUOUS
 62
     7
 10
116.0759257118924
 20
105.94285719290011
 30
0.0
  0
VERTEX
  5
A38
  8
0
  6
CONTINUOUS
 62
     7
 10
115.9551887628387
 20
105.9312315469934
 30
0.0
  0
VERTEX
  5
A39
  8
0
  6
CONTINUOUS
 62
     7
 10
115.8349283901965
 20
105.91965179017581
 30
0.0
  0
VERTEX
  5
A3A
  8
0
  6
CONTINUOUS
 62
     7
 10
115.7151820238973
 20
105.9081215265397
 30
0.0
  0
VERTEX
  5
A3B
  8
0
  6
CONTINUOUS
 62
     7
 10
115.655513246553
 20
105.9023760767622
 30
0.0
  0
VERTEX
  5
A3C
  8
0
  6
CONTINUOUS
 62
     7
 10
115.5959869338928
 20
105.89664434477341
 30
0.0
  0
VERTEX
  5
A3D
  8
0
  6
CONTINUOUS
 62
     7
 10
115.4773802185549
 20
105.88522381704369
 30
0.0
  0
VERTEX
  5
A3E
  8
0
  6
CONTINUOUS
 62
     7
 10
115.3593987931294
 20
105.8738634978845
 30
0.0
  0
VERTEX
  5
A3F
  8
0
  6
CONTINUOUS
 62
     7
 10
115.3006540472459
 20
105.86820702221669
 30
0.0
  0
SEQEND
  5
A40
  8
0
  6
CONTINUOUS
 62
     7
  0
POLYLINE
  5
505
  8
0
  6
CONTINUOUS
 62
     7
 66
     1
 10
0.0
 20
0.0
 30
0.0
  0
VERTEX
  5
A41
  8
0
  6
CONTINUOUS
 62
     7
 10
115.3006540472459
 20
105.86820702221669
 30
0.0
  0
VERTEX
  5
A42
  8
0
  6
CONTINUOUS
 62
     7
 10
115.2506817151813
 20
105.863395233926
 30
0.0
  0
VERTEX
  5
A43
  8
0
  6
CONTINUOUS
 62
     7
 10
115.1506590542615
 20
105.8537641471078
 30
0.0
  0
VERTEX
  5
A44
  8
0
  6
CONTINUOUS
 62
     7
 10
115.05053324443951
 20
105.8441231281801
 30
0.0
  0
VERTEX
  5
A45
  8
0
  6
CONTINUOUS
 62
     7
 10
115.00043197649261
 20
105.839298924776
 30
0.0
  0
SEQEND
  5
A46
  8
0
  6
CONTINUOUS
 62
     7
  0
POLYLINE
  5
507
  8
0
  6
CONTINUOUS
 62
     7
 66
     1
 10
0.0
 20
0.0
 30
0.0
  0
VERTEX
  5
A47
  8
0
  6
CONTINUOUS
 62
     7
 10
115.00043197649261
 20
105.839298924776
 30
0.0
  0
VERTEX
  5
A48
  8
0
  6
CONTINUOUS
 62
     7
 10
114.85990219155001
 20
105.8275836130869
 30
0.0
  0
VERTEX
  5
A49
  8
0
  6
CONTINUOUS
 62
     7
 10
114.572345483438
 20
105.8148702611787
 30
0.0
  0
VERTEX
  5
A4A
  8
0
  6
CONTINUOUS
 62
     7
 10
114.2782471133026
 20
105.8174370997822
 30
0.0
  0
VERTEX
  5
A4B
  8
0
  6
CONTINUOUS
 62
     7
 10
114.12954102684679
 20
105.824730044878
 30
0.0
  0
VERTEX
  5
A4C
  8
0
  6
CONTINUOUS
 62
     7
 10
113.9801575908223
 20
105.8361289893454
 30
0.0
  0
VERTEX
  5
A4D
  8
0
  6
CONTINUOUS
 62
     7
 10
113.6806565817449
 20
105.8713915367761
 30
0.0
  0
VERTEX
  5
A4E
  8
0
  6
CONTINUOUS
 62
     7
 10
113.382271034385
 20
105.92327317317699
 30
0.0
  0
VERTEX
  5
A4F
  8
0
  6
CONTINUOUS
 62
     7
 10
113.0873965047078
 20
105.99144797814979
 30
0.0
  0
VERTEX
  5
A50
  8
0
  6
CONTINUOUS
 62
     7
 10
112.79853176924151
 20
106.0751597108076
 30
0.0
  0
VERTEX
  5
A51
  8
0
  6
CONTINUOUS
 62
     7
 10
112.5180814508352
 20
106.1732390306815
 30
0.0
  0
VERTEX
  5
A52
  8
0
  6
CONTINUOUS
 62
     7
 10
112.3817351368066
 20
106.22718740943991
 30
0.0
  0
VERTEX
  5
A53
  8
0
  6
CONTINUOUS
 62
     7
 10
112.2483489647384
 20
106.2840992512608
 30
0.0
  0
VERTEX
  5
A54
  8
0
  6
CONTINUOUS
 62
     7
 10
111.9895017080902
 20
106.406754389402
 30
0.0
  0
VERTEX
  5
A55
  8
0
  6
CONTINUOUS
 62
     7
 10
111.73162720321019
 20
106.5460289713406
 30
0.0
  0
VERTEX
  5
A56
  8
0
  6
CONTINUOUS
 62
     7
 10
111.47565861488521
 20
106.70265889787269
 30
0.0
  0
VERTEX
  5
A57
  8
0
  6
CONTINUOUS
 62
     7
 10
111.2244861852879
 20
106.8760351865446
 30
0.0
  0
VERTEX
  5
A58
  8
0
  6
CONTINUOUS
 62
     7
 10
110.9807726725582
 20
107.06516756939919
 30
0.0
  0
VERTEX
  5
A59
  8
0
  6
CONTINUOUS
 62
     7
 10
110.8624839888889
 20
107.1652252239425
 30
0.0
  0
VERTEX
  5
A5A
  8
0
  6
CONTINUOUS
 62
     7
 10
110.7469376251907
 20
107.2686881634561
 30
0.0
  0
VERTEX
  5
A5B
  8
0
  6
CONTINUOUS
 62
     7
 10
110.5250020838629
 20
107.4849965806329
 30
0.0
  0
VERTEX
  5
A5C
  8
0
  6
CONTINUOUS
 62
     7
 10
110.31680580436139
 20
107.7120730400531
 30
0.0
  0
VERTEX
  5
A5D
  8
0
  6
CONTINUOUS
 62
     7
 10
110.21835789696929
 20
107.8289191893263
 30
0.0
  0
SEQEND
  5
A5E
  8
0
  6
CONTINUOUS
 62
     7
  0
POLYLINE
  5
509
  8
0
  6
CONTINUOUS
 62
     7
 66
     1
 10
0.0
 20
0.0
 30
0.0
  0
VERTEX
  5
A5F
  8
0
  6
CONTINUOUS
 62
     7
 10
99.774456835558126
 20
107.8289192293112
 30
0.0
  0
VERTEX
  5
A60
  8
0
  6
CONTINUOUS
 62
     7
 10
99.676008928546878
 20
107.7120730782851
 30
0.0
  0
VERTEX
  5
A61
  8
0
  6
CONTINUOUS
 62
     7
 10
99.467812649419614
 20
107.4849966151821
 30
0.0
  0
VERTEX
  5
A62
  8
0
  6
CONTINUOUS
 62
     7
 10
99.245877107939194
 20
107.26868819417901
 30
0.0
  0
VERTEX
  5
A63
  8
0
  6
CONTINUOUS
 62
     7
 10
99.130330743972607
 20
107.1652252527368
 30
0.0
  0
VERTEX
  5
A64
  8
0
  6
CONTINUOUS
 62
     7
 10
99.012042059916524
 20
107.0651675962765
 30
0.0
  0
VERTEX
  5
A65
  8
0
  6
CONTINUOUS
 62
     7
 10
98.768328546041857
 20
106.87603520964269
 30
0.0
  0
VERTEX
  5
A66
  8
0
  6
CONTINUOUS
 62
     7
 10
98.517156114833483
 20
106.70265891733629
 30
0.0
  0
VERTEX
  5
A67
  8
0
  6
CONTINUOUS
 62
     7
 10
98.261187524481102
 20
106.54602898739159
 30
0.0
  0
VERTEX
  5
A68
  8
0
  6
CONTINUOUS
 62
     7
 10
98.003313017211724
 20
106.4067544023212
 30
0.0
  0
VERTEX
  5
A69
  8
0
  6
CONTINUOUS
 62
     7
 10
97.744465758654243
 20
106.2840992617069
 30
0.0
  0
VERTEX
  5
A6A
  8
0
  6
CONTINUOUS
 62
     7
 10
97.611079585868765
 20
106.227187418855
 30
0.0
  0
VERTEX
  5
A6B
  8
0
  6
CONTINUOUS
 62
     7
 10
97.474733271020426
 20
106.1732390390786
 30
0.0
  0
VERTEX
  5
A6C
  8
0
  6
CONTINUOUS
 62
     7
 10
97.194282950694046
 20
106.07515971725179
 30
0.0
  0
VERTEX
  5
A6D
  8
0
  6
CONTINUOUS
 62
     7
 10
96.905418212983406
 20
105.99144798281419
 30
0.0
  0
VERTEX
  5
A6E
  8
0
  6
CONTINUOUS
 62
     7
 10
96.610543680797349
 20
105.9232731762948
 30
0.0
  0
VERTEX
  5
A6F
  8
0
  6
CONTINUOUS
 62
     7
 10
96.312158130733962
 20
105.8713915386259
 30
0.0
  0
VERTEX
  5
A70
  8
0
  6
CONTINUOUS
 62
     7
 10
96.01265711883012
 20
105.8361289902344
 30
0.0
  0
VERTEX
  5
A71
  8
0
  6
CONTINUOUS
 62
     7
 10
95.863273681365726
 20
105.8247300454063
 30
0.0
  0
VERTEX
  5
A72
  8
0
  6
CONTINUOUS
 62
     7
 10
95.714567593464508
 20
105.8174371000302
 30
0.0
  0
VERTEX
  5
A73
  8
0
  6
CONTINUOUS
 62
     7
 10
95.420469220458656
 20
105.8148702611045
 30
0.0
  0
VERTEX
  5
A74
  8
0
  6
CONTINUOUS
 62
     7
 10
95.132912509563468
 20
105.8275836129927
 30
0.0
  0
VERTEX
  5
A75
  8
0
  6
CONTINUOUS
 62
     7
 10
94.992382723284649
 20
105.839298924776
 30
0.0
  0
SEQEND
  5
A76
  8
0
  6
CONTINUOUS
 62
     7
  0
POLYLINE
  5
50C
  8
0
  6
CONTINUOUS
 62
     7
 66
     1
 10
0.0
 20
0.0
 30
0.0
  0
VERTEX
  5
A77
  8
0
  6
CONTINUOUS
 62
     7
 10
94.992382723284635
 20
105.839298924776
 30
0.0
  0
VERTEX
  5
A78
  8
0
  6
CONTINUOUS
 62
     7
 10
94.942281455337707
 20
105.8441231281801
 30
0.0
  0
VERTEX
  5
A79
  8
0
  6
CONTINUOUS
 62
     7
 10
94.842155645515675
 20
105.8537641471078
 30
0.0
  0
VERTEX
  5
A7A
  8
0
  6
CONTINUOUS
 62
     7
 10
94.742132984595926
 20
105.863395233926
 30
0.0
  0
VERTEX
  5
A7B
  8
0
  6
CONTINUOUS
 62
     7
 10
94.692160652531257
 20
105.86820702221669
 30
0.0
  0
SEQEND
  5
A7C
  8
0
  6
CONTINUOUS
 62
     7
  0
POLYLINE
  5
50D
  8
0
  6
CONTINUOUS
 62
     7
 66
     1
 10
0.0
 20
0.0
 30
0.0
  0
VERTEX
  5
A7D
  8
0
  6
CONTINUOUS
 62
     7
 10
94.692160652531257
 20
105.86820702221669
 30
0.0
  0
VERTEX
  5
A7E
  8
0
  6
CONTINUOUS
 62
     7
 10
94.63341590664777
 20
105.8738634978845
 30
0.0
  0
VERTEX
  5
A7F
  8
0
  6
CONTINUOUS
 62
     7
 10
94.515434481222357
 20
105.88522381704369
 30
0.0
  0
VERTEX
  5
A80
  8
0
  6
CONTINUOUS
 62
     7
 10
94.396827765884467
 20
105.89664434477341
 30
0.0
  0
VERTEX
  5
A81
  8
0
  6
CONTINUOUS
 62
     7
 10
94.337301453224242
 20
105.9023760767622
 30
0.0
  0
VERTEX
  5
A82
  8
0
  6
CONTINUOUS
 62
     7
 10
94.277632675879914
 20
105.9081215265397
 30
0.0
  0
VERTEX
  5
A83
  8
0
  6
CONTINUOUS
 62
     7
 10
94.157886309580746
 20
105.91965179017581
 30
0.0
  0
VERTEX
  5
A84
  8
0
  6
CONTINUOUS
 62
     7
 10
94.037625936938582
 20
105.9312315469934
 30
0.0
  0
VERTEX
  5
A85
  8
0
  6
CONTINUOUS
 62
     7
 10
93.916888987884874
 20
105.94285719290011
 30
0.0
  0
VERTEX
  5
A86
  8
0
  6
CONTINUOUS
 62
     7
 10
93.795713040681065
 20
105.9545251095207
 30
0.0
  0
VERTEX
  5
A87
  8
0
  6
CONTINUOUS
 62
     7
 10
93.674135810222623
 20
105.9662316653241
 30
0.0
  0
VERTEX
  5
A88
  8
0
  6
CONTINUOUS
 62
     7
 10
93.613208534150758
 20
105.9720982947463
 30
0.0
  0
VERTEX
  5
A89
  8
0
  6
CONTINUOUS
 62
     7
 10
93.552195136300867
 20
105.9779732167526
 30
0.0
  0
VERTEX
  5
A8A
  8
0
  6
CONTINUOUS
 62
     7
 10
93.429928971825447
 20
105.9897461093567
 30
0.0
  0
VERTEX
  5
A8B
  8
0
  6
CONTINUOUS
 62
     7
 10
93.307375371012014
 20
106.0015466789322
 30
0.0
  0
VERTEX
  5
A8C
  8
0
  6
CONTINUOUS
 62
     7
 10
93.184572477538026
 20
106.0133712526607
 30
0.0
  0
VERTEX
  5
A8D
  8
0
  6
CONTINUOUS
 62
     7
 10
93.061558512671098
 20
106.0252161502527
 30
0.0
  0
VERTEX
  5
A8E
  8
0
  6
CONTINUOUS
 62
     7
 10
92.938371763372757
 20
106.03707768509319
 30
0.0
  0
VERTEX
  5
A8F
  8
0
  6
CONTINUOUS
 62
     7
 10
92.87672557426832
 20
106.0430135379671
 30
0.0
  0
VERTEX
  5
A90
  8
0
  6
CONTINUOUS
 62
     7
 10
92.815050570382198
 20
106.0489521653889
 30
0.0
  0
VERTEX
  5
A91
  8
0
  6
CONTINUOUS
 62
     7
 10
92.691633316282889
 20
106.0608358953172
 30
0.0
  0
VERTEX
  5
A92
  8
0
  6
CONTINUOUS
 62
     7
 10
92.568158413556475
 20
106.072725176177
 30
0.0
  0
VERTEX
  5
A93
  8
0
  6
CONTINUOUS
 62
     7
 10
92.506411353091835
 20
106.0786707418582
 30
0.0
  0
SEQEND
  5
A94
  8
0
  6
CONTINUOUS
 62
     7
  0
LINE
  5
50E
  8
0
  6
CONTINUOUS
 62
     7
 10
92.506411353091835
 20
106.0786707418582
 30
0.0
 11
92.049187516453713
 21
106.12269638990129
 31
0.0
  0
POLYLINE
  5
50F
  8
0
  6
CONTINUOUS
 62
     7
 66
     1
 10
0.0
 20
0.0
 30
0.0
  0
VERTEX
  5
A95
  8
0
  6
CONTINUOUS
 62
     7
 10
92.049187516453713
 20
106.12269638990129
 30
0.0
  0
VERTEX
  5
A96
  8
0
  6
CONTINUOUS
 62
     7
 10
91.856966374244266
 20
106.14120518072809
 30
0.0
  0
VERTEX
  5
A97
  8
0
  6
CONTINUOUS
 62
     7
 10
91.460655260717914
 20
106.1793656006396
 30
0.0
  0
VERTEX
  5
A98
  8
0
  6
CONTINUOUS
 62
     7
 10
91.055177392461786
 20
106.21840867863919
 30
0.0
  0
VERTEX
  5
A99
  8
0
  6
CONTINUOUS
 62
     7
 10
90.851462991965676
 20
106.2380241443671
 30
0.0
  0
VERTEX
  5
A9A
  8
0
  6
CONTINUOUS
 62
     7
 10
90.648387157452163
 20
106.2575781231843
 30
0.0
  0
VERTEX
  5
A9B
  8
0
  6
CONTINUOUS
 62
     7
 10
90.247778629345888
 20
106.2961523370555
 30
0.0
  0
VERTEX
  5
A9C
  8
0
  6
CONTINUOUS
 62
     7
 10
89.860598892932273
 20
106.3334335053562
 30
0.0
  0
VERTEX
  5
A9D
  8
0
  6
CONTINUOUS
 62
     7
 10
89.493740955966913
 20
106.3687579069303
 30
0.0
  0
VERTEX
  5
A9E
  8
0
  6
CONTINUOUS
 62
     7
 10
89.139447581391934
 20
106.40287247875079
 30
0.0
  0
VERTEX
  5
A9F
  8
0
  6
CONTINUOUS
 62
     7
 10
88.781348956799206
 20
106.43735345447359
 30
0.0
  0
VERTEX
  5
AA0
  8
0
  6
CONTINUOUS
 62
     7
 10
88.603252028255994
 20
106.45450223821
 30
0.0
  0
VERTEX
  5
AA1
  8
0
  6
CONTINUOUS
 62
     7
 10
88.427046573243445
 20
106.4714688937604
 30
0.0
  0
VERTEX
  5
AA2
  8
0
  6
CONTINUOUS
 62
     7
 10
88.083758936772583
 20
106.5045237335341
 30
0.0
  0
VERTEX
  5
AA3
  8
0
  6
CONTINUOUS
 62
     7
 10
87.757747190304997
 20
106.53591509430269
 30
0.0
  0
VERTEX
  5
AA4
  8
0
  6
CONTINUOUS
 62
     7
 10
87.454475073937388
 20
106.56511687773261
 30
0.0
  0
VERTEX
  5
AA5
  8
0
  6
CONTINUOUS
 62
     7
 10
87.177568762186056
 20
106.591779922931
 30
0.0
  0
VERTEX
  5
AA6
  8
0
  6
CONTINUOUS
 62
     7
 10
86.911541712995216
 20
106.6173954142924
 30
0.0
  0
VERTEX
  5
AA7
  8
0
  6
CONTINUOUS
 62
     7
 10
86.781608464723917
 20
106.62990656309761
 30
0.0
  0
VERTEX
  5
AA8
  8
0
  6
CONTINUOUS
 62
     7
 10
86.654857295251901
 20
106.642111312564
 30
0.0
  0
VERTEX
  5
AA9
  8
0
  6
CONTINUOUS
 62
     7
 10
86.413833998426426
 20
106.6653192164088
 30
0.0
  0
VERTEX
  5
AAA
  8
0
  6
CONTINUOUS
 62
     7
 10
86.193480640469645
 20
106.68653683151361
 30
0.0
  0
VERTEX
  5
AAB
  8
0
  6
CONTINUOUS
 62
     7
 10
86.092253102408833
 20
106.6962839348049
 30
0.0
  0
SEQEND
  5
AAC
  8
0
  6
CONTINUOUS
 62
     7
  0
POLYLINE
  5
510
  8
0
  6
CONTINUOUS
 62
     7
 66
     1
 10
0.0
 20
0.0
 30
0.0
  0
VERTEX
  5
AAD
  8
0
  6
CONTINUOUS
 62
     7
 10
86.092253102408833
 20
100.40731982376781
 30
0.0
  0
VERTEX
  5
AAE
  8
0
  6
CONTINUOUS
 62
     7
 10
86.193480640469645
 20
100.4170669270591
 30
0.0
  0
VERTEX
  5
AAF
  8
0
  6
CONTINUOUS
 62
     7
 10
86.413833998426426
 20
100.4382845421639
 30
0.0
  0
VERTEX
  5
AB0
  8
0
  6
CONTINUOUS
 62
     7
 10
86.654857295251915
 20
100.46149244600861
 30
0.0
  0
VERTEX
  5
AB1
  8
0
  6
CONTINUOUS
 62
     7
 10
86.781608464723945
 20
100.473697195475
 30
0.0
  0
VERTEX
  5
AB2
  8
0
  6
CONTINUOUS
 62
     7
 10
86.911541712995216
 20
100.4862083442803
 30
0.0
  0
VERTEX
  5
AB3
  8
0
  6
CONTINUOUS
 62
     7
 10
87.177568762186084
 20
100.51182383564171
 30
0.0
  0
VERTEX
  5
AB4
  8
0
  6
CONTINUOUS
 62
     7
 10
87.454475073937388
 20
100.5384868808401
 30
0.0
  0
VERTEX
  5
AB5
  8
0
  6
CONTINUOUS
 62
     7
 10
87.757747190304997
 20
100.56768866426999
 30
0.0
  0
VERTEX
  5
AB6
  8
0
  6
CONTINUOUS
 62
     7
 10
88.083758936772597
 20
100.5990800250385
 30
0.0
  0
VERTEX
  5
AB7
  8
0
  6
CONTINUOUS
 62
     7
 10
88.427046573243473
 20
100.6321348648123
 30
0.0
  0
VERTEX
  5
AB8
  8
0
  6
CONTINUOUS
 62
     7
 10
88.603252028256009
 20
100.64910152036271
 30
0.0
  0
VERTEX
  5
AB9
  8
0
  6
CONTINUOUS
 62
     7
 10
88.781348956799235
 20
100.66625030409899
 30
0.0
  0
VERTEX
  5
ABA
  8
0
  6
CONTINUOUS
 62
     7
 10
89.139447581391934
 20
100.70073127982189
 30
0.0
  0
VERTEX
  5
ABB
  8
0
  6
CONTINUOUS
 62
     7
 10
89.493740955966928
 20
100.7348458516424
 30
0.0
  0
VERTEX
  5
ABC
  8
0
  6
CONTINUOUS
 62
     7
 10
89.860598892932302
 20
100.77017025321651
 30
0.0
  0
VERTEX
  5
ABD
  8
0
  6
CONTINUOUS
 62
     7
 10
90.247778629345916
 20
100.8074514215172
 30
0.0
  0
VERTEX
  5
ABE
  8
0
  6
CONTINUOUS
 62
     7
 10
90.648387157452163
 20
100.8460256353884
 30
0.0
  0
VERTEX
  5
ABF
  8
0
  6
CONTINUOUS
 62
     7
 10
90.851462991965676
 20
100.8655796142056
 30
0.0
  0
VERTEX
  5
AC0
  8
0
  6
CONTINUOUS
 62
     7
 10
91.055177392461786
 20
100.8851950799334
 30
0.0
  0
VERTEX
  5
AC1
  8
0
  6
CONTINUOUS
 62
     7
 10
91.460655260717914
 20
100.924238157933
 30
0.0
  0
VERTEX
  5
AC2
  8
0
  6
CONTINUOUS
 62
     7
 10
91.856966374244266
 20
100.9623985778446
 30
0.0
  0
VERTEX
  5
AC3
  8
0
  6
CONTINUOUS
 62
     7
 10
92.049187516453713
 20
100.9809073686714
 30
0.0
  0
SEQEND
  5
AC4
  8
0
  6
CONTINUOUS
 62
     7
  0
LINE
  5
511
  8
0
  6
CONTINUOUS
 62
     7
 10
92.049187516453713
 20
100.9809073686714
 30
0.0
 11
92.506411353091835
 21
101.0249330167145
 31
0.0
  0
POLYLINE
  5
512
  8
0
  6
CONTINUOUS
 62
     7
 66
     1
 10
0.0
 20
0.0
 30
0.0
  0
VERTEX
  5
AC5
  8
0
  6
CONTINUOUS
 62
     7
 10
92.506411353091835
 20
101.0249330167145
 30
0.0
  0
VERTEX
  5
AC6
  8
0
  6
CONTINUOUS
 62
     7
 10
92.568158413556475
 20
101.0308785823956
 30
0.0
  0
VERTEX
  5
AC7
  8
0
  6
CONTINUOUS
 62
     7
 10
92.691633316282889
 20
101.04276786325541
 30
0.0
  0
VERTEX
  5
AC8
  8
0
  6
CONTINUOUS
 62
     7
 10
92.815050570382198
 20
101.05465159318381
 30
0.0
  0
VERTEX
  5
AC9
  8
0
  6
CONTINUOUS
 62
     7
 10
92.87672557426832
 20
101.0605902206056
 30
0.0
  0
VERTEX
  5
ACA
  8
0
  6
CONTINUOUS
 62
     7
 10
92.938371763372757
 20
101.06652607347949
 30
0.0
  0
VERTEX
  5
ACB
  8
0
  6
CONTINUOUS
 62
     7
 10
93.061558512671084
 20
101.0783876083199
 30
0.0
  0
VERTEX
  5
ACC
  8
0
  6
CONTINUOUS
 62
     7
 10
93.184572477538026
 20
101.090232505912
 30
0.0
  0
VERTEX
  5
ACD
  8
0
  6
CONTINUOUS
 62
     7
 10
93.307375371012014
 20
101.1020570796405
 30
0.0
  0
VERTEX
  5
ACE
  8
0
  6
CONTINUOUS
 62
     7
 10
93.429928971825447
 20
101.113857649216
 30
0.0
  0
VERTEX
  5
ACF
  8
0
  6
CONTINUOUS
 62
     7
 10
93.552195136300867
 20
101.1256305418201
 30
0.0
  0
VERTEX
  5
AD0
  8
0
  6
CONTINUOUS
 62
     7
 10
93.613208534150758
 20
101.1315054638264
 30
0.0
  0
VERTEX
  5
AD1
  8
0
  6
CONTINUOUS
 62
     7
 10
93.674135810222623
 20
101.1373720932486
 30
0.0
  0
VERTEX
  5
AD2
  8
0
  6
CONTINUOUS
 62
     7
 10
93.795713040681065
 20
101.1490786490519
 30
0.0
  0
VERTEX
  5
AD3
  8
0
  6
CONTINUOUS
 62
     7
 10
93.916888987884874
 20
101.1607465656726
 30
0.0
  0
VERTEX
  5
AD4
  8
0
  6
CONTINUOUS
 62
     7
 10
94.037625936938582
 20
101.1723722115793
 30
0.0
  0
VERTEX
  5
AD5
  8
0
  6
CONTINUOUS
 62
     7
 10
94.157886309580746
 20
101.1839519683969
 30
0.0
  0
VERTEX
  5
AD6
  8
0
  6
CONTINUOUS
 62
     7
 10
94.277632675879914
 20
101.1954822320329
 30
0.0
  0
VERTEX
  5
AD7
  8
0
  6
CONTINUOUS
 62
     7
 10
94.337301453224242
 20
101.20122768181049
 30
0.0
  0
VERTEX
  5
AD8
  8
0
  6
CONTINUOUS
 62
     7
 10
94.396827765884467
 20
101.2069594137993
 30
0.0
  0
VERTEX
  5
AD9
  8
0
  6
CONTINUOUS
 62
     7
 10
94.515434481222357
 20
101.21837994152899
 30
0.0
  0
VERTEX
  5
ADA
  8
0
  6
CONTINUOUS
 62
     7
 10
94.63341590664777
 20
101.2297402606882
 30
0.0
  0
VERTEX
  5
ADB
  8
0
  6
CONTINUOUS
 62
     7
 10
94.692160652531257
 20
101.2353967363559
 30
0.0
  0
SEQEND
  5
ADC
  8
0
  6
CONTINUOUS
 62
     7
  0
POLYLINE
  5
513
  8
0
  6
CONTINUOUS
 62
     7
 66
     1
 10
0.0
 20
0.0
 30
0.0
  0
VERTEX
  5
ADD
  8
0
  6
CONTINUOUS
 62
     7
 10
94.692160652531257
 20
101.2353967363559
 30
0.0
  0
VERTEX
  5
ADE
  8
0
  6
CONTINUOUS
 62
     7
 10
94.742132984595926
 20
101.2402085246467
 30
0.0
  0
VERTEX
  5
ADF
  8
0
  6
CONTINUOUS
 62
     7
 10
94.842155645515675
 20
101.24983961146479
 30
0.0
  0
VERTEX
  5
AE0
  8
0
  6
CONTINUOUS
 62
     7
 10
94.942281455337707
 20
101.2594806303926
 30
0.0
  0
VERTEX
  5
AE1
  8
0
  6
CONTINUOUS
 62
     7
 10
94.992382723284649
 20
101.2643048337967
 30
0.0
  0
SEQEND
  5
AE2
  8
0
  6
CONTINUOUS
 62
     7
  0
POLYLINE
  5
517
  8
0
  6
CONTINUOUS
 62
     7
 66
     1
 10
0.0
 20
0.0
 30
0.0
  0
VERTEX
  5
AE3
  8
0
  6
CONTINUOUS
 62
     7
 10
85.183883523046845
 20
100.8197880413223
 30
0.0
  0
VERTEX
  5
AE4
  8
0
  6
CONTINUOUS
 62
     7
 10
85.184713644703294
 20
100.818632698488
 30
0.0
  0
VERTEX
  5
AE5
  8
0
  6
CONTINUOUS
 62
     7
 10
85.191314712362157
 20
100.8095669304214
 30
0.0
  0
VERTEX
  5
AE6
  8
0
  6
CONTINUOUS
 62
     7
 10
85.204369297347895
 20
100.79224430016291
 30
0.0
  0
VERTEX
  5
AE7
  8
0
  6
CONTINUOUS
 62
     7
 10
85.213260065582787
 20
100.780879764681
 30
0.0
  0
VERTEX
  5
AE8
  8
0
  6
CONTINUOUS
 62
     7
 10
85.223687045275824
 20
100.7679693554725
 30
0.0
  0
VERTEX
  5
AE9
  8
0
  6
CONTINUOUS
 62
     7
 10
85.249026753887918
 20
100.73831987169341
 30
0.0
  0
VERTEX
  5
AEA
  8
0
  6
CONTINUOUS
 62
     7
 10
85.280141341358714
 20
100.70488867599219
 30
0.0
  0
VERTEX
  5
AEB
  8
0
  6
CONTINUOUS
 62
     7
 10
85.316786100762187
 20
100.66915282939981
 30
0.0
  0
VERTEX
  5
AEC
  8
0
  6
CONTINUOUS
 62
     7
 10
85.358716933990294
 20
100.6324232638467
 30
0.0
  0
VERTEX
  5
AED
  8
0
  6
CONTINUOUS
 62
     7
 10
85.405802082076335
 20
100.5957554173764
 30
0.0
  0
VERTEX
  5
AEE
  8
0
  6
CONTINUOUS
 62
     7
 10
85.431285226604842
 20
100.57770875806079
 30
0.0
  0
VERTEX
  5
AEF
  8
0
  6
CONTINUOUS
 62
     7
 10
85.458042937588658
 20
100.56000387699351
 30
0.0
  0
VERTEX
  5
AF0
  8
0
  6
CONTINUOUS
 62
     7
 10
85.515323338506633
 20
100.52604152496249
 30
0.0
  0
VERTEX
  5
AF1
  8
0
  6
CONTINUOUS
 62
     7
 10
85.577524595580357
 20
100.4946756936566
 30
0.0
  0
VERTEX
  5
AF2
  8
0
  6
CONTINUOUS
 62
     7
 10
85.644525269631231
 20
100.4666716847269
 30
0.0
  0
VERTEX
  5
AF3
  8
0
  6
CONTINUOUS
 62
     7
 10
85.716211469198797
 20
100.4427731756882
 30
0.0
  0
VERTEX
  5
AF4
  8
0
  6
CONTINUOUS
 62
     7
 10
85.792435935348806
 20
100.4237391776435
 30
0.0
  0
VERTEX
  5
AF5
  8
0
  6
CONTINUOUS
 62
     7
 10
85.832189474809283
 20
100.41629193002019
 30
0.0
  0
VERTEX
  5
AF6
  8
0
  6
CONTINUOUS
 62
     7
 10
85.873002578910757
 20
100.4103596030496
 30
0.0
  0
VERTEX
  5
AF7
  8
0
  6
CONTINUOUS
 62
     7
 10
85.957765347129325
 20
100.4034629032393
 30
0.0
  0
VERTEX
  5
AF8
  8
0
  6
CONTINUOUS
 62
     7
 10
86.046503670823824
 20
100.4039716310976
 30
0.0
  0
VERTEX
  5
AF9
  8
0
  6
CONTINUOUS
 62
     7
 10
86.092253102408833
 20
100.40731982376781
 30
0.0
  0
SEQEND
  5
AFA
  8
0
  6
CONTINUOUS
 62
     7
  0
POLYLINE
  5
519
  8
0
  6
CONTINUOUS
 62
     7
 66
     1
 10
0.0
 20
0.0
 30
0.0
  0
VERTEX
  5
AFB
  8
0
  6
CONTINUOUS
 62
     7
 10
124.8089311767303
 20
106.28381571725041
 30
0.0
  0
VERTEX
  5
AFC
  8
0
  6
CONTINUOUS
 62
     7
 10
124.80810105507391
 20
106.2849710600846
 30
0.0
  0
VERTEX
  5
AFD
  8
0
  6
CONTINUOUS
 62
     7
 10
124.8014999874151
 20
106.29403682815121
 30
0.0
  0
VERTEX
  5
AFE
  8
0
  6
CONTINUOUS
 62
     7
 10
124.7884454024294
 20
106.3113594584096
 30
0.0
  0
VERTEX
  5
AFF
  8
0
  6
CONTINUOUS
 62
     7
 10
124.7795546341946
 20
106.3227239938915
 30
0.0
  0
VERTEX
  5
B00
  8
0
  6
CONTINUOUS
 62
     7
 10
124.7691276545015
 20
106.3356344030999
 30
0.0
  0
VERTEX
  5
B01
  8
0
  6
CONTINUOUS
 62
     7
 10
124.74378794588949
 20
106.3652838868791
 30
0.0
  0
VERTEX
  5
B02
  8
0
  6
CONTINUOUS
 62
     7
 10
124.7126733584187
 20
106.3987150825802
 30
0.0
  0
VERTEX
  5
B03
  8
0
  6
CONTINUOUS
 62
     7
 10
124.6760285990152
 20
106.4344509291726
 30
0.0
  0
VERTEX
  5
B04
  8
0
  6
CONTINUOUS
 62
     7
 10
124.6340977657871
 20
106.4711804947258
 30
0.0
  0
VERTEX
  5
B05
  8
0
  6
CONTINUOUS
 62
     7
 10
124.58701261770111
 20
106.50784834119609
 30
0.0
  0
VERTEX
  5
B06
  8
0
  6
CONTINUOUS
 62
     7
 10
124.5615294731726
 20
106.5258950005117
 30
0.0
  0
VERTEX
  5
B07
  8
0
  6
CONTINUOUS
 62
     7
 10
124.5347717621888
 20
106.543599881579
 30
0.0
  0
VERTEX
  5
B08
  8
0
  6
CONTINUOUS
 62
     7
 10
124.47749136127079
 20
106.57756223361
 30
0.0
  0
VERTEX
  5
B09
  8
0
  6
CONTINUOUS
 62
     7
 10
124.4152901041971
 20
106.6089280649159
 30
0.0
  0
VERTEX
  5
B0A
  8
0
  6
CONTINUOUS
 62
     7
 10
124.3482894301462
 20
106.6369320738457
 30
0.0
  0
VERTEX
  5
B0B
  8
0
  6
CONTINUOUS
 62
     7
 10
124.2766032305786
 20
106.6608305828845
 30
0.0
  0
VERTEX
  5
B0C
  8
0
  6
CONTINUOUS
 62
     7
 10
124.20037876442851
 20
106.67986458092921
 30
0.0
  0
VERTEX
  5
B0D
  8
0
  6
CONTINUOUS
 62
     7
 10
124.160625224968
 20
106.6873118285524
 30
0.0
  0
VERTEX
  5
B0E
  8
0
  6
CONTINUOUS
 62
     7
 10
124.1198121208666
 20
106.693244155523
 30
0.0
  0
VERTEX
  5
B0F
  8
0
  6
CONTINUOUS
 62
     7
 10
124.035049352648
 20
106.7001408553334
 30
0.0
  0
VERTEX
  5
B10
  8
0
  6
CONTINUOUS
 62
     7
 10
123.9463110289534
 20
106.6996321274751
 30
0.0
  0
VERTEX
  5
B11
  8
0
  6
CONTINUOUS
 62
     7
 10
123.90056159736839
 20
106.6962839348049
 30
0.0
  0
SEQEND
  5
B12
  8
0
  6
CONTINUOUS
 62
     7
  0
POLYLINE
  5
51A
  8
0
  6
CONTINUOUS
 62
     7
 66
     1
 10
0.0
 20
0.0
 30
0.0
  0
VERTEX
  5
B13
  8
0
  6
CONTINUOUS
 62
     7
 10
86.092253102408833
 20
106.6962839348049
 30
0.0
  0
VERTEX
  5
B14
  8
0
  6
CONTINUOUS
 62
     7
 10
86.047332515710025
 20
106.6995902083912
 30
0.0
  0
VERTEX
  5
B15
  8
0
  6
CONTINUOUS
 62
     7
 10
85.960151565696947
 20
106.70023027936909
 30
0.0
  0
VERTEX
  5
B16
  8
0
  6
CONTINUOUS
 62
     7
 10
85.876553378037656
 20
106.6936792681459
 30
0.0
  0
VERTEX
  5
B17
  8
0
  6
CONTINUOUS
 62
     7
 10
85.835958817472729
 20
106.68793194438661
 30
0.0
  0
VERTEX
  5
B18
  8
0
  6
CONTINUOUS
 62
     7
 10
85.796202184004443
 20
106.6806417318637
 30
0.0
  0
VERTEX
  5
B19
  8
0
  6
CONTINUOUS
 62
     7
 10
85.719325646925412
 20
106.66173409766461
 30
0.0
  0
VERTEX
  5
B1A
  8
0
  6
CONTINUOUS
 62
     7
 10
85.646176482754129
 20
106.6375511443416
 30
0.0
  0
VERTEX
  5
B1B
  8
0
  6
CONTINUOUS
 62
     7
 10
85.577019931247364
 20
106.6086950910484
 30
0.0
  0
VERTEX
  5
B1C
  8
0
  6
CONTINUOUS
 62
     7
 10
85.512136128314481
 20
106.5758056662774
 30
0.0
  0
VERTEX
  5
B1D
  8
0
  6
CONTINUOUS
 62
     7
 10
85.451823970607137
 20
106.53959444501371
 30
0.0
  0
VERTEX
  5
B1E
  8
0
  6
CONTINUOUS
 62
     7
 10
85.423722924594443
 20
106.5206636503468
 30
0.0
  0
VERTEX
  5
B1F
  8
0
  6
CONTINUOUS
 62
     7
 10
85.397296904658518
 20
106.5015541303972
 30
0.0
  0
VERTEX
  5
B20
  8
0
  6
CONTINUOUS
 62
     7
 10
85.349380602648239
 20
106.4633550395763
 30
0.0
  0
VERTEX
  5
B21
  8
0
  6
CONTINUOUS
 62
     7
 10
85.307901692512175
 20
106.42611870637801
 30
0.0
  0
VERTEX
  5
B22
  8
0
  6
CONTINUOUS
 62
     7
 10
85.272695338315955
 20
106.390989847944
 30
0.0
  0
VERTEX
  5
B23
  8
0
  6
CONTINUOUS
 62
     7
 10
85.243604695921675
 20
106.35913401571339
 30
0.0
  0
VERTEX
  5
B24
  8
0
  6
CONTINUOUS
 62
     7
 10
85.220409505672933
 20
106.3316232957434
 30
0.0
  0
VERTEX
  5
B25
  8
0
  6
CONTINUOUS
 62
     7
 10
85.210873019466234
 20
106.31970581610879
 30
0.0
  0
VERTEX
  5
B26
  8
0
  6
CONTINUOUS
 62
     7
 10
85.202724602971287
 20
106.3092196337156
 30
0.0
  0
VERTEX
  5
B27
  8
0
  6
CONTINUOUS
 62
     7
 10
85.190718294994241
 20
106.29322644598101
 30
0.0
  0
VERTEX
  5
B28
  8
0
  6
CONTINUOUS
 62
     7
 10
85.184646663453137
 20
106.2848779657719
 30
0.0
  0
VERTEX
  5
B29
  8
0
  6
CONTINUOUS
 62
     7
 10
85.183883523046845
 20
106.28381571725041
 30
0.0
  0
SEQEND
  5
B2A
  8
0
  6
CONTINUOUS
 62
     7
  0
POLYLINE
  5
524
  8
0
  6
CONTINUOUS
 62
     7
 66
     1
 10
0.0
 20
0.0
 30
0.0
  0
VERTEX
  5
B2B
  8
0
  6
CONTINUOUS
 62
     7
 10
100.4830759097506
 20
100.8699481712213
 30
0.0
  0
VERTEX
  5
B2C
  8
0
  6
CONTINUOUS
 62
     7
 10
100.4045963500697
 20
101.0066551758639
 30
0.0
  0
VERTEX
  5
B2D
  8
0
  6
CONTINUOUS
 62
     7
 10
100.2596872068916
 20
101.28773865425779
 30
0.0
  0
VERTEX
  5
B2E
  8
0
  6
CONTINUOUS
 62
     7
 10
100.131723964405
 20
101.577629759384
 30
0.0
  0
VERTEX
  5
B2F
  8
0
  6
CONTINUOUS
 62
     7
 10
100.0743466301887
 20
101.725379619351
 30
0.0
  0
VERTEX
  5
B30
  8
0
  6
CONTINUOUS
 62
     7
 10
100.0214762709365
 20
101.8747327812236
 30
0.0
  0
VERTEX
  5
B31
  8
0
  6
CONTINUOUS
 62
     7
 10
99.929533560655358
 20
102.17728741811069
 30
0.0
  0
VERTEX
  5
B32
  8
0
  6
CONTINUOUS
 62
     7
 10
99.856288803488411
 20
102.4833069897559
 30
0.0
  0
VERTEX
  5
B33
  8
0
  6
CONTINUOUS
 62
     7
 10
99.801861175193295
 20
102.7907565199561
 30
0.0
  0
VERTEX
  5
B34
  8
0
  6
CONTINUOUS
 62
     7
 10
99.766095546560962
 20
103.09755696740351
 30
0.0
  0
VERTEX
  5
B35
  8
0
  6
CONTINUOUS
 62
     7
 10
99.748557988584366
 20
103.4015451621034
 30
0.0
  0
VERTEX
  5
B36
  8
0
  6
CONTINUOUS
 62
     7
 10
99.746407349888614
 20
103.5518018792863
 30
0.0
  0
VERTEX
  5
B37
  8
0
  6
CONTINUOUS
 62
     7
 10
99.748557988584366
 20
103.7020585964692
 30
0.0
  0
VERTEX
  5
B38
  8
0
  6
CONTINUOUS
 62
     7
 10
99.766095546560962
 20
104.0060467911692
 30
0.0
  0
VERTEX
  5
B39
  8
0
  6
CONTINUOUS
 62
     7
 10
99.801861175193267
 20
104.3128472386165
 30
0.0
  0
VERTEX
  5
B3A
  8
0
  6
CONTINUOUS
 62
     7
 10
99.856288803488411
 20
104.6202967688167
 30
0.0
  0
VERTEX
  5
B3B
  8
0
  6
CONTINUOUS
 62
     7
 10
99.929533560655344
 20
104.9263163404619
 30
0.0
  0
VERTEX
  5
B3C
  8
0
  6
CONTINUOUS
 62
     7
 10
100.0214762709365
 20
105.228870977349
 30
0.0
  0
VERTEX
  5
B3D
  8
0
  6
CONTINUOUS
 62
     7
 10
100.0743466301887
 20
105.3782241392216
 30
0.0
  0
VERTEX
  5
B3E
  8
0
  6
CONTINUOUS
 62
     7
 10
100.131723964405
 20
105.52597399918859
 30
0.0
  0
VERTEX
  5
B3F
  8
0
  6
CONTINUOUS
 62
     7
 10
100.2596872068916
 20
105.8158651043148
 30
0.0
  0
VERTEX
  5
B40
  8
0
  6
CONTINUOUS
 62
     7
 10
100.4045963500697
 20
106.09694858270871
 30
0.0
  0
VERTEX
  5
B41
  8
0
  6
CONTINUOUS
 62
     7
 10
100.4830759097506
 20
106.23365558735129
 30
0.0
  0
SEQEND
  5
B42
  8
0
  6
CONTINUOUS
 62
     7
  0
POLYLINE
  5
525
  8
0
  6
CONTINUOUS
 62
     7
 66
     1
 10
0.0
 20
0.0
 30
0.0
  0
VERTEX
  5
B43
  8
0
  6
CONTINUOUS
 62
     7
 10
109.5097387900266
 20
106.23365558735129
 30
0.0
  0
VERTEX
  5
B44
  8
0
  6
CONTINUOUS
 62
     7
 10
109.5882183497075
 20
106.09694858270871
 30
0.0
  0
VERTEX
  5
B45
  8
0
  6
CONTINUOUS
 62
     7
 10
109.7331274928856
 20
105.8158651043148
 30
0.0
  0
VERTEX
  5
B46
  8
0
  6
CONTINUOUS
 62
     7
 10
109.8610907353722
 20
105.52597399918859
 30
0.0
  0
VERTEX
  5
B47
  8
0
  6
CONTINUOUS
 62
     7
 10
109.9184680695885
 20
105.3782241392216
 30
0.0
  0
VERTEX
  5
B48
  8
0
  6
CONTINUOUS
 62
     7
 10
109.9713384288407
 20
105.228870977349
 30
0.0
  0
VERTEX
  5
B49
  8
0
  6
CONTINUOUS
 62
     7
 10
110.0632811391219
 20
104.92631634046199
 30
0.0
  0
VERTEX
  5
B4A
  8
0
  6
CONTINUOUS
 62
     7
 10
110.1365258962888
 20
104.6202967688167
 30
0.0
  0
VERTEX
  5
B4B
  8
0
  6
CONTINUOUS
 62
     7
 10
110.1909535245839
 20
104.3128472386165
 30
0.0
  0
VERTEX
  5
B4C
  8
0
  6
CONTINUOUS
 62
     7
 10
110.22671915321619
 20
104.0060467911692
 30
0.0
  0
VERTEX
  5
B4D
  8
0
  6
CONTINUOUS
 62
     7
 10
110.2442567111928
 20
103.7020585964693
 30
0.0
  0
VERTEX
  5
B4E
  8
0
  6
CONTINUOUS
 62
     7
 10
110.2464073498886
 20
103.5518018792863
 30
0.0
  0
VERTEX
  5
B4F
  8
0
  6
CONTINUOUS
 62
     7
 10
110.2442567111928
 20
103.4015451621034
 30
0.0
  0
VERTEX
  5
B50
  8
0
  6
CONTINUOUS
 62
     7
 10
110.22671915321619
 20
103.09755696740351
 30
0.0
  0
VERTEX
  5
B51
  8
0
  6
CONTINUOUS
 62
     7
 10
110.1909535245839
 20
102.7907565199562
 30
0.0
  0
VERTEX
  5
B52
  8
0
  6
CONTINUOUS
 62
     7
 10
110.1365258962888
 20
102.483306989756
 30
0.0
  0
VERTEX
  5
B53
  8
0
  6
CONTINUOUS
 62
     7
 10
110.0632811391219
 20
102.17728741811069
 30
0.0
  0
VERTEX
  5
B54
  8
0
  6
CONTINUOUS
 62
     7
 10
109.9713384288407
 20
101.8747327812237
 30
0.0
  0
VERTEX
  5
B55
  8
0
  6
CONTINUOUS
 62
     7
 10
109.9184680695885
 20
101.725379619351
 30
0.0
  0
VERTEX
  5
B56
  8
0
  6
CONTINUOUS
 62
     7
 10
109.8610907353722
 20
101.577629759384
 30
0.0
  0
VERTEX
  5
B57
  8
0
  6
CONTINUOUS
 62
     7
 10
109.7331274928856
 20
101.28773865425789
 30
0.0
  0
VERTEX
  5
B58
  8
0
  6
CONTINUOUS
 62
     7
 10
109.5882183497075
 20
101.0066551758639
 30
0.0
  0
VERTEX
  5
B59
  8
0
  6
CONTINUOUS
 62
     7
 10
109.5097387900266
 20
100.8699481712214
 30
0.0
  0
SEQEND
  5
B5A
  8
0
  6
CONTINUOUS
 62
     7
  0
ARC
  5
528
  8
0
  6
CONTINUOUS
 62
     7
 10
104.9964073498886
 20
103.5518018792863
 30
0.0
 40
5.2499999999999991
 50
210.71908331486799
 51
329.28091668513332
  0
ARC
  5
52A
  8
0
  6
CONTINUOUS
 62
     7
 10
104.9964073498886
 20
103.5518018792863
 30
0.0
 40
5.2499999999999991
 50
30.719083314866651
 51
149.28091668513329
  0
LINE
  5
52D
  8
1
 10
104.9964073498886
 20
94.496253095656797
 30
0.0
 11
104.9964073498886
 21
112.7966621138121
 31
0.0
  0
LINE
  5
52E
  8
1
 10
127.245349197281
 20
103.5518018792863
 30
0.0
 11
82.557178775665307
 21
103.5518018792863
 31
0.0
  0
LINE
  5
542
  8
0
  6
CONTINUOUS
 62
     7
 10
99.246407349888614
 20
47.046169512017237
 30
0.0
 11
99.246407349888614
 21
46.846169512017241
 31
0.0
  0
LINE
  5
543
  8
0
  6
CONTINUOUS
 62
     7
 10
110.7464073498886
 20
46.846169512017241
 30
0.0
 11
110.7464073498886
 21
47.046169512017237
 31
0.0
  0
LINE
  5
544
  8
2
 10
101.6729073498886
 20
47.522669512017252
 30
0.0
 11
100.9964073498886
 21
46.846169512017241
 31
0.0
  0
LINE
  5
545
  8
2
 10
108.9964073498886
 20
46.846169512017241
 30
0.0
 11
108.3199073498886
 21
47.522669512017252
 31
0.0
  0
LINE
  5
546
  8
2
 10
101.6729073498886
 20
62.446169512017242
 30
0.0
 11
101.6729073498886
 21
47.522669512017252
 31
0.0
  0
LINE
  5
547
  8
2
 10
108.3199073498886
 20
47.522669512017252
 30
0.0
 11
108.3199073498886
 21
62.446169512017242
 31
0.0
  0
LINE
  5
548
  8
2
 10
104.9964073498886
 20
64.364993131668967
 30
0.0
 11
101.6729073498886
 21
62.446169512017242
 31
0.0
  0
LINE
  5
549
  8
2
 10
108.3199073498886
 20
62.446169512017242
 30
0.0
 11
104.9964073498886
 21
64.364993131668967
 31
0.0
  0
ARC
  5
54A
  8
0
  6
CONTINUOUS
 62
     7
 10
91.796407349888611
 20
61.046169512017229
 30
0.0
 40
6.7999999999999998
 50
90.0
 51
252.2777534441239
  0
ARC
  5
54B
  8
0
  6
CONTINUOUS
 62
     7
 10
118.1964073498886
 20
61.046169512017229
 30
0.0
 40
6.8000000000000016
 50
287.7222465558761
 51
90.0
  0
LINE
  5
54C
  8
0
  6
CONTINUOUS
 62
     7
 10
89.726467403776667
 20
54.568874658493122
 30
0.0
 11
98.246407349888614
 21
51.846169512017241
 31
0.0
  0
LINE
  5
54D
  8
0
  6
CONTINUOUS
 62
     7
 10
111.7464073498886
 20
51.846169512017241
 30
0.0
 11
120.2663472960005
 21
54.568874658493122
 31
0.0
  0
LINE
  5
54E
  8
0
  6
CONTINUOUS
 62
     7
 10
98.246407349888614
 20
51.846169512017241
 30
0.0
 11
98.246407349888614
 21
47.046169512017237
 31
0.0
  0
LINE
  5
54F
  8
0
  6
CONTINUOUS
 62
     7
 10
111.7464073498886
 20
47.046169512017237
 30
0.0
 11
111.7464073498886
 21
51.846169512017241
 31
0.0
  0
ARC
  5
553
  8
0
  6
CONTINUOUS
 62
     7
 10
104.9964073498886
 20
58.846169512017269
 30
0.0
 40
8.9999999999999662
 50
55.307878969974112
 51
124.692121030027
  0
LINE
  5
555
  8
0
  6
CONTINUOUS
 62
     7
 10
110.7464073498886
 20
46.846169512017241
 30
0.0
 11
99.246407349888614
 21
46.846169512017241
 31
0.0
  0
LINE
  5
557
  8
2
 10
108.3199073498886
 20
47.522669512017252
 30
0.0
 11
101.6729073498886
 21
47.522669512017252
 31
0.0
  0
LINE
  5
558
  8
2
 10
108.3199073498886
 20
62.446169512017242
 30
0.0
 11
101.6729073498886
 21
62.446169512017242
 31
0.0
  0
LINE
  5
559
  8
0
  6
CONTINUOUS
 62
     7
 10
92.506411353091835
 20
67.846169512017241
 30
0.0
 11
91.796407349888611
 21
67.846169512017241
 31
0.0
  0
LINE
  5
55A
  8
0
  6
CONTINUOUS
 62
     7
 10
118.1964073498886
 20
67.846169512017241
 30
0.0
 11
117.48640334668541
 21
67.846169512017241
 31
0.0
  0
POLYLINE
  5
55D
  8
0
  6
CONTINUOUS
 62
     7
 66
     1
 10
0.0
 20
0.0
 30
0.0
  0
VERTEX
  5
B5B
  8
0
  6
CONTINUOUS
 62
     7
 10
110.21835789696929
 20
66.261951975242738
 30
0.0
  0
VERTEX
  5
B5C
  8
0
  6
CONTINUOUS
 62
     7
 10
110.1835734904049
 20
66.256396462321391
 30
0.0
  0
VERTEX
  5
B5D
  8
0
  6
CONTINUOUS
 62
     7
 10
110.1132047006985
 20
66.245274050837878
 30
0.0
  0
VERTEX
  5
B5E
  8
0
  6
CONTINUOUS
 62
     7
 10
110.04181421204311
 20
66.234149188288086
 30
0.0
  0
VERTEX
  5
B5F
  8
0
  6
CONTINUOUS
 62
     7
 10
110.00575311813679
 20
66.228590586319314
 30
0.0
  0
VERTEX
  5
B60
  8
0
  6
CONTINUOUS
 62
     7
 10
109.9694575693031
 20
66.223037051826026
 30
0.0
  0
VERTEX
  5
B61
  8
0
  6
CONTINUOUS
 62
     7
 10
109.8961920860941
 20
66.211952660086382
 30
0.0
  0
VERTEX
  5
B62
  8
0
  6
CONTINUOUS
 62
     7
 10
109.8220767423734
 20
66.20091082236317
 30
0.0
  0
VERTEX
  5
B63
  8
0
  6
CONTINUOUS
 62
     7
 10
109.74713400642879
 20
66.189920550526892
 30
0.0
  0
VERTEX
  5
B64
  8
0
  6
CONTINUOUS
 62
     7
 10
109.6707963952399
 20
66.178906280263362
 30
0.0
  0
VERTEX
  5
B65
  8
0
  6
CONTINUOUS
 62
     7
 10
109.5928727202274
 20
66.167850918502126
 30
0.0
  0
VERTEX
  5
B66
  8
0
  6
CONTINUOUS
 62
     7
 10
109.5533234987091
 20
66.162312407742974
 30
0.0
  0
VERTEX
  5
B67
  8
0
  6
CONTINUOUS
 62
     7
 10
109.5133868716414
 20
66.156769150431131
 30
0.0
  0
VERTEX
  5
B68
  8
0
  6
CONTINUOUS
 62
     7
 10
109.4323646452616
 20
66.145675893822016
 30
0.0
  0
VERTEX
  5
B69
  8
0
  6
CONTINUOUS
 62
     7
 10
109.3498336242923
 20
66.134586247471162
 30
0.0
  0
VERTEX
  5
B6A
  8
0
  6
CONTINUOUS
 62
     7
 10
109.26582305336881
 20
66.123515439480926
 30
0.0
  0
VERTEX
  5
B6B
  8
0
  6
CONTINUOUS
 62
     7
 10
109.1803637042193
 20
66.112478775635935
 30
0.0
  0
VERTEX
  5
B6C
  8
0
  6
CONTINUOUS
 62
     7
 10
109.0934877325226
 20
66.101491588143318
 30
0.0
  0
VERTEX
  5
B6D
  8
0
  6
CONTINUOUS
 62
     7
 10
109.0495289029835
 20
66.096021334095383
 30
0.0
  0
VERTEX
  5
B6E
  8
0
  6
CONTINUOUS
 62
     7
 10
109.00522852550129
 20
66.090569185020343
 30
0.0
  0
VERTEX
  5
B6F
  8
0
  6
CONTINUOUS
 62
     7
 10
108.91562053980719
 20
66.079726800426343
 30
0.0
  0
VERTEX
  5
B70
  8
0
  6
CONTINUOUS
 62
     7
 10
108.8246991292785
 20
66.068979546252081
 30
0.0
  0
VERTEX
  5
B71
  8
0
  6
CONTINUOUS
 62
     7
 10
108.77875713834641
 20
66.0636462705437
 30
0.0
  0
VERTEX
  5
B72
  8
0
  6
CONTINUOUS
 62
     7
 10
108.7325003633993
 20
66.058342365431315
 30
0.0
  0
VERTEX
  5
B73
  8
0
  6
CONTINUOUS
 62
     7
 10
108.63906104690879
 20
66.047830010701261
 30
0.0
  0
VERTEX
  5
B74
  8
0
  6
CONTINUOUS
 62
     7
 10
108.544419396314
 20
66.037457094148408
 30
0.0
  0
VERTEX
  5
B75
  8
0
  6
CONTINUOUS
 62
     7
 10
108.4966600917699
 20
66.032327451951275
 30
0.0
  0
VERTEX
  5
B76
  8
0
  6
CONTINUOUS
 62
     7
 10
108.44861527498161
 20
66.027238078438756
 30
0.0
  0
VERTEX
  5
B77
  8
0
  6
CONTINUOUS
 62
     7
 10
108.3516900757617
 20
66.017187227617114
 30
0.0
  0
VERTEX
  5
B78
  8
0
  6
CONTINUOUS
 62
     7
 10
108.2536865892329
 20
66.007318558353575
 30
0.0
  0
VERTEX
  5
B79
  8
0
  6
CONTINUOUS
 62
     7
 10
108.1546488656947
 20
65.997645792862983
 30
0.0
  0
VERTEX
  5
B7A
  8
0
  6
CONTINUOUS
 62
     7
 10
108.054622070573
 20
65.988182313739429
 30
0.0
  0
VERTEX
  5
B7B
  8
0
  6
CONTINUOUS
 62
     7
 10
107.9536523328852
 20
65.978941120950537
 30
0.0
  0
VERTEX
  5
B7C
  8
0
  6
CONTINUOUS
 62
     7
 10
107.9028285004452
 20
65.974407829752664
 30
0.0
  0
VERTEX
  5
B7D
  8
0
  6
CONTINUOUS
 62
     7
 10
107.8517865864
 20
65.969934791239069
 30
0.0
  0
VERTEX
  5
B7E
  8
0
  6
CONTINUOUS
 62
     7
 10
107.74907240312611
 20
65.961175440181307
 30
0.0
  0
VERTEX
  5
B7F
  8
0
  6
CONTINUOUS
 62
     7
 10
107.64555781877731
 20
65.952674687155792
 30
0.0
  0
VERTEX
  5
B80
  8
0
  6
CONTINUOUS
 62
     7
 10
107.54128889576231
 20
65.944443449126993
 30
0.0
  0
VERTEX
  5
B81
  8
0
  6
CONTINUOUS
 62
     7
 10
107.43629303899731
 20
65.93649072561638
 30
0.0
  0
VERTEX
  5
B82
  8
0
  6
CONTINUOUS
 62
     7
 10
107.3306143952927
 20
65.928826401292383
 30
0.0
  0
VERTEX
  5
B83
  8
0
  6
CONTINUOUS
 62
     7
 10
107.2775348105047
 20
65.925105472280876
 30
0.0
  0
VERTEX
  5
B84
  8
0
  6
CONTINUOUS
 62
     7
 10
107.2243036271251
 20
65.921460277494361
 30
0.0
  0
VERTEX
  5
B85
  8
0
  6
CONTINUOUS
 62
     7
 10
107.11741262743899
 20
65.91440161819466
 30
0.0
  0
VERTEX
  5
B86
  8
0
  6
CONTINUOUS
 62
     7
 10
107.0099943646869
 20
65.907659112580006
 30
0.0
  0
VERTEX
  5
B87
  8
0
  6
CONTINUOUS
 62
     7
 10
106.90210272292509
 20
65.901240840897202
 30
0.0
  0
VERTEX
  5
B88
  8
0
  6
CONTINUOUS
 62
     7
 10
106.7937923368131
 20
65.895154243762192
 30
0.0
  0
VERTEX
  5
B89
  8
0
  6
CONTINUOUS
 62
     7
 10
106.6851184213178
 20
65.889406095121586
 30
0.0
  0
VERTEX
  5
B8A
  8
0
  6
CONTINUOUS
 62
     7
 10
106.6306625102539
 20
65.886660867760725
 30
0.0
  0
VERTEX
  5
B8B
  8
0
  6
CONTINUOUS
 62
     7
 10
106.5761365958863
 20
65.884002479048377
 30
0.0
  0
VERTEX
  5
B8C
  8
0
  6
CONTINUOUS
 62
     7
 10
106.46690270282321
 20
65.878948770544383
 30
0.0
  0
VERTEX
  5
B8D
  8
0
  6
CONTINUOUS
 62
     7
 10
106.3574726195809
 20
65.874249620515059
 30
0.0
  0
VERTEX
  5
B8E
  8
0
  6
CONTINUOUS
 62
     7
 10
106.2479020663107
 20
65.869908945137183
 30
0.0
  0
VERTEX
  5
B8F
  8
0
  6
CONTINUOUS
 62
     7
 10
106.1382466863014
 20
65.865929929354706
 30
0.0
  0
VERTEX
  5
B90
  8
0
  6
CONTINUOUS
 62
     7
 10
106.02856294137599
 20
65.862315055102101
 30
0.0
  0
VERTEX
  5
B91
  8
0
  6
CONTINUOUS
 62
     7
 10
105.9737283778299
 20
65.860644753293997
 30
0.0
  0
VERTEX
  5
B92
  8
0
  6
CONTINUOUS
 62
     7
 10
105.91890837841041
 20
65.85906609488805
 30
0.0
  0
VERTEX
  5
B93
  8
0
  6
CONTINUOUS
 62
     7
 10
105.8093414512382
 20
65.856184089970412
 30
0.0
  0
VERTEX
  5
B94
  8
0
  6
CONTINUOUS
 62
     7
 10
105.6999213315311
 20
65.853669332769925
 30
0.0
  0
VERTEX
  5
B95
  8
0
  6
CONTINUOUS
 62
     7
 10
105.5907077185629
 20
65.851521353993292
 30
0.0
  0
VERTEX
  5
B96
  8
0
  6
CONTINUOUS
 62
     7
 10
105.4817606478877
 20
65.849738914509857
 30
0.0
  0
VERTEX
  5
B97
  8
0
  6
CONTINUOUS
 62
     7
 10
105.37314029884919
 20
65.848320002008762
 30
0.0
  0
VERTEX
  5
B98
  8
0
  6
CONTINUOUS
 62
     7
 10
105.3189714426323
 20
65.84774602837075
 30
0.0
  0
VERTEX
  5
B99
  8
0
  6
CONTINUOUS
 62
     7
 10
105.26490680072629
 20
65.847261832445497
 30
0.0
  0
VERTEX
  5
B9A
  8
0
  6
CONTINUOUS
 62
     7
 10
105.157120037214
 20
65.84656085627509
 30
0.0
  0
VERTEX
  5
B9B
  8
0
  6
CONTINUOUS
 62
     7
 10
105.0498394488352
 20
65.846212769457665
 30
0.0
  0
VERTEX
  5
B9C
  8
0
  6
CONTINUOUS
 62
     7
 10
104.9964073751065
 20
65.846169512017241
 30
0.0
  0
VERTEX
  5
B9D
  8
0
  6
CONTINUOUS
 62
     7
 10
104.94297530151481
 20
65.846212769375796
 30
0.0
  0
VERTEX
  5
B9E
  8
0
  6
CONTINUOUS
 62
     7
 10
104.8356947133891
 20
65.846560856027565
 30
0.0
  0
VERTEX
  5
B9F
  8
0
  6
CONTINUOUS
 62
     7
 10
104.72790795010209
 20
65.847261832030085
 30
0.0
  0
VERTEX
  5
BA0
  8
0
  6
CONTINUOUS
 62
     7
 10
104.6738433082982
 20
65.847746027870727
 30
0.0
  0
VERTEX
  5
BA1
  8
0
  6
CONTINUOUS
 62
     7
 10
104.6196744521761
 20
65.848320001423644
 30
0.0
  0
VERTEX
  5
BA2
  8
0
  6
CONTINUOUS
 62
     7
 10
104.51105410330629
 20
65.849738913753555
 30
0.0
  0
VERTEX
  5
BA3
  8
0
  6
CONTINUOUS
 62
     7
 10
104.4021070327713
 20
65.851521353064641
 30
0.0
  0
VERTEX
  5
BA4
  8
0
  6
CONTINUOUS
 62
     7
 10
104.2928934199149
 20
65.853669331668186
 30
0.0
  0
VERTEX
  5
BA5
  8
0
  6
CONTINUOUS
 62
     7
 10
104.1834733002912
 20
65.85618408869513
 30
0.0
  0
VERTEX
  5
BA6
  8
0
  6
CONTINUOUS
 62
     7
 10
104.0739063731743
 20
65.859066093439225
 30
0.0
  0
VERTEX
  5
BA7
  8
0
  6
CONTINUOUS
 62
     7
 10
104.0190863737721
 20
65.860644751758514
 30
0.0
  0
VERTEX
  5
BA8
  8
0
  6
CONTINUOUS
 62
     7
 10
103.96425181023631
 20
65.862315053480017
 30
0.0
  0
VERTEX
  5
BA9
  8
0
  6
CONTINUOUS
 62
     7
 10
103.8545680653111
 20
65.865929927560074
 30
0.0
  0
VERTEX
  5
BAA
  8
0
  6
CONTINUOUS
 62
     7
 10
103.7449126852749
 20
65.869908943170998
 30
0.0
  0
VERTEX
  5
BAB
  8
0
  6
CONTINUOUS
 62
     7
 10
103.6353421319515
 20
65.874249618378627
 30
0.0
  0
VERTEX
  5
BAC
  8
0
  6
CONTINUOUS
 62
     7
 10
103.52591204862961
 20
65.878948768239411
 30
0.0
  0
VERTEX
  5
BAD
  8
0
  6
CONTINUOUS
 62
     7
 10
103.4166781554606
 20
65.884002476576882
 30
0.0
  0
VERTEX
  5
BAE
  8
0
  6
CONTINUOUS
 62
     7
 10
103.3621522410301
 20
65.886660865206835
 30
0.0
  0
VERTEX
  5
BAF
  8
0
  6
CONTINUOUS
 62
     7
 10
103.3076963298968
 20
65.889406092485913
 30
0.0
  0
VERTEX
  5
BB0
  8
0
  6
CONTINUOUS
 62
     7
 10
103.19902241424271
 20
65.89515424096507
 30
0.0
  0
VERTEX
  5
BB1
  8
0
  6
CONTINUOUS
 62
     7
 10
103.0907120279459
 20
65.901240837941685
 30
0.0
  0
VERTEX
  5
BB2
  8
0
  6
CONTINUOUS
 62
     7
 10
102.9828203859732
 20
65.907659109469421
 30
0.0
  0
VERTEX
  5
BB3
  8
0
  6
CONTINUOUS
 62
     7
 10
102.8754021229846
 20
65.914401614932729
 30
0.0
  0
VERTEX
  5
BB4
  8
0
  6
CONTINUOUS
 62
     7
 10
102.7685111230367
 20
65.921460274085007
 30
0.0
  0
VERTEX
  5
BB5
  8
0
  6
CONTINUOUS
 62
     7
 10
102.7152799395169
 20
65.925105468799387
 30
0.0
  0
VERTEX
  5
BB6
  8
0
  6
CONTINUOUS
 62
     7
 10
102.6622003545825
 20
65.928826397739869
 30
0.0
  0
VERTEX
  5
BB7
  8
0
  6
CONTINUOUS
 62
     7
 10
102.5565217105671
 20
65.936490721925225
 30
0.0
  0
VERTEX
  5
BB8
  8
0
  6
CONTINUOUS
 62
     7
 10
102.4515258534677
 20
65.944443445301914
 30
0.0
  0
VERTEX
  5
BB9
  8
0
  6
CONTINUOUS
 62
     7
 10
102.3472569301033
 20
65.952674683201138
 30
0.0
  0
VERTEX
  5
BBA
  8
0
  6
CONTINUOUS
 62
     7
 10
102.2437423453876
 20
65.961175436101755
 30
0.0
  0
VERTEX
  5
BBB
  8
0
  6
CONTINUOUS
 62
     7
 10
102.14102816172409
 20
65.969934787040017
 30
0.0
  0
VERTEX
  5
BBC
  8
0
  6
CONTINUOUS
 62
     7
 10
102.08998624747549
 20
65.974407825495973
 30
0.0
  0
VERTEX
  5
BBD
  8
0
  6
CONTINUOUS
 62
     7
 10
102.03916241482651
 20
65.9789411166376
 30
0.0
  0
VERTEX
  5
BBE
  8
0
  6
CONTINUOUS
 62
     7
 10
101.9381926767042
 20
65.988182309318404
 30
0.0
  0
VERTEX
  5
BBF
  8
0
  6
CONTINUOUS
 62
     7
 10
101.8381658811259
 20
65.99764578833998
 30
0.0
  0
VERTEX
  5
BC0
  8
0
  6
CONTINUOUS
 62
     7
 10
101.7391281571095
 20
66.007318553734791
 30
0.0
  0
VERTEX
  5
BC1
  8
0
  6
CONTINUOUS
 62
     7
 10
101.6411246700814
 20
66.017187222908944
 30
0.0
  0
VERTEX
  5
BC2
  8
0
  6
CONTINUOUS
 62
     7
 10
101.5441994703417
 20
66.027238073647794
 30
0.0
  0
VERTEX
  5
BC3
  8
0
  6
CONTINUOUS
 62
     7
 10
101.4961546532859
 20
66.032327447121403
 30
0.0
  0
VERTEX
  5
BC4
  8
0
  6
CONTINUOUS
 62
     7
 10
101.4483953484695
 20
66.037457089281332
 30
0.0
  0
VERTEX
  5
BC5
  8
0
  6
CONTINUOUS
 62
     7
 10
101.3537536973158
 20
66.047830005764837
 30
0.0
  0
VERTEX
  5
BC6
  8
0
  6
CONTINUOUS
 62
     7
 10
101.26031438024791
 20
66.058342360432448
 30
0.0
  0
VERTEX
  5
BC7
  8
0
  6
CONTINUOUS
 62
     7
 10
101.21405760500539
 20
66.063646265516184
 30
0.0
  0
VERTEX
  5
BC8
  8
0
  6
CONTINUOUS
 62
     7
 10
101.16811561377359
 20
66.068979541197677
 30
0.0
  0
VERTEX
  5
BC9
  8
0
  6
CONTINUOUS
 62
     7
 10
101.0771942026326
 20
66.079726795323438
 30
0.0
  0
VERTEX
  5
BCA
  8
0
  6
CONTINUOUS
 62
     7
 10
100.9875862163094
 20
66.090569179876042
 30
0.0
  0
VERTEX
  5
BCB
  8
0
  6
CONTINUOUS
 62
     7
 10
100.9432858385064
 20
66.096021328933062
 30
0.0
  0
VERTEX
  5
BCC
  8
0
  6
CONTINUOUS
 62
     7
 10
100.8993270086424
 20
66.101491582964783
 30
0.0
  0
VERTEX
  5
BCD
  8
0
  6
CONTINUOUS
 62
     7
 10
100.812451036284
 20
66.112478770430386
 30
0.0
  0
VERTEX
  5
BCE
  8
0
  6
CONTINUOUS
 62
     7
 10
100.7269916864574
 20
66.123515434255637
 30
0.0
  0
VERTEX
  5
BCF
  8
0
  6
CONTINUOUS
 62
     7
 10
100.6429811148417
 20
66.134586242233354
 30
0.0
  0
VERTEX
  5
BD0
  8
0
  6
CONTINUOUS
 62
     7
 10
100.5604500931661
 20
66.145675888578921
 30
0.0
  0
VERTEX
  5
BD1
  8
0
  6
CONTINUOUS
 62
     7
 10
100.4794278660666
 20
66.156769145189912
 30
0.0
  0
VERTEX
  5
BD2
  8
0
  6
CONTINUOUS
 62
     7
 10
100.4394912386343
 20
66.162312402505336
 30
0.0
  0
VERTEX
  5
BD3
  8
0
  6
CONTINUOUS
 62
     7
 10
100.3999420167483
 20
66.167850913269859
 30
0.0
  0
VERTEX
  5
BD4
  8
0
  6
CONTINUOUS
 62
     7
 10
100.3220183409916
 20
66.178906275047055
 30
0.0
  0
VERTEX
  5
BD5
  8
0
  6
CONTINUOUS
 62
     7
 10
100.2456807290479
 20
66.18992054533345
 30
0.0
  0
VERTEX
  5
BD6
  8
0
  6
CONTINUOUS
 62
     7
 10
100.17073799262261
 20
66.200910817157052
 30
0.0
  0
VERTEX
  5
BD7
  8
0
  6
CONTINUOUS
 62
     7
 10
100.0966226485145
 20
66.211952654856702
 30
0.0
  0
VERTEX
  5
BD8
  8
0
  6
CONTINUOUS
 62
     7
 10
100.02335716489
 20
66.223037046579691
 30
0.0
  0
VERTEX
  5
BD9
  8
0
  6
CONTINUOUS
 62
     7
 10
99.987061615838087
 20
66.228590581067294
 30
0.0
  0
VERTEX
  5
BDA
  8
0
  6
CONTINUOUS
 62
     7
 10
99.951000521706916
 20
66.234149183032144
 30
0.0
  0
VERTEX
  5
BDB
  8
0
  6
CONTINUOUS
 62
     7
 10
99.879610032581766
 20
66.245274045579492
 30
0.0
  0
VERTEX
  5
BDC
  8
0
  6
CONTINUOUS
 62
     7
 10
99.809241242379784
 20
66.256396457067751
 30
0.0
  0
VERTEX
  5
BDD
  8
0
  6
CONTINUOUS
 62
     7
 10
99.774456835558126
 20
66.261951969994186
 30
0.0
  0
SEQEND
  5
BDE
  8
0
  6
CONTINUOUS
 62
     7
  0
POLYLINE
  5
55F
  8
0
  6
CONTINUOUS
 62
     7
 66
     1
 10
0.0
 20
0.0
 30
0.0
  0
VERTEX
  5
BDF
  8
0
  6
CONTINUOUS
 62
     7
 10
99.774456750922127
 20
66.261951983557935
 30
0.0
  0
VERTEX
  5
BE0
  8
0
  6
CONTINUOUS
 62
     7
 10
99.809241157788009
 20
66.256396470531854
 30
0.0
  0
VERTEX
  5
BE1
  8
0
  6
CONTINUOUS
 62
     7
 10
99.879609948159143
 20
66.245274058829864
 30
0.0
  0
VERTEX
  5
BE2
  8
0
  6
CONTINUOUS
 62
     7
 10
99.95100043756014
 20
66.23414919605051
 30
0.0
  0
VERTEX
  5
BE3
  8
0
  6
CONTINUOUS
 62
     7
 10
99.987061531868832
 20
66.228590593963133
 30
0.0
  0
VERTEX
  5
BE4
  8
0
  6
CONTINUOUS
 62
     7
 10
100.0233570811243
 20
66.223037059348883
 30
0.0
  0
VERTEX
  5
BE5
  8
0
  6
CONTINUOUS
 62
     7
 10
100.0966225652338
 20
66.211952667360691
 30
0.0
  0
VERTEX
  5
BE6
  8
0
  6
CONTINUOUS
 62
     7
 10
100.1707379099286
 20
66.200910829381002
 30
0.0
  0
VERTEX
  5
BE7
  8
0
  6
CONTINUOUS
 62
     7
 10
100.2456806467591
 20
66.189920557304561
 30
0.0
  0
VERTEX
  5
BE8
  8
0
  6
CONTINUOUS
 62
     7
 10
100.3220182585289
 20
66.17890628684674
 30
0.0
  0
VERTEX
  5
BE9
  8
0
  6
CONTINUOUS
 62
     7
 10
100.3999419342004
 20
66.167850924880867
 30
0.0
  0
VERTEX
  5
BEA
  8
0
  6
CONTINUOUS
 62
     7
 10
100.43949115607739
 20
66.162312414015759
 30
0.0
  0
VERTEX
  5
BEB
  8
0
  6
CONTINUOUS
 62
     7
 10
100.47942778352309
 20
66.156769156595658
 30
0.0
  0
VERTEX
  5
BEC
  8
0
  6
CONTINUOUS
 62
     7
 10
100.56045001071681
 20
66.145675899763489
 30
0.0
  0
VERTEX
  5
BED
  8
0
  6
CONTINUOUS
 62
     7
 10
100.6429810325766
 20
66.134586253181624
 30
0.0
  0
VERTEX
  5
BEE
  8
0
  6
CONTINUOUS
 62
     7
 10
100.72699160446621
 20
66.123515444953256
 30
0.0
  0
VERTEX
  5
BEF
  8
0
  6
CONTINUOUS
 62
     7
 10
100.812450954656
 20
66.112478780863938
 30
0.0
  0
VERTEX
  5
BF0
  8
0
  6
CONTINUOUS
 62
     7
 10
100.89932692746621
 20
66.101491593121722
 30
0.0
  0
VERTEX
  5
BF1
  8
0
  6
CONTINUOUS
 62
     7
 10
100.94328575758909
 20
66.09602133894731
 30
0.0
  0
VERTEX
  5
BF2
  8
0
  6
CONTINUOUS
 62
     7
 10
100.9875861356727
 20
66.090569189744826
 30
0.0
  0
VERTEX
  5
BF3
  8
0
  6
CONTINUOUS
 62
     7
 10
101.07719412262171
 20
66.079726804893596
 30
0.0
  0
VERTEX
  5
BF4
  8
0
  6
CONTINUOUS
 62
     7
 10
101.1681155344736
 20
66.068979550459744
 30
0.0
  0
VERTEX
  5
BF5
  8
0
  6
CONTINUOUS
 62
     7
 10
101.2140575260922
 20
66.063646274620965
 30
0.0
  0
VERTEX
  5
BF6
  8
0
  6
CONTINUOUS
 62
     7
 10
101.2603143017421
 20
66.058342369377982
 30
0.0
  0
VERTEX
  5
BF7
  8
0
  6
CONTINUOUS
 62
     7
 10
101.3537536196863
 20
66.047830014386534
 30
0.0
  0
VERTEX
  5
BF8
  8
0
  6
CONTINUOUS
 62
     7
 10
101.4483952717973
 20
66.037457097572855
 30
0.0
  0
VERTEX
  5
BF9
  8
0
  6
CONTINUOUS
 62
     7
 10
101.4961545771224
 20
66.032327455245792
 30
0.0
  0
VERTEX
  5
BFA
  8
0
  6
CONTINUOUS
 62
     7
 10
101.54419939470669
 20
66.027238081603798
 30
0.0
  0
VERTEX
  5
BFB
  8
0
  6
CONTINUOUS
 62
     7
 10
101.6411245955622
 20
66.017187230525167
 30
0.0
  0
VERTEX
  5
BFC
  8
0
  6
CONTINUOUS
 62
     7
 10
101.7391280837831
 20
66.00731856100802
 30
0.0
  0
VERTEX
  5
BFD
  8
0
  6
CONTINUOUS
 62
     7
 10
101.8381658090675
 20
65.997645795268085
 30
0.0
  0
VERTEX
  5
BFE
  8
0
  6
CONTINUOUS
 62
     7
 10
101.9381926059871
 20
65.988182315900332
 30
0.0
  0
VERTEX
  5
BFF
  8
0
  6
CONTINUOUS
 62
     7
 10
102.0391623455217
 20
65.978941122873323
 30
0.0
  0
VERTEX
  5
C00
  8
0
  6
CONTINUOUS
 62
     7
 10
102.08998617890271
 20
65.974407831558949
 30
0.0
  0
VERTEX
  5
C01
  8
0
  6
CONTINUOUS
 62
     7
 10
102.1410280939002
 20
65.969934792930701
 30
0.0
  0
VERTEX
  5
C02
  8
0
  6
CONTINUOUS
 62
     7
 10
102.2437422791109
 20
65.961175441649516
 30
0.0
  0
VERTEX
  5
C03
  8
0
  6
CONTINUOUS
 62
     7
 10
102.3472568654371
 20
65.952674688409161
 30
0.0
  0
VERTEX
  5
C04
  8
0
  6
CONTINUOUS
 62
     7
 10
102.45152579046599
 20
65.944443450174958
 30
0.0
  0
VERTEX
  5
C05
  8
0
  6
CONTINUOUS
 62
     7
 10
102.5565216492782
 20
65.936490726469117
 30
0.0
  0
VERTEX
  5
C06
  8
0
  6
CONTINUOUS
 62
     7
 10
102.6622002950633
 20
65.928826401960436
 30
0.0
  0
VERTEX
  5
C07
  8
0
  6
CONTINUOUS
 62
     7
 10
102.715279880903
 20
65.925105472860793
 30
0.0
  0
VERTEX
  5
C08
  8
0
  6
CONTINUOUS
 62
     7
 10
102.7685110653416
 20
65.921460277989041
 30
0.0
  0
VERTEX
  5
C09
  8
0
  6
CONTINUOUS
 62
     7
 10
102.8754020671655
 20
65.914401618527819
 30
0.0
  0
VERTEX
  5
C0A
  8
0
  6
CONTINUOUS
 62
     7
 10
102.9828203320794
 20
65.907659112764065
 30
0.0
  0
VERTEX
  5
C0B
  8
0
  6
CONTINUOUS
 62
     7
 10
103.0907119760238
 20
65.901240840945121
 30
0.0
  0
VERTEX
  5
C0C
  8
0
  6
CONTINUOUS
 62
     7
 10
103.1990223643357
 20
65.895154243687358
 30
0.0
  0
VERTEX
  5
C0D
  8
0
  6
CONTINUOUS
 62
     7
 10
103.3076962820451
 20
65.88940609493784
 30
0.0
  0
VERTEX
  5
C0E
  8
0
  6
CONTINUOUS
 62
     7
 10
103.3621521942202
 20
65.886660867527837
 30
0.0
  0
VERTEX
  5
C0F
  8
0
  6
CONTINUOUS
 62
     7
 10
103.41667810970139
 20
65.884002478769901
 30
0.0
  0
VERTEX
  5
C10
  8
0
  6
CONTINUOUS
 62
     7
 10
103.5259120049964
 20
65.878948770185673
 30
0.0
  0
VERTEX
  5
C11
  8
0
  6
CONTINUOUS
 62
     7
 10
103.63534209047459
 20
65.874249620090779
 30
0.0
  0
VERTEX
  5
C12
  8
0
  6
CONTINUOUS
 62
     7
 10
103.7449126459811
 20
65.869908944662257
 30
0.0
  0
VERTEX
  5
C13
  8
0
  6
CONTINUOUS
 62
     7
 10
103.8545680282237
 20
65.86592992884411
 30
0.0
  0
VERTEX
  5
C14
  8
0
  6
CONTINUOUS
 62
     7
 10
103.964251775376
 20
65.8623150545709
 30
0.0
  0
VERTEX
  5
C15
  8
0
  6
CONTINUOUS
 62
     7
 10
104.0190863400319
 20
65.860644752758162
 30
0.0
  0
VERTEX
  5
C16
  8
0
  6
CONTINUOUS
 62
     7
 10
104.0739063405582
 20
65.859066094351363
 30
0.0
  0
VERTEX
  5
C17
  8
0
  6
CONTINUOUS
 62
     7
 10
104.1834732699332
 20
65.856184089443218
 30
0.0
  0
VERTEX
  5
C18
  8
0
  6
CONTINUOUS
 62
     7
 10
104.2928933918256
 20
65.853669332267145
 30
0.0
  0
VERTEX
  5
C19
  8
0
  6
CONTINUOUS
 62
     7
 10
104.40210700695781
 20
65.851521353529591
 30
0.0
  0
VERTEX
  5
C1A
  8
0
  6
CONTINUOUS
 62
     7
 10
104.5110540797718
 20
65.849738914099731
 30
0.0
  0
VERTEX
  5
C1B
  8
0
  6
CONTINUOUS
 62
     7
 10
104.6196744309205
 20
65.848320001666337
 30
0.0
  0
VERTEX
  5
C1C
  8
0
  6
CONTINUOUS
 62
     7
 10
104.67384328818071
 20
65.847746028067377
 30
0.0
  0
VERTEX
  5
C1D
  8
0
  6
CONTINUOUS
 62
     7
 10
104.72790793112139
 20
65.847261832184529
 30
0.0
  0
VERTEX
  5
C1E
  8
0
  6
CONTINUOUS
 62
     7
 10
104.8356946966757
 20
65.846560856108965
 30
0.0
  0
VERTEX
  5
C1F
  8
0
  6
CONTINUOUS
 62
     7
 10
104.94297528705729
 20
65.846212769399187
 30
0.0
  0
VERTEX
  5
C20
  8
0
  6
CONTINUOUS
 62
     7
 10
104.9964073617716
 20
65.846169512017241
 30
0.0
  0
VERTEX
  5
C21
  8
0
  6
CONTINUOUS
 62
     7
 10
105.0498394365504
 20
65.846212769437784
 30
0.0
  0
VERTEX
  5
C22
  8
0
  6
CONTINUOUS
 62
     7
 10
105.15712002705121
 20
65.84656085622558
 30
0.0
  0
VERTEX
  5
C23
  8
0
  6
CONTINUOUS
 62
     7
 10
105.2649067927116
 20
65.847261832380269
 30
0.0
  0
VERTEX
  5
C24
  8
0
  6
CONTINUOUS
 62
     7
 10
105.3189714357004
 20
65.847746028302993
 30
0.0
  0
VERTEX
  5
C25
  8
0
  6
CONTINUOUS
 62
     7
 10
105.37314029300541
 20
65.848320001942028
 30
0.0
  0
VERTEX
  5
C26
  8
0
  6
CONTINUOUS
 62
     7
 10
105.4817606442335
 20
65.849738914456111
 30
0.0
  0
VERTEX
  5
C27
  8
0
  6
CONTINUOUS
 62
     7
 10
105.5907077171137
 20
65.851521353967172
 30
0.0
  0
VERTEX
  5
C28
  8
0
  6
CONTINUOUS
 62
     7
 10
105.6999213322985
 20
65.853669332786296
 30
0.0
  0
VERTEX
  5
C29
  8
0
  6
CONTINUOUS
 62
     7
 10
105.80934145423021
 20
65.856184090044138
 30
0.0
  0
VERTEX
  5
C2A
  8
0
  6
CONTINUOUS
 62
     7
 10
105.9189083836313
 20
65.859066095034052
 30
0.0
  0
VERTEX
  5
C2B
  8
0
  6
CONTINUOUS
 62
     7
 10
105.9737283841657
 20
65.860644753481722
 30
0.0
  0
VERTEX
  5
C2C
  8
0
  6
CONTINUOUS
 62
     7
 10
106.0285629488265
 20
65.862315055335245
 30
0.0
  0
VERTEX
  5
C2D
  8
0
  6
CONTINUOUS
 62
     7
 10
106.13824669597879
 20
65.86592992968977
 30
0.0
  0
VERTEX
  5
C2E
  8
0
  6
CONTINUOUS
 62
     7
 10
106.2479020782088
 20
65.869908945588747
 30
0.0
  0
VERTEX
  5
C2F
  8
0
  6
CONTINUOUS
 62
     7
 10
106.35747263369019
 20
65.874249621097476
 30
0.0
  0
VERTEX
  5
C30
  8
0
  6
CONTINUOUS
 62
     7
 10
106.4669027191309
 20
65.87894877127178
 30
0.0
  0
VERTEX
  5
C31
  8
0
  6
CONTINUOUS
 62
     7
 10
106.576136614376
 20
65.884002479934509
 30
0.0
  0
VERTEX
  5
C32
  8
0
  6
CONTINUOUS
 62
     7
 10
106.6306625298276
 20
65.886660868731269
 30
0.0
  0
VERTEX
  5
C33
  8
0
  6
CONTINUOUS
 62
     7
 10
106.68511844196991
 20
65.889406096179783
 30
0.0
  0
VERTEX
  5
C34
  8
0
  6
CONTINUOUS
 62
     7
 10
106.79379235960459
 20
65.895154245005386
 30
0.0
  0
VERTEX
  5
C35
  8
0
  6
CONTINUOUS
 62
     7
 10
106.9021027478293
 20
65.901240842337785
 30
0.0
  0
VERTEX
  5
C36
  8
0
  6
CONTINUOUS
 62
     7
 10
107.0099943916743
 20
65.907659114229773
 30
0.0
  0
VERTEX
  5
C37
  8
0
  6
CONTINUOUS
 62
     7
 10
107.1174126564768
 20
65.914401620064893
 30
0.0
  0
VERTEX
  5
C38
  8
0
  6
CONTINUOUS
 62
     7
 10
107.2243036581774
 20
65.92146027959555
 30
0.0
  0
VERTEX
  5
C39
  8
0
  6
CONTINUOUS
 62
     7
 10
107.2775348425499
 20
65.925105474501322
 30
0.0
  0
VERTEX
  5
C3A
  8
0
  6
CONTINUOUS
 62
     7
 10
107.3306144283206
 20
65.928826403634403
 30
0.0
  0
VERTEX
  5
C3B
  8
0
  6
CONTINUOUS
 62
     7
 10
107.43629307395921
 20
65.936490728208412
 30
0.0
  0
VERTEX
  5
C3C
  8
0
  6
CONTINUOUS
 62
     7
 10
107.5412889326139
 20
65.944443451977378
 30
0.0
  0
VERTEX
  5
C3D
  8
0
  6
CONTINUOUS
 62
     7
 10
107.6455578574781
 20
65.952674690272659
 30
0.0
  0
VERTEX
  5
C3E
  8
0
  6
CONTINUOUS
 62
     7
 10
107.7490724436315
 20
65.961175443571847
 30
0.0
  0
VERTEX
  5
C3F
  8
0
  6
CONTINUOUS
 62
     7
 10
107.8517866286585
 20
65.969934794909335
 30
0.0
  0
VERTEX
  5
C40
  8
0
  6
CONTINUOUS
 62
     7
 10
107.9028285435602
 20
65.974407833564783
 30
0.0
  0
VERTEX
  5
C41
  8
0
  6
CONTINUOUS
 62
     7
 10
107.9536523768428
 20
65.978941124905646
 30
0.0
  0
VERTEX
  5
C42
  8
0
  6
CONTINUOUS
 62
     7
 10
108.0546221161726
 20
65.988182317983558
 30
0.0
  0
VERTEX
  5
C43
  8
0
  6
CONTINUOUS
 62
     7
 10
108.15464891287699
 20
65.997645797399372
 30
0.0
  0
VERTEX
  5
C44
  8
0
  6
CONTINUOUS
 62
     7
 10
108.2536866379361
 20
66.007318563184441
 30
0.0
  0
VERTEX
  5
C45
  8
0
  6
CONTINUOUS
 62
     7
 10
108.35169012592171
 20
66.017187232743709
 30
0.0
  0
VERTEX
  5
C46
  8
0
  6
CONTINUOUS
 62
     7
 10
108.44861532653231
 20
66.027238083861363
 30
0.0
  0
VERTEX
  5
C47
  8
0
  6
CONTINUOUS
 62
     7
 10
108.4966601439905
 20
66.03232745752166
 30
0.0
  0
VERTEX
  5
C48
  8
0
  6
CONTINUOUS
 62
     7
 10
108.5444194491874
 20
66.037457099866245
 30
0.0
  0
VERTEX
  5
C49
  8
0
  6
CONTINUOUS
 62
     7
 10
108.639061101035
 20
66.047830016712624
 30
0.0
  0
VERTEX
  5
C4A
  8
0
  6
CONTINUOUS
 62
     7
 10
108.7325004187071
 20
66.058342371733517
 30
0.0
  0
VERTEX
  5
C4B
  8
0
  6
CONTINUOUS
 62
     7
 10
108.7787571942178
 20
66.063646276989971
 30
0.0
  0
VERTEX
  5
C4C
  8
0
  6
CONTINUOUS
 62
     7
 10
108.8246991856952
 20
66.068979552841427
 30
0.0
  0
VERTEX
  5
C4D
  8
0
  6
CONTINUOUS
 62
     7
 10
108.9156205972586
 20
66.07972680729813
 30
0.0
  0
VERTEX
  5
C4E
  8
0
  6
CONTINUOUS
 62
     7
 10
109.0052285839112
 20
66.090569192168886
 30
0.0
  0
VERTEX
  5
C4F
  8
0
  6
CONTINUOUS
 62
     7
 10
109.04952896184361
 20
66.096021341379867
 30
0.0
  0
VERTEX
  5
C50
  8
0
  6
CONTINUOUS
 62
     7
 10
109.0934877918134
 20
66.101491595561896
 30
0.0
  0
VERTEX
  5
C51
  8
0
  6
CONTINUOUS
 62
     7
 10
109.18036376431181
 20
66.112478783316845
 30
0.0
  0
VERTEX
  5
C52
  8
0
  6
CONTINUOUS
 62
     7
 10
109.2658231141825
 20
66.123515447415457
 30
0.0
  0
VERTEX
  5
C53
  8
0
  6
CONTINUOUS
 62
     7
 10
109.34983368574601
 20
66.134586255649737
 30
0.0
  0
VERTEX
  5
C54
  8
0
  6
CONTINUOUS
 62
     7
 10
109.4323647072729
 20
66.145675902234103
 30
0.0
  0
VERTEX
  5
C55
  8
0
  6
CONTINUOUS
 62
     7
 10
109.5133869341275
 20
66.156769159065391
 30
0.0
  0
VERTEX
  5
C56
  8
0
  6
CONTINUOUS
 62
     7
 10
109.5533235614014
 20
66.162312416483786
 30
0.0
  0
VERTEX
  5
C57
  8
0
  6
CONTINUOUS
 62
     7
 10
109.59287278310509
 20
66.167850927346365
 30
0.0
  0
VERTEX
  5
C58
  8
0
  6
CONTINUOUS
 62
     7
 10
109.670796458426
 20
66.178906289304706
 30
0.0
  0
VERTEX
  5
C59
  8
0
  6
CONTINUOUS
 62
     7
 10
109.74713406984
 20
66.189920559751783
 30
0.0
  0
VERTEX
  5
C5A
  8
0
  6
CONTINUOUS
 62
     7
 10
109.8220768064441
 20
66.200910831834165
 30
0.0
  0
VERTEX
  5
C5B
  8
0
  6
CONTINUOUS
 62
     7
 10
109.8961921509564
 20
66.211952669824953
 30
0.0
  0
VERTEX
  5
C5C
  8
0
  6
CONTINUOUS
 62
     7
 10
109.96945763487
 20
66.223037061821003
 30
0.0
  0
VERTEX
  5
C5D
  8
0
  6
CONTINUOUS
 62
     7
 10
110.00575318402269
 20
66.228590596437925
 30
0.0
  0
VERTEX
  5
C5E
  8
0
  6
CONTINUOUS
 62
     7
 10
110.0418142782254
 20
66.234149198527149
 30
0.0
  0
VERTEX
  5
C5F
  8
0
  6
CONTINUOUS
 62
     7
 10
110.11320476740509
 20
66.245274061307654
 30
0.0
  0
VERTEX
  5
C60
  8
0
  6
CONTINUOUS
 62
     7
 10
110.1835735575427
 20
66.256396473007413
 30
0.0
  0
VERTEX
  5
C61
  8
0
  6
CONTINUOUS
 62
     7
 10
110.21835796428731
 20
66.261951986031136
 30
0.0
  0
SEQEND
  5
C62
  8
0
  6
CONTINUOUS
 62
     7
  0
LINE
  5
561
  8
0
  6
CONTINUOUS
 62
     7
 10
111.7464073498886
 20
47.046169512017237
 30
0.0
 11
98.246407349888614
 21
47.046169512017237
 31
0.0
  0
POLYLINE
  5
562
  8
0
  6
CONTINUOUS
 62
     7
 66
     1
 10
0.0
 20
0.0
 30
0.0
  0
VERTEX
  5
C63
  8
0
  6
CONTINUOUS
 62
     7
 10
94.992382723284663
 20
67.399079165368306
 30
0.0
  0
VERTEX
  5
C64
  8
0
  6
CONTINUOUS
 62
     7
 10
95.132912506109648
 20
67.354718775877046
 30
0.0
  0
VERTEX
  5
C65
  8
0
  6
CONTINUOUS
 62
     7
 10
95.4204692098116
 20
67.266090209751098
 30
0.0
  0
VERTEX
  5
C66
  8
0
  6
CONTINUOUS
 62
     7
 10
95.714567575398945
 20
67.178402770412276
 30
0.0
  0
VERTEX
  5
C67
  8
0
  6
CONTINUOUS
 62
     7
 10
95.863273659564584
 20
67.135195559855703
 30
0.0
  0
VERTEX
  5
C68
  8
0
  6
CONTINUOUS
 62
     7
 10
96.01265709330778
 20
67.092551901934087
 30
0.0
  0
VERTEX
  5
C69
  8
0
  6
CONTINUOUS
 62
     7
 10
96.312158097907385
 20
67.009338405114306
 30
0.0
  0
VERTEX
  5
C6A
  8
0
  6
CONTINUOUS
 62
     7
 10
96.610543640984275
 20
66.929445214939363
 30
0.0
  0
VERTEX
  5
C6B
  8
0
  6
CONTINUOUS
 62
     7
 10
96.905418166687113
 20
66.853421989534624
 30
0.0
  0
VERTEX
  5
C6C
  8
0
  6
CONTINUOUS
 62
     7
 10
97.194282898598061
 20
66.781752254774375
 30
0.0
  0
VERTEX
  5
C6D
  8
0
  6
CONTINUOUS
 62
     7
 10
97.474733213963063
 20
66.71480760199313
 30
0.0
  0
VERTEX
  5
C6E
  8
0
  6
CONTINUOUS
 62
     7
 10
97.611079526693345
 20
66.683194945849721
 30
0.0
  0
VERTEX
  5
C6F
  8
0
  6
CONTINUOUS
 62
     7
 10
97.744465697625188
 20
66.652857438355625
 30
0.0
  0
VERTEX
  5
C70
  8
0
  6
CONTINUOUS
 62
     7
 10
98.003312951248859
 20
66.595640357727163
 30
0.0
  0
VERTEX
  5
C71
  8
0
  6
CONTINUOUS
 62
     7
 10
98.261187452342938
 20
66.540801336871723
 30
0.0
  0
VERTEX
  5
C72
  8
0
  6
CONTINUOUS
 62
     7
 10
98.517156037455635
 20
66.488491869294876
 30
0.0
  0
VERTEX
  5
C73
  8
0
  6
CONTINUOUS
 62
     7
 10
98.768328464500414
 20
66.439209867561516
 30
0.0
  0
VERTEX
  5
C74
  8
0
  6
CONTINUOUS
 62
     7
 10
99.012041975416111
 20
66.393321084416698
 30
0.0
  0
VERTEX
  5
C75
  8
0
  6
CONTINUOUS
 62
     7
 10
99.130330658472801
 20
66.371731191232868
 30
0.0
  0
VERTEX
  5
C76
  8
0
  6
CONTINUOUS
 62
     7
 10
99.245877021745926
 20
66.351071405608764
 30
0.0
  0
VERTEX
  5
C77
  8
0
  6
CONTINUOUS
 62
     7
 10
99.467812562832052
 20
66.312577031620435
 30
0.0
  0
VERTEX
  5
C78
  8
0
  6
CONTINUOUS
 62
     7
 10
99.676008842926706
 20
66.277881873163437
 30
0.0
  0
VERTEX
  5
C79
  8
0
  6
CONTINUOUS
 62
     7
 10
99.774456750922127
 20
66.261951983557935
 30
0.0
  0
SEQEND
  5
C7A
  8
0
  6
CONTINUOUS
 62
     7
  0
POLYLINE
  5
566
  8
0
  6
CONTINUOUS
 62
     7
 66
     1
 10
0.0
 20
0.0
 30
0.0
  0
VERTEX
  5
C7B
  8
0
  6
CONTINUOUS
 62
     7
 10
110.21835796428731
 20
66.261951986031136
 30
0.0
  0
VERTEX
  5
C7C
  8
0
  6
CONTINUOUS
 62
     7
 10
110.3168058724621
 20
66.277881875713774
 30
0.0
  0
VERTEX
  5
C7D
  8
0
  6
CONTINUOUS
 62
     7
 10
110.5250021527329
 20
66.312577034303331
 30
0.0
  0
VERTEX
  5
C7E
  8
0
  6
CONTINUOUS
 62
     7
 10
110.7469376937469
 20
66.351071408389913
 30
0.0
  0
VERTEX
  5
C7F
  8
0
  6
CONTINUOUS
 62
     7
 10
110.86248405689361
 20
66.371731194048834
 30
0.0
  0
VERTEX
  5
C80
  8
0
  6
CONTINUOUS
 62
     7
 10
110.980772739768
 20
66.39332108725776
 30
0.0
  0
VERTEX
  5
C81
  8
0
  6
CONTINUOUS
 62
     7
 10
111.2244862501441
 20
66.439209870418779
 30
0.0
  0
VERTEX
  5
C82
  8
0
  6
CONTINUOUS
 62
     7
 10
111.4756586764299
 20
66.48849187211988
 30
0.0
  0
VERTEX
  5
C83
  8
0
  6
CONTINUOUS
 62
     7
 10
111.7316272605875
 20
66.540801339613964
 30
0.0
  0
VERTEX
  5
C84
  8
0
  6
CONTINUOUS
 62
     7
 10
111.9895017605561
 20
66.595640360335238
 30
0.0
  0
VERTEX
  5
C85
  8
0
  6
CONTINUOUS
 62
     7
 10
112.24834901328011
 20
66.652857440862363
 30
0.0
  0
VERTEX
  5
C86
  8
0
  6
CONTINUOUS
 62
     7
 10
112.3817351838735
 20
66.683194948327284
 30
0.0
  0
VERTEX
  5
C87
  8
0
  6
CONTINUOUS
 62
     7
 10
112.51808149621721
 20
66.714807604428415
 30
0.0
  0
VERTEX
  5
C88
  8
0
  6
CONTINUOUS
 62
     7
 10
112.79853181067701
 20
66.781752257085415
 30
0.0
  0
VERTEX
  5
C89
  8
0
  6
CONTINUOUS
 62
     7
 10
113.0873965415299
 20
66.853421991669052
 30
0.0
  0
VERTEX
  5
C8A
  8
0
  6
CONTINUOUS
 62
     7
 10
113.38227106605019
 20
66.929445216846148
 30
0.0
  0
VERTEX
  5
C8B
  8
0
  6
CONTINUOUS
 62
     7
 10
113.680656607853
 20
67.009338406746323
 30
0.0
  0
VERTEX
  5
C8C
  8
0
  6
CONTINUOUS
 62
     7
 10
113.9801576111208
 20
67.09255190325004
 30
0.0
  0
VERTEX
  5
C8D
  8
0
  6
CONTINUOUS
 62
     7
 10
114.1295410441856
 20
67.135195560999961
 30
0.0
  0
VERTEX
  5
C8E
  8
0
  6
CONTINUOUS
 62
     7
 10
114.2782471276703
 20
67.178402771377165
 30
0.0
  0
VERTEX
  5
C8F
  8
0
  6
CONTINUOUS
 62
     7
 10
114.57234549190549
 20
67.266090210339343
 30
0.0
  0
VERTEX
  5
C90
  8
0
  6
CONTINUOUS
 62
     7
 10
114.85990219429679
 20
67.354718776074094
 30
0.0
  0
VERTEX
  5
C91
  8
0
  6
CONTINUOUS
 62
     7
 10
115.00043197649249
 20
67.399079165368278
 30
0.0
  0
SEQEND
  5
C92
  8
0
  6
CONTINUOUS
 62
     7
  0
POLYLINE
  5
569
  8
0
  6
CONTINUOUS
 62
     7
 66
     1
 10
0.0
 20
0.0
 30
0.0
  0
VERTEX
  5
C93
  8
0
  6
CONTINUOUS
 62
     7
 10
115.00043197649249
 20
67.399079165368306
 30
0.0
  0
VERTEX
  5
C94
  8
0
  6
CONTINUOUS
 62
     7
 10
115.05053324443951
 20
67.415061474015772
 30
0.0
  0
VERTEX
  5
C95
  8
0
  6
CONTINUOUS
 62
     7
 10
115.1506590542615
 20
67.447265513243025
 30
0.0
  0
VERTEX
  5
C96
  8
0
  6
CONTINUOUS
 62
     7
 10
115.2506817151813
 20
67.479788508763136
 30
0.0
  0
VERTEX
  5
C97
  8
0
  6
CONTINUOUS
 62
     7
 10
115.3006540472459
 20
67.496169512017246
 30
0.0
  0
SEQEND
  5
C98
  8
0
  6
CONTINUOUS
 62
     7
  0
POLYLINE
  5
56A
  8
0
  6
CONTINUOUS
 62
     7
 66
     1
 10
0.0
 20
0.0
 30
0.0
  0
VERTEX
  5
C99
  8
0
  6
CONTINUOUS
 62
     7
 10
115.3006540472459
 20
67.496169512017246
 30
0.0
  0
VERTEX
  5
C9A
  8
0
  6
CONTINUOUS
 62
     7
 10
115.3593987931294
 20
67.515191301541734
 30
0.0
  0
VERTEX
  5
C9B
  8
0
  6
CONTINUOUS
 62
     7
 10
115.4773802185549
 20
67.551676656941964
 30
0.0
  0
VERTEX
  5
C9C
  8
0
  6
CONTINUOUS
 62
     7
 10
115.5959869338928
 20
67.586074985111367
 30
0.0
  0
VERTEX
  5
C9D
  8
0
  6
CONTINUOUS
 62
     7
 10
115.655513246553
 20
67.60248814284256
 30
0.0
  0
VERTEX
  5
C9E
  8
0
  6
CONTINUOUS
 62
     7
 10
115.7151820238973
 20
67.618375579887669
 30
0.0
  0
VERTEX
  5
C9F
  8
0
  6
CONTINUOUS
 62
     7
 10
115.8349283901965
 20
67.648568388008727
 30
0.0
  0
VERTEX
  5
CA0
  8
0
  6
CONTINUOUS
 62
     7
 10
115.9551887628387
 20
67.676644012241582
 30
0.0
  0
VERTEX
  5
CA1
  8
0
  6
CONTINUOUS
 62
     7
 10
116.0759257118924
 20
67.702593714307284
 30
0.0
  0
VERTEX
  5
CA2
  8
0
  6
CONTINUOUS
 62
     7
 10
116.19710165909621
 20
67.726409417600451
 30
0.0
  0
VERTEX
  5
CA3
  8
0
  6
CONTINUOUS
 62
     7
 10
116.3186788895546
 20
67.748083709703167
 30
0.0
  0
VERTEX
  5
CA4
  8
0
  6
CONTINUOUS
 62
     7
 10
116.3796061656265
 20
67.758115692363276
 30
0.0
  0
VERTEX
  5
CA5
  8
0
  6
CONTINUOUS
 62
     7
 10
116.4406195634764
 20
67.767609844692032
 30
0.0
  0
VERTEX
  5
CA6
  8
0
  6
CONTINUOUS
 62
     7
 10
116.56288572795179
 20
67.784981745237616
 30
0.0
  0
VERTEX
  5
CA7
  8
0
  6
CONTINUOUS
 62
     7
 10
116.6854393287652
 20
67.800194004496205
 30
0.0
  0
VERTEX
  5
CA8
  8
0
  6
CONTINUOUS
 62
     7
 10
116.8082422222392
 20
67.813241887792458
 30
0.0
  0
VERTEX
  5
CA9
  8
0
  6
CONTINUOUS
 62
     7
 10
116.9312561871062
 20
67.824121334093064
 30
0.0
  0
VERTEX
  5
CAA
  8
0
  6
CONTINUOUS
 62
     7
 10
117.0544429364045
 20
67.832828957270749
 30
0.0
  0
VERTEX
  5
CAB
  8
0
  6
CONTINUOUS
 62
     7
 10
117.11608912550891
 20
67.836367461832026
 30
0.0
  0
VERTEX
  5
CAC
  8
0
  6
CONTINUOUS
 62
     7
 10
117.1777641293951
 20
67.839362047158133
 30
0.0
  0
VERTEX
  5
CAD
  8
0
  6
CONTINUOUS
 62
     7
 10
117.3011813834944
 20
67.843718570391303
 30
0.0
  0
VERTEX
  5
CAE
  8
0
  6
CONTINUOUS
 62
     7
 10
117.4246562862208
 20
67.845897171042566
 30
0.0
  0
VERTEX
  5
CAF
  8
0
  6
CONTINUOUS
 62
     7
 10
117.48640334668541
 20
67.846169512017255
 30
0.0
  0
SEQEND
  5
CB0
  8
0
  6
CONTINUOUS
 62
     7
  0
POLYLINE
  5
573
  8
0
  6
CONTINUOUS
 62
     7
 66
     1
 10
0.0
 20
0.0
 30
0.0
  0
VERTEX
  5
CB1
  8
0
  6
CONTINUOUS
 62
     7
 10
117.48640334668541
 20
67.846169512017255
 30
0.0
  0
VERTEX
  5
CB2
  8
0
  6
CONTINUOUS
 62
     7
 10
117.4246562862208
 20
67.845897171042566
 30
0.0
  0
VERTEX
  5
CB3
  8
0
  6
CONTINUOUS
 62
     7
 10
117.3011813834944
 20
67.843718570391303
 30
0.0
  0
VERTEX
  5
CB4
  8
0
  6
CONTINUOUS
 62
     7
 10
117.1777641293951
 20
67.839362047158133
 30
0.0
  0
VERTEX
  5
CB5
  8
0
  6
CONTINUOUS
 62
     7
 10
117.11608912550891
 20
67.836367461832026
 30
0.0
  0
VERTEX
  5
CB6
  8
0
  6
CONTINUOUS
 62
     7
 10
117.0544429364045
 20
67.832828957270749
 30
0.0
  0
VERTEX
  5
CB7
  8
0
  6
CONTINUOUS
 62
     7
 10
116.9312561871062
 20
67.824121334093064
 30
0.0
  0
VERTEX
  5
CB8
  8
0
  6
CONTINUOUS
 62
     7
 10
116.8082422222392
 20
67.813241887792458
 30
0.0
  0
VERTEX
  5
CB9
  8
0
  6
CONTINUOUS
 62
     7
 10
116.6854393287652
 20
67.800194004496205
 30
0.0
  0
VERTEX
  5
CBA
  8
0
  6
CONTINUOUS
 62
     7
 10
116.56288572795179
 20
67.784981745237616
 30
0.0
  0
VERTEX
  5
CBB
  8
0
  6
CONTINUOUS
 62
     7
 10
116.4406195634764
 20
67.767609844692032
 30
0.0
  0
VERTEX
  5
CBC
  8
0
  6
CONTINUOUS
 62
     7
 10
116.3796061656265
 20
67.758115692363276
 30
0.0
  0
VERTEX
  5
CBD
  8
0
  6
CONTINUOUS
 62
     7
 10
116.3186788895546
 20
67.748083709703167
 30
0.0
  0
VERTEX
  5
CBE
  8
0
  6
CONTINUOUS
 62
     7
 10
116.19710165909621
 20
67.726409417600451
 30
0.0
  0
VERTEX
  5
CBF
  8
0
  6
CONTINUOUS
 62
     7
 10
116.0759257118924
 20
67.702593714307284
 30
0.0
  0
VERTEX
  5
CC0
  8
0
  6
CONTINUOUS
 62
     7
 10
115.9551887628387
 20
67.676644012241582
 30
0.0
  0
VERTEX
  5
CC1
  8
0
  6
CONTINUOUS
 62
     7
 10
115.8349283901965
 20
67.648568388008727
 30
0.0
  0
VERTEX
  5
CC2
  8
0
  6
CONTINUOUS
 62
     7
 10
115.7151820238973
 20
67.618375579887669
 30
0.0
  0
VERTEX
  5
CC3
  8
0
  6
CONTINUOUS
 62
     7
 10
115.655513246553
 20
67.60248814284256
 30
0.0
  0
VERTEX
  5
CC4
  8
0
  6
CONTINUOUS
 62
     7
 10
115.5959869338928
 20
67.586074985111367
 30
0.0
  0
VERTEX
  5
CC5
  8
0
  6
CONTINUOUS
 62
     7
 10
115.4773802185549
 20
67.551676656941964
 30
0.0
  0
VERTEX
  5
CC6
  8
0
  6
CONTINUOUS
 62
     7
 10
115.3593987931294
 20
67.515191301541734
 30
0.0
  0
VERTEX
  5
CC7
  8
0
  6
CONTINUOUS
 62
     7
 10
115.3006540472459
 20
67.496169512017246
 30
0.0
  0
SEQEND
  5
CC8
  8
0
  6
CONTINUOUS
 62
     7
  0
POLYLINE
  5
574
  8
0
  6
CONTINUOUS
 62
     7
 66
     1
 10
0.0
 20
0.0
 30
0.0
  0
VERTEX
  5
CC9
  8
0
  6
CONTINUOUS
 62
     7
 10
115.3006540472459
 20
67.496169512017218
 30
0.0
  0
VERTEX
  5
CCA
  8
0
  6
CONTINUOUS
 62
     7
 10
115.2506817151813
 20
67.479788508763107
 30
0.0
  0
VERTEX
  5
CCB
  8
0
  6
CONTINUOUS
 62
     7
 10
115.1506590542615
 20
67.447265513243025
 30
0.0
  0
VERTEX
  5
CCC
  8
0
  6
CONTINUOUS
 62
     7
 10
115.05053324443951
 20
67.415061474015772
 30
0.0
  0
VERTEX
  5
CCD
  8
0
  6
CONTINUOUS
 62
     7
 10
115.00043197649261
 20
67.399079165368306
 30
0.0
  0
SEQEND
  5
CCE
  8
0
  6
CONTINUOUS
 62
     7
  0
POLYLINE
  5
576
  8
0
  6
CONTINUOUS
 62
     7
 66
     1
 10
0.0
 20
0.0
 30
0.0
  0
VERTEX
  5
CCF
  8
0
  6
CONTINUOUS
 62
     7
 10
115.00043197649261
 20
67.399079165368306
 30
0.0
  0
VERTEX
  5
CD0
  8
0
  6
CONTINUOUS
 62
     7
 10
114.85990219155001
 20
67.354718775213797
 30
0.0
  0
VERTEX
  5
CD1
  8
0
  6
CONTINUOUS
 62
     7
 10
114.572345483438
 20
67.266090207771754
 30
0.0
  0
VERTEX
  5
CD2
  8
0
  6
CONTINUOUS
 62
     7
 10
114.2782471133026
 20
67.178402767166006
 30
0.0
  0
VERTEX
  5
CD3
  8
0
  6
CONTINUOUS
 62
     7
 10
114.12954102684679
 20
67.135195556006181
 30
0.0
  0
VERTEX
  5
CD4
  8
0
  6
CONTINUOUS
 62
     7
 10
113.9801575908223
 20
67.092551897507164
 30
0.0
  0
VERTEX
  5
CD5
  8
0
  6
CONTINUOUS
 62
     7
 10
113.6806565817449
 20
67.009338399624724
 30
0.0
  0
VERTEX
  5
CD6
  8
0
  6
CONTINUOUS
 62
     7
 10
113.382271034385
 20
66.929445208526374
 30
0.0
  0
VERTEX
  5
CD7
  8
0
  6
CONTINUOUS
 62
     7
 10
113.0873965047078
 20
66.853421982356735
 30
0.0
  0
VERTEX
  5
CD8
  8
0
  6
CONTINUOUS
 62
     7
 10
112.79853176924151
 20
66.781752247003112
 30
0.0
  0
VERTEX
  5
CD9
  8
0
  6
CONTINUOUS
 62
     7
 10
112.5180814508352
 20
66.714807593804835
 30
0.0
  0
VERTEX
  5
CDA
  8
0
  6
CONTINUOUS
 62
     7
 10
112.3817351368066
 20
66.683194937519644
 30
0.0
  0
VERTEX
  5
CDB
  8
0
  6
CONTINUOUS
 62
     7
 10
112.2483489647385
 20
66.652857429927764
 30
0.0
  0
VERTEX
  5
CDC
  8
0
  6
CONTINUOUS
 62
     7
 10
111.9895017080902
 20
66.595640348958682
 30
0.0
  0
VERTEX
  5
CDD
  8
0
  6
CONTINUOUS
 62
     7
 10
111.73162720321019
 20
66.540801327651621
 30
0.0
  0
VERTEX
  5
CDE
  8
0
  6
CONTINUOUS
 62
     7
 10
111.47565861488521
 20
66.488491859796284
 30
0.0
  0
VERTEX
  5
CDF
  8
0
  6
CONTINUOUS
 62
     7
 10
111.2244861852879
 20
66.439209857954495
 30
0.0
  0
VERTEX
  5
CE0
  8
0
  6
CONTINUOUS
 62
     7
 10
110.9807726725582
 20
66.393321074864161
 30
0.0
  0
VERTEX
  5
CE1
  8
0
  6
CONTINUOUS
 62
     7
 10
110.8624839888889
 20
66.371731181764716
 30
0.0
  0
VERTEX
  5
CE2
  8
0
  6
CONTINUOUS
 62
     7
 10
110.7469376251907
 20
66.351071396257765
 30
0.0
  0
VERTEX
  5
CE3
  8
0
  6
CONTINUOUS
 62
     7
 10
110.5250020838629
 20
66.312577022599896
 30
0.0
  0
VERTEX
  5
CE4
  8
0
  6
CONTINUOUS
 62
     7
 10
110.31680580436139
 20
66.27788186458875
 30
0.0
  0
VERTEX
  5
CE5
  8
0
  6
CONTINUOUS
 62
     7
 10
110.21835789696929
 20
66.261951975242738
 30
0.0
  0
SEQEND
  5
CE6
  8
0
  6
CONTINUOUS
 62
     7
  0
POLYLINE
  5
57B
  8
0
  6
CONTINUOUS
 62
     7
 66
     1
 10
0.0
 20
0.0
 30
0.0
  0
VERTEX
  5
CE7
  8
0
  6
CONTINUOUS
 62
     7
 10
94.992382723284649
 20
67.399079165368306
 30
0.0
  0
VERTEX
  5
CE8
  8
0
  6
CONTINUOUS
 62
     7
 10
94.942281455337707
 20
67.415061474015772
 30
0.0
  0
VERTEX
  5
CE9
  8
0
  6
CONTINUOUS
 62
     7
 10
94.842155645515675
 20
67.447265513243053
 30
0.0
  0
VERTEX
  5
CEA
  8
0
  6
CONTINUOUS
 62
     7
 10
94.742132984595926
 20
67.479788508763136
 30
0.0
  0
VERTEX
  5
CEB
  8
0
  6
CONTINUOUS
 62
     7
 10
94.692160652531257
 20
67.496169512017246
 30
0.0
  0
SEQEND
  5
CEC
  8
0
  6
CONTINUOUS
 62
     7
  0
POLYLINE
  5
57C
  8
0
  6
CONTINUOUS
 62
     7
 66
     1
 10
0.0
 20
0.0
 30
0.0
  0
VERTEX
  5
CED
  8
0
  6
CONTINUOUS
 62
     7
 10
94.692160652531257
 20
67.496169512017246
 30
0.0
  0
VERTEX
  5
CEE
  8
0
  6
CONTINUOUS
 62
     7
 10
94.63341590664777
 20
67.515191301541734
 30
0.0
  0
VERTEX
  5
CEF
  8
0
  6
CONTINUOUS
 62
     7
 10
94.515434481222357
 20
67.551676656941964
 30
0.0
  0
VERTEX
  5
CF0
  8
0
  6
CONTINUOUS
 62
     7
 10
94.396827765884467
 20
67.586074985111367
 30
0.0
  0
VERTEX
  5
CF1
  8
0
  6
CONTINUOUS
 62
     7
 10
94.337301453224256
 20
67.602488142842532
 30
0.0
  0
VERTEX
  5
CF2
  8
0
  6
CONTINUOUS
 62
     7
 10
94.277632675879914
 20
67.61837557988764
 30
0.0
  0
VERTEX
  5
CF3
  8
0
  6
CONTINUOUS
 62
     7
 10
94.157886309580746
 20
67.648568388008698
 30
0.0
  0
VERTEX
  5
CF4
  8
0
  6
CONTINUOUS
 62
     7
 10
94.037625936938582
 20
67.676644012241582
 30
0.0
  0
VERTEX
  5
CF5
  8
0
  6
CONTINUOUS
 62
     7
 10
93.916888987884889
 20
67.702593714307284
 30
0.0
  0
VERTEX
  5
CF6
  8
0
  6
CONTINUOUS
 62
     7
 10
93.795713040681065
 20
67.726409417600451
 30
0.0
  0
VERTEX
  5
CF7
  8
0
  6
CONTINUOUS
 62
     7
 10
93.674135810222623
 20
67.748083709703167
 30
0.0
  0
VERTEX
  5
CF8
  8
0
  6
CONTINUOUS
 62
     7
 10
93.613208534150786
 20
67.758115692363276
 30
0.0
  0
VERTEX
  5
CF9
  8
0
  6
CONTINUOUS
 62
     7
 10
93.552195136300867
 20
67.767609844692004
 30
0.0
  0
VERTEX
  5
CFA
  8
0
  6
CONTINUOUS
 62
     7
 10
93.429928971825447
 20
67.784981745237573
 30
0.0
  0
VERTEX
  5
CFB
  8
0
  6
CONTINUOUS
 62
     7
 10
93.307375371012014
 20
67.800194004496177
 30
0.0
  0
VERTEX
  5
CFC
  8
0
  6
CONTINUOUS
 62
     7
 10
93.184572477538026
 20
67.813241887792429
 30
0.0
  0
VERTEX
  5
CFD
  8
0
  6
CONTINUOUS
 62
     7
 10
93.061558512671098
 20
67.824121334093036
 30
0.0
  0
VERTEX
  5
CFE
  8
0
  6
CONTINUOUS
 62
     7
 10
92.938371763372757
 20
67.832828957270749
 30
0.0
  0
VERTEX
  5
CFF
  8
0
  6
CONTINUOUS
 62
     7
 10
92.876725574268335
 20
67.836367461831998
 30
0.0
  0
VERTEX
  5
D00
  8
0
  6
CONTINUOUS
 62
     7
 10
92.815050570382198
 20
67.839362047158133
 30
0.0
  0
VERTEX
  5
D01
  8
0
  6
CONTINUOUS
 62
     7
 10
92.691633316282889
 20
67.843718570391303
 30
0.0
  0
VERTEX
  5
D02
  8
0
  6
CONTINUOUS
 62
     7
 10
92.568158413556475
 20
67.845897171042566
 30
0.0
  0
VERTEX
  5
D03
  8
0
  6
CONTINUOUS
 62
     7
 10
92.506411353091849
 20
67.846169512017241
 30
0.0
  0
SEQEND
  5
D04
  8
0
  6
CONTINUOUS
 62
     7
  0
POLYLINE
  5
57F
  8
0
  6
CONTINUOUS
 62
     7
 66
     1
 10
0.0
 20
0.0
 30
0.0
  0
VERTEX
  5
D05
  8
0
  6
CONTINUOUS
 62
     7
 10
92.506411353091835
 20
67.846169512017241
 30
0.0
  0
VERTEX
  5
D06
  8
0
  6
CONTINUOUS
 62
     7
 10
92.568158413556475
 20
67.845897171042566
 30
0.0
  0
VERTEX
  5
D07
  8
0
  6
CONTINUOUS
 62
     7
 10
92.691633316282889
 20
67.843718570391303
 30
0.0
  0
VERTEX
  5
D08
  8
0
  6
CONTINUOUS
 62
     7
 10
92.815050570382198
 20
67.839362047158133
 30
0.0
  0
VERTEX
  5
D09
  8
0
  6
CONTINUOUS
 62
     7
 10
92.87672557426832
 20
67.836367461831998
 30
0.0
  0
VERTEX
  5
D0A
  8
0
  6
CONTINUOUS
 62
     7
 10
92.938371763372757
 20
67.832828957270749
 30
0.0
  0
VERTEX
  5
D0B
  8
0
  6
CONTINUOUS
 62
     7
 10
93.061558512671098
 20
67.824121334093036
 30
0.0
  0
VERTEX
  5
D0C
  8
0
  6
CONTINUOUS
 62
     7
 10
93.184572477538026
 20
67.813241887792429
 30
0.0
  0
VERTEX
  5
D0D
  8
0
  6
CONTINUOUS
 62
     7
 10
93.307375371012014
 20
67.800194004496177
 30
0.0
  0
VERTEX
  5
D0E
  8
0
  6
CONTINUOUS
 62
     7
 10
93.429928971825447
 20
67.784981745237573
 30
0.0
  0
VERTEX
  5
D0F
  8
0
  6
CONTINUOUS
 62
     7
 10
93.552195136300867
 20
67.767609844692004
 30
0.0
  0
VERTEX
  5
D10
  8
0
  6
CONTINUOUS
 62
     7
 10
93.613208534150786
 20
67.758115692363276
 30
0.0
  0
VERTEX
  5
D11
  8
0
  6
CONTINUOUS
 62
     7
 10
93.674135810222623
 20
67.748083709703167
 30
0.0
  0
VERTEX
  5
D12
  8
0
  6
CONTINUOUS
 62
     7
 10
93.795713040681065
 20
67.726409417600451
 30
0.0
  0
VERTEX
  5
D13
  8
0
  6
CONTINUOUS
 62
     7
 10
93.916888987884889
 20
67.702593714307284
 30
0.0
  0
VERTEX
  5
D14
  8
0
  6
CONTINUOUS
 62
     7
 10
94.037625936938582
 20
67.676644012241582
 30
0.0
  0
VERTEX
  5
D15
  8
0
  6
CONTINUOUS
 62
     7
 10
94.157886309580746
 20
67.648568388008698
 30
0.0
  0
VERTEX
  5
D16
  8
0
  6
CONTINUOUS
 62
     7
 10
94.277632675879914
 20
67.61837557988764
 30
0.0
  0
VERTEX
  5
D17
  8
0
  6
CONTINUOUS
 62
     7
 10
94.337301453224256
 20
67.602488142842532
 30
0.0
  0
VERTEX
  5
D18
  8
0
  6
CONTINUOUS
 62
     7
 10
94.396827765884467
 20
67.586074985111367
 30
0.0
  0
VERTEX
  5
D19
  8
0
  6
CONTINUOUS
 62
     7
 10
94.515434481222357
 20
67.551676656941964
 30
0.0
  0
VERTEX
  5
D1A
  8
0
  6
CONTINUOUS
 62
     7
 10
94.63341590664777
 20
67.515191301541734
 30
0.0
  0
VERTEX
  5
D1B
  8
0
  6
CONTINUOUS
 62
     7
 10
94.692160652531257
 20
67.496169512017246
 30
0.0
  0
SEQEND
  5
D1C
  8
0
  6
CONTINUOUS
 62
     7
  0
POLYLINE
  5
580
  8
0
  6
CONTINUOUS
 62
     7
 66
     1
 10
0.0
 20
0.0
 30
0.0
  0
VERTEX
  5
D1D
  8
0
  6
CONTINUOUS
 62
     7
 10
94.692160652531257
 20
67.496169512017246
 30
0.0
  0
VERTEX
  5
D1E
  8
0
  6
CONTINUOUS
 62
     7
 10
94.742132984595926
 20
67.479788508763107
 30
0.0
  0
VERTEX
  5
D1F
  8
0
  6
CONTINUOUS
 62
     7
 10
94.842155645515675
 20
67.447265513243053
 30
0.0
  0
VERTEX
  5
D20
  8
0
  6
CONTINUOUS
 62
     7
 10
94.942281455337707
 20
67.415061474015772
 30
0.0
  0
VERTEX
  5
D21
  8
0
  6
CONTINUOUS
 62
     7
 10
94.992382723284649
 20
67.399079165368306
 30
0.0
  0
SEQEND
  5
D22
  8
0
  6
CONTINUOUS
 62
     7
  0
POLYLINE
  5
588
  8
0
  6
CONTINUOUS
 62
     7
 66
     1
 10
0.0
 20
0.0
 30
0.0
  0
VERTEX
  5
D23
  8
0
  6
CONTINUOUS
 62
     7
 10
115.14160278809869
 20
60.946169512017228
 30
0.0
  0
VERTEX
  5
D24
  8
0
  6
CONTINUOUS
 62
     7
 10
115.1428833371167
 20
61.036529100807428
 30
0.0
  0
VERTEX
  5
D25
  8
0
  6
CONTINUOUS
 62
     7
 10
115.1537975049152
 20
61.224776934446972
 30
0.0
  0
VERTEX
  5
D26
  8
0
  6
CONTINUOUS
 62
     7
 10
115.1765629166609
 20
61.417061151443647
 30
0.0
  0
VERTEX
  5
D27
  8
0
  6
CONTINUOUS
 62
     7
 10
115.19229863532711
 20
61.51251990997249
 30
0.0
  0
VERTEX
  5
D28
  8
0
  6
CONTINUOUS
 62
     7
 10
115.2106936810747
 20
61.606379085484491
 30
0.0
  0
VERTEX
  5
D29
  8
0
  6
CONTINUOUS
 62
     7
 10
115.2541518854155
 20
61.785924421010201
 30
0.0
  0
VERTEX
  5
D2A
  8
0
  6
CONTINUOUS
 62
     7
 10
115.3072141110468
 20
61.960533024474948
 30
0.0
  0
VERTEX
  5
D2B
  8
0
  6
CONTINUOUS
 62
     7
 10
115.3734541896965
 20
62.140002695093408
 30
0.0
  0
VERTEX
  5
D2C
  8
0
  6
CONTINUOUS
 62
     7
 10
115.45137334869391
 20
62.317399526344929
 30
0.0
  0
VERTEX
  5
D2D
  8
0
  6
CONTINUOUS
 62
     7
 10
115.53798995692171
 20
62.486286719277807
 30
0.0
  0
VERTEX
  5
D2E
  8
0
  6
CONTINUOUS
 62
     7
 10
115.5832284745332
 20
62.565690172151193
 30
0.0
  0
VERTEX
  5
D2F
  8
0
  6
CONTINUOUS
 62
     7
 10
115.6295100852922
 20
62.641845853236113
 30
0.0
  0
VERTEX
  5
D30
  8
0
  6
CONTINUOUS
 62
     7
 10
115.73055831215829
 20
62.793272162789968
 30
0.0
  0
VERTEX
  5
D31
  8
0
  6
CONTINUOUS
 62
     7
 10
115.8429275064241
 20
62.942314186196143
 30
0.0
  0
VERTEX
  5
D32
  8
0
  6
CONTINUOUS
 62
     7
 10
115.9658311934224
 20
63.086835346506199
 30
0.0
  0
VERTEX
  5
D33
  8
0
  6
CONTINUOUS
 62
     7
 10
116.0981791919131
 20
63.224939257471192
 30
0.0
  0
VERTEX
  5
D34
  8
0
  6
CONTINUOUS
 62
     7
 10
116.2386283398985
 20
63.355020753138461
 30
0.0
  0
VERTEX
  5
D35
  8
0
  6
CONTINUOUS
 62
     7
 10
116.311413030084
 20
63.416636669136068
 30
0.0
  0
VERTEX
  5
D36
  8
0
  6
CONTINUOUS
 62
     7
 10
116.38560449086781
 20
63.475769465185692
 30
0.0
  0
VERTEX
  5
D37
  8
0
  6
CONTINUOUS
 62
     7
 10
116.53722046223081
 20
63.586101838751709
 30
0.0
  0
VERTEX
  5
D38
  8
0
  6
CONTINUOUS
 62
     7
 10
116.69136562128701
 20
63.685246313066379
 30
0.0
  0
VERTEX
  5
D39
  8
0
  6
CONTINUOUS
 62
     7
 10
116.7686639464998
 20
63.730464672259217
 30
0.0
  0
VERTEX
  5
D3A
  8
0
  6
CONTINUOUS
 62
     7
 10
116.8466212951473
 20
63.773223742973748
 30
0.0
  0
VERTEX
  5
D3B
  8
0
  6
CONTINUOUS
 62
     7
 10
117.0101329152277
 20
63.854179293616362
 30
0.0
  0
VERTEX
  5
D3C
  8
0
  6
CONTINUOUS
 62
     7
 10
117.18249705296751
 20
63.927585129358619
 30
0.0
  0
VERTEX
  5
D3D
  8
0
  6
CONTINUOUS
 62
     7
 10
117.2713714712432
 20
63.960944024498019
 30
0.0
  0
VERTEX
  5
D3E
  8
0
  6
CONTINUOUS
 62
     7
 10
117.36168455557799
 20
63.991852844821857
 30
0.0
  0
VERTEX
  5
D3F
  8
0
  6
CONTINUOUS
 62
     7
 10
117.54553002852199
 20
64.045828193105137
 30
0.0
  0
VERTEX
  5
D40
  8
0
  6
CONTINUOUS
 62
     7
 10
117.73182226640409
 20
64.088805940698649
 30
0.0
  0
VERTEX
  5
D41
  8
0
  6
CONTINUOUS
 62
     7
 10
117.9181987689869
 20
64.120490018555017
 30
0.0
  0
VERTEX
  5
D42
  8
0
  6
CONTINUOUS
 62
     7
 10
118.1021351907583
 20
64.141005716604823
 30
0.0
  0
VERTEX
  5
D43
  8
0
  6
CONTINUOUS
 62
     7
 10
118.28116280238289
 20
64.150924150210642
 30
0.0
  0
VERTEX
  5
D44
  8
0
  6
CONTINUOUS
 62
     7
 10
118.37089257735219
 20
64.152202577418706
 30
0.0
  0
VERTEX
  5
D45
  8
0
  6
CONTINUOUS
 62
     7
 10
118.4624495684553
 20
64.150973649172272
 30
0.0
  0
VERTEX
  5
D46
  8
0
  6
CONTINUOUS
 62
     7
 10
118.6494999681067
 20
64.140497309537764
 30
0.0
  0
VERTEX
  5
D47
  8
0
  6
CONTINUOUS
 62
     7
 10
118.83920668782881
 20
64.118859227678882
 30
0.0
  0
VERTEX
  5
D48
  8
0
  6
CONTINUOUS
 62
     7
 10
119.02854524311169
 20
64.085995804947999
 30
0.0
  0
VERTEX
  5
D49
  8
0
  6
CONTINUOUS
 62
     7
 10
119.2146526275841
 20
64.04239647751956
 30
0.0
  0
VERTEX
  5
D4A
  8
0
  6
CONTINUOUS
 62
     7
 10
119.3947051944798
 20
63.989123025165412
 30
0.0
  0
VERTEX
  5
D4B
  8
0
  6
CONTINUOUS
 62
     7
 10
119.48160297705429
 20
63.959346645008743
 30
0.0
  0
VERTEX
  5
D4C
  8
0
  6
CONTINUOUS
 62
     7
 10
119.5659833467649
 20
63.927803705131339
 30
0.0
  0
VERTEX
  5
D4D
  8
0
  6
CONTINUOUS
 62
     7
 10
119.73182957941491
 20
63.857934991090872
 30
0.0
  0
VERTEX
  5
D4E
  8
0
  6
CONTINUOUS
 62
     7
 10
119.90024301793891
 20
63.77564646673045
 30
0.0
  0
VERTEX
  5
D4F
  8
0
  6
CONTINUOUS
 62
     7
 10
120.06742765250129
 20
63.68167045848574
 30
0.0
  0
VERTEX
  5
D50
  8
0
  6
CONTINUOUS
 62
     7
 10
120.2296792026083
 20
63.577544743324466
 30
0.0
  0
VERTEX
  5
D51
  8
0
  6
CONTINUOUS
 62
     7
 10
120.3837492071619
 20
63.46546712590478
 30
0.0
  0
VERTEX
  5
D52
  8
0
  6
CONTINUOUS
 62
     7
 10
120.456800753723
 20
63.40733109245474
 30
0.0
  0
VERTEX
  5
D53
  8
0
  6
CONTINUOUS
 62
     7
 10
120.5267657089602
 20
63.348351480590878
 30
0.0
  0
VERTEX
  5
D54
  8
0
  6
CONTINUOUS
 62
     7
 10
120.65929246902751
 20
63.226882925723402
 30
0.0
  0
VERTEX
  5
D55
  8
0
  6
CONTINUOUS
 62
     7
 10
120.7903403674533
 20
63.092432487400352
 30
0.0
  0
VERTEX
  5
D56
  8
0
  6
CONTINUOUS
 62
     7
 10
120.9165713214984
 20
62.946780401039973
 30
0.0
  0
VERTEX
  5
D57
  8
0
  6
CONTINUOUS
 62
     7
 10
121.0340344865126
 20
62.793724810766577
 30
0.0
  0
VERTEX
  5
D58
  8
0
  6
CONTINUOUS
 62
     7
 10
121.1396833568878
 20
62.637801159928408
 30
0.0
  0
VERTEX
  5
D59
  8
0
  6
CONTINUOUS
 62
     7
 10
121.1873691836275
 20
62.560388506254903
 30
0.0
  0
VERTEX
  5
D5A
  8
0
  6
CONTINUOUS
 62
     7
 10
121.232165055287
 20
62.482865621988957
 30
0.0
  0
VERTEX
  5
D5B
  8
0
  6
CONTINUOUS
 62
     7
 10
121.31865263760599
 20
62.317031526011981
 30
0.0
  0
VERTEX
  5
D5C
  8
0
  6
CONTINUOUS
 62
     7
 10
121.39759241003691
 20
62.140763786103939
 30
0.0
  0
VERTEX
  5
D5D
  8
0
  6
CONTINUOUS
 62
     7
 10
121.46556720939419
 20
61.960283790073248
 30
0.0
  0
VERTEX
  5
D5E
  8
0
  6
CONTINUOUS
 62
     7
 10
121.52062033270541
 20
61.782431423026139
 30
0.0
  0
VERTEX
  5
D5F
  8
0
  6
CONTINUOUS
 62
     7
 10
121.5641176111565
 20
61.606000768199209
 30
0.0
  0
VERTEX
  5
D60
  8
0
  6
CONTINUOUS
 62
     7
 10
121.5827254979835
 20
61.513089059090838
 30
0.0
  0
VERTEX
  5
D61
  8
0
  6
CONTINUOUS
 62
     7
 10
121.5987606848779
 20
61.418046494452263
 30
0.0
  0
VERTEX
  5
D62
  8
0
  6
CONTINUOUS
 62
     7
 10
121.6221103257256
 20
61.225562674611211
 30
0.0
  0
VERTEX
  5
D63
  8
0
  6
CONTINUOUS
 62
     7
 10
121.63333505072001
 20
61.036665024933789
 30
0.0
  0
VERTEX
  5
D64
  8
0
  6
CONTINUOUS
 62
     7
 10
121.63464825851089
 20
60.946169512017228
 30
0.0
  0
VERTEX
  5
D65
  8
0
  6
CONTINUOUS
 62
     7
 10
121.63333505072001
 20
60.855673999100667
 30
0.0
  0
VERTEX
  5
D66
  8
0
  6
CONTINUOUS
 62
     7
 10
121.6221103257256
 20
60.666776349423259
 30
0.0
  0
VERTEX
  5
D67
  8
0
  6
CONTINUOUS
 62
     7
 10
121.5987606848779
 20
60.474292529582243
 30
0.0
  0
VERTEX
  5
D68
  8
0
  6
CONTINUOUS
 62
     7
 10
121.5827254979835
 20
60.379249964943646
 30
0.0
  0
VERTEX
  5
D69
  8
0
  6
CONTINUOUS
 62
     7
 10
121.5641176111565
 20
60.28633825583529
 30
0.0
  0
VERTEX
  5
D6A
  8
0
  6
CONTINUOUS
 62
     7
 10
121.52062033270541
 20
60.109907601008359
 30
0.0
  0
VERTEX
  5
D6B
  8
0
  6
CONTINUOUS
 62
     7
 10
121.46556720939419
 20
59.93205523396125
 30
0.0
  0
VERTEX
  5
D6C
  8
0
  6
CONTINUOUS
 62
     7
 10
121.39759241003691
 20
59.751575237930517
 30
0.0
  0
VERTEX
  5
D6D
  8
0
  6
CONTINUOUS
 62
     7
 10
121.31865263760599
 20
59.575307498022511
 30
0.0
  0
VERTEX
  5
D6E
  8
0
  6
CONTINUOUS
 62
     7
 10
121.232165055287
 20
59.409473402045528
 30
0.0
  0
VERTEX
  5
D6F
  8
0
  6
CONTINUOUS
 62
     7
 10
121.1873691836275
 20
59.33195051777961
 30
0.0
  0
VERTEX
  5
D70
  8
0
  6
CONTINUOUS
 62
     7
 10
121.1396833568878
 20
59.254537864106076
 30
0.0
  0
VERTEX
  5
D71
  8
0
  6
CONTINUOUS
 62
     7
 10
121.0340344865126
 20
59.098614213267922
 30
0.0
  0
VERTEX
  5
D72
  8
0
  6
CONTINUOUS
 62
     7
 10
120.9165713214984
 20
58.945558622994518
 30
0.0
  0
VERTEX
  5
D73
  8
0
  6
CONTINUOUS
 62
     7
 10
120.7903403674533
 20
58.799906536634161
 30
0.0
  0
VERTEX
  5
D74
  8
0
  6
CONTINUOUS
 62
     7
 10
120.65929246902751
 20
58.665456098311097
 30
0.0
  0
VERTEX
  5
D75
  8
0
  6
CONTINUOUS
 62
     7
 10
120.5267657089602
 20
58.54398754344362
 30
0.0
  0
VERTEX
  5
D76
  8
0
  6
CONTINUOUS
 62
     7
 10
120.456800753723
 20
58.48500793157978
 30
0.0
  0
VERTEX
  5
D77
  8
0
  6
CONTINUOUS
 62
     7
 10
120.3837492071619
 20
58.426871898129718
 30
0.0
  0
VERTEX
  5
D78
  8
0
  6
CONTINUOUS
 62
     7
 10
120.2296792026083
 20
58.314794280710032
 30
0.0
  0
VERTEX
  5
D79
  8
0
  6
CONTINUOUS
 62
     7
 10
120.06742765250129
 20
58.21066856554873
 30
0.0
  0
VERTEX
  5
D7A
  8
0
  6
CONTINUOUS
 62
     7
 10
119.90024301793891
 20
58.116692557304049
 30
0.0
  0
VERTEX
  5
D7B
  8
0
  6
CONTINUOUS
 62
     7
 10
119.73182957941491
 20
58.034404032943627
 30
0.0
  0
VERTEX
  5
D7C
  8
0
  6
CONTINUOUS
 62
     7
 10
119.56598334676499
 20
57.964535318903131
 30
0.0
  0
VERTEX
  5
D7D
  8
0
  6
CONTINUOUS
 62
     7
 10
119.48160297705439
 20
57.932992379025727
 30
0.0
  0
VERTEX
  5
D7E
  8
0
  6
CONTINUOUS
 62
     7
 10
119.3947051944799
 20
57.903215998869079
 30
0.0
  0
VERTEX
  5
D7F
  8
0
  6
CONTINUOUS
 62
     7
 10
119.2146526275841
 20
57.84994254651491
 30
0.0
  0
VERTEX
  5
D80
  8
0
  6
CONTINUOUS
 62
     7
 10
119.02854524311179
 20
57.806343219086472
 30
0.0
  0
VERTEX
  5
D81
  8
0
  6
CONTINUOUS
 62
     7
 10
118.83920668782881
 20
57.773479796355588
 30
0.0
  0
VERTEX
  5
D82
  8
0
  6
CONTINUOUS
 62
     7
 10
118.6494999681068
 20
57.75184171449672
 30
0.0
  0
VERTEX
  5
D83
  8
0
  6
CONTINUOUS
 62
     7
 10
118.4624495684553
 20
57.741365374862227
 30
0.0
  0
VERTEX
  5
D84
  8
0
  6
CONTINUOUS
 62
     7
 10
118.37089257735219
 20
57.740136446615793
 30
0.0
  0
VERTEX
  5
D85
  8
0
  6
CONTINUOUS
 62
     7
 10
118.28116280238299
 20
57.741414873823857
 30
0.0
  0
VERTEX
  5
D86
  8
0
  6
CONTINUOUS
 62
     7
 10
118.1021351907583
 20
57.751333307429633
 30
0.0
  0
VERTEX
  5
D87
  8
0
  6
CONTINUOUS
 62
     7
 10
117.918198768987
 20
57.771849005479453
 30
0.0
  0
VERTEX
  5
D88
  8
0
  6
CONTINUOUS
 62
     7
 10
117.73182226640409
 20
57.803533083335822
 30
0.0
  0
VERTEX
  5
D89
  8
0
  6
CONTINUOUS
 62
     7
 10
117.54553002852199
 20
57.846510830929361
 30
0.0
  0
VERTEX
  5
D8A
  8
0
  6
CONTINUOUS
 62
     7
 10
117.36168455557799
 20
57.900486179212614
 30
0.0
  0
VERTEX
  5
D8B
  8
0
  6
CONTINUOUS
 62
     7
 10
117.2713714712432
 20
57.931394999536451
 30
0.0
  0
VERTEX
  5
D8C
  8
0
  6
CONTINUOUS
 62
     7
 10
117.18249705296751
 20
57.964753894675852
 30
0.0
  0
VERTEX
  5
D8D
  8
0
  6
CONTINUOUS
 62
     7
 10
117.0101329152277
 20
58.038159730418101
 30
0.0
  0
VERTEX
  5
D8E
  8
0
  6
CONTINUOUS
 62
     7
 10
116.8466212951473
 20
58.119115281060743
 30
0.0
  0
VERTEX
  5
D8F
  8
0
  6
CONTINUOUS
 62
     7
 10
116.7686639464998
 20
58.161874351775282
 30
0.0
  0
VERTEX
  5
D90
  8
0
  6
CONTINUOUS
 62
     7
 10
116.69136562128701
 20
58.207092710968077
 30
0.0
  0
VERTEX
  5
D91
  8
0
  6
CONTINUOUS
 62
     7
 10
116.53722046223081
 20
58.306237185282782
 30
0.0
  0
VERTEX
  5
D92
  8
0
  6
CONTINUOUS
 62
     7
 10
116.38560449086781
 20
58.416569558848778
 30
0.0
  0
VERTEX
  5
D93
  8
0
  6
CONTINUOUS
 62
     7
 10
116.311413030084
 20
58.475702354898402
 30
0.0
  0
VERTEX
  5
D94
  8
0
  6
CONTINUOUS
 62
     7
 10
116.2386283398985
 20
58.537318270896009
 30
0.0
  0
VERTEX
  5
D95
  8
0
  6
CONTINUOUS
 62
     7
 10
116.0981791919131
 20
58.6673997665633
 30
0.0
  0
VERTEX
  5
D96
  8
0
  6
CONTINUOUS
 62
     7
 10
115.9658311934224
 20
58.805503677528293
 30
0.0
  0
VERTEX
  5
D97
  8
0
  6
CONTINUOUS
 62
     7
 10
115.8429275064241
 20
58.950024837838349
 30
0.0
  0
VERTEX
  5
D98
  8
0
  6
CONTINUOUS
 62
     7
 10
115.73055831215829
 20
59.099066861244502
 30
0.0
  0
VERTEX
  5
D99
  8
0
  6
CONTINUOUS
 62
     7
 10
115.6295100852922
 20
59.250493170798357
 30
0.0
  0
VERTEX
  5
D9A
  8
0
  6
CONTINUOUS
 62
     7
 10
115.5832284745331
 20
59.32664885188327
 30
0.0
  0
VERTEX
  5
D9B
  8
0
  6
CONTINUOUS
 62
     7
 10
115.53798995692171
 20
59.406052304756649
 30
0.0
  0
VERTEX
  5
D9C
  8
0
  6
CONTINUOUS
 62
     7
 10
115.45137334869391
 20
59.574939497689542
 30
0.0
  0
VERTEX
  5
D9D
  8
0
  6
CONTINUOUS
 62
     7
 10
115.3734541896965
 20
59.752336328941063
 30
0.0
  0
VERTEX
  5
D9E
  8
0
  6
CONTINUOUS
 62
     7
 10
115.3072141110468
 20
59.931805999559522
 30
0.0
  0
VERTEX
  5
D9F
  8
0
  6
CONTINUOUS
 62
     7
 10
115.2541518854155
 20
60.106414603024291
 30
0.0
  0
VERTEX
  5
DA0
  8
0
  6
CONTINUOUS
 62
     7
 10
115.2106936810747
 20
60.285959938549979
 30
0.0
  0
VERTEX
  5
DA1
  8
0
  6
CONTINUOUS
 62
     7
 10
115.19229863532711
 20
60.379819114061974
 30
0.0
  0
VERTEX
  5
DA2
  8
0
  6
CONTINUOUS
 62
     7
 10
115.1765629166609
 20
60.475277872590823
 30
0.0
  0
VERTEX
  5
DA3
  8
0
  6
CONTINUOUS
 62
     7
 10
115.1537975049152
 20
60.667562089587499
 30
0.0
  0
VERTEX
  5
DA4
  8
0
  6
CONTINUOUS
 62
     7
 10
115.1428833371167
 20
60.855809923227071
 30
0.0
  0
VERTEX
  5
DA5
  8
0
  6
CONTINUOUS
 62
     7
 10
115.14160278809869
 20
60.946169512017228
 30
0.0
  0
SEQEND
  5
DA6
  8
0
  6
CONTINUOUS
 62
     7
  0
POLYLINE
  5
589
  8
0
  6
CONTINUOUS
 62
     7
 66
     1
 10
0.0
 20
0.0
 30
0.0
  0
VERTEX
  5
DA7
  8
0
  6
CONTINUOUS
 62
     7
 10
121.63464825851079
 20
60.946169512017228
 30
0.0
  0
VERTEX
  5
DA8
  8
0
  6
CONTINUOUS
 62
     7
 10
121.63333505072001
 20
61.03666502493386
 30
0.0
  0
VERTEX
  5
DA9
  8
0
  6
CONTINUOUS
 62
     7
 10
121.6221103257255
 20
61.225562674611353
 30
0.0
  0
VERTEX
  5
DAA
  8
0
  6
CONTINUOUS
 62
     7
 10
121.5987606848778
 20
61.418046494452369
 30
0.0
  0
VERTEX
  5
DAB
  8
0
  6
CONTINUOUS
 62
     7
 10
121.5827254979834
 20
61.513089059090959
 30
0.0
  0
VERTEX
  5
DAC
  8
0
  6
CONTINUOUS
 62
     7
 10
121.56411761115641
 20
61.606000768199351
 30
0.0
  0
VERTEX
  5
DAD
  8
0
  6
CONTINUOUS
 62
     7
 10
121.52062033270531
 20
61.78243142302631
 30
0.0
  0
VERTEX
  5
DAE
  8
0
  6
CONTINUOUS
 62
     7
 10
121.4655672093941
 20
61.960283790073362
 30
0.0
  0
VERTEX
  5
DAF
  8
0
  6
CONTINUOUS
 62
     7
 10
121.39759241003679
 20
62.14076378610406
 30
0.0
  0
VERTEX
  5
DB0
  8
0
  6
CONTINUOUS
 62
     7
 10
121.31865263760589
 20
62.317031526012101
 30
0.0
  0
VERTEX
  5
DB1
  8
0
  6
CONTINUOUS
 62
     7
 10
121.2321650552869
 20
62.482865621989077
 30
0.0
  0
VERTEX
  5
DB2
  8
0
  6
CONTINUOUS
 62
     7
 10
121.1873691836273
 20
62.560388506255002
 30
0.0
  0
VERTEX
  5
DB3
  8
0
  6
CONTINUOUS
 62
     7
 10
121.1396833568876
 20
62.6378011599285
 30
0.0
  0
VERTEX
  5
DB4
  8
0
  6
CONTINUOUS
 62
     7
 10
121.0340344865124
 20
62.793724810766662
 30
0.0
  0
VERTEX
  5
DB5
  8
0
  6
CONTINUOUS
 62
     7
 10
120.9165713214983
 20
62.94678040104003
 30
0.0
  0
VERTEX
  5
DB6
  8
0
  6
CONTINUOUS
 62
     7
 10
120.7903403674531
 20
63.092432487400401
 30
0.0
  0
VERTEX
  5
DB7
  8
0
  6
CONTINUOUS
 62
     7
 10
120.65929246902741
 20
63.226882925723459
 30
0.0
  0
VERTEX
  5
DB8
  8
0
  6
CONTINUOUS
 62
     7
 10
120.52676570896
 20
63.348351480590928
 30
0.0
  0
VERTEX
  5
DB9
  8
0
  6
CONTINUOUS
 62
     7
 10
120.4568007537228
 20
63.407331092454761
 30
0.0
  0
VERTEX
  5
DBA
  8
0
  6
CONTINUOUS
 62
     7
 10
120.3837492071618
 20
63.465467125904837
 30
0.0
  0
VERTEX
  5
DBB
  8
0
  6
CONTINUOUS
 62
     7
 10
120.2296792026081
 20
63.577544743324488
 30
0.0
  0
VERTEX
  5
DBC
  8
0
  6
CONTINUOUS
 62
     7
 10
120.0674276525011
 20
63.681670458485769
 30
0.0
  0
VERTEX
  5
DBD
  8
0
  6
CONTINUOUS
 62
     7
 10
119.9842320943991
 20
63.730038310305247
 30
0.0
  0
VERTEX
  5
DBE
  8
0
  6
CONTINUOUS
 62
     7
 10
119.90024301793871
 20
63.77564646673045
 30
0.0
  0
VERTEX
  5
DBF
  8
0
  6
CONTINUOUS
 62
     7
 10
119.73182957941481
 20
63.857934991090872
 30
0.0
  0
VERTEX
  5
DC0
  8
0
  6
CONTINUOUS
 62
     7
 10
119.5659833467648
 20
63.927803705131339
 30
0.0
  0
VERTEX
  5
DC1
  8
0
  6
CONTINUOUS
 62
     7
 10
119.48160297705419
 20
63.959346645008743
 30
0.0
  0
VERTEX
  5
DC2
  8
0
  6
CONTINUOUS
 62
     7
 10
119.3947051944797
 20
63.989123025165391
 30
0.0
  0
VERTEX
  5
DC3
  8
0
  6
CONTINUOUS
 62
     7
 10
119.2146526275839
 20
64.04239647751956
 30
0.0
  0
VERTEX
  5
DC4
  8
0
  6
CONTINUOUS
 62
     7
 10
119.02854524311159
 20
64.08599580494797
 30
0.0
  0
VERTEX
  5
DC5
  8
0
  6
CONTINUOUS
 62
     7
 10
118.83920668782859
 20
64.118859227678854
 30
0.0
  0
VERTEX
  5
DC6
  8
0
  6
CONTINUOUS
 62
     7
 10
118.6494999681066
 20
64.140497309537722
 30
0.0
  0
VERTEX
  5
DC7
  8
0
  6
CONTINUOUS
 62
     7
 10
118.4624495684552
 20
64.150973649172244
 30
0.0
  0
VERTEX
  5
DC8
  8
0
  6
CONTINUOUS
 62
     7
 10
118.370892577352
 20
64.152202577418635
 30
0.0
  0
VERTEX
  5
DC9
  8
0
  6
CONTINUOUS
 62
     7
 10
118.2811628023828
 20
64.150924150210585
 30
0.0
  0
VERTEX
  5
DCA
  8
0
  6
CONTINUOUS
 62
     7
 10
118.1021351907582
 20
64.141005716604781
 30
0.0
  0
VERTEX
  5
DCB
  8
0
  6
CONTINUOUS
 62
     7
 10
117.9181987689868
 20
64.12049001855496
 30
0.0
  0
VERTEX
  5
DCC
  8
0
  6
CONTINUOUS
 62
     7
 10
117.731822266404
 20
64.088805940698563
 30
0.0
  0
VERTEX
  5
DCD
  8
0
  6
CONTINUOUS
 62
     7
 10
117.5455300285219
 20
64.045828193105052
 30
0.0
  0
VERTEX
  5
DCE
  8
0
  6
CONTINUOUS
 62
     7
 10
117.3616845555779
 20
63.991852844821778
 30
0.0
  0
VERTEX
  5
DCF
  8
0
  6
CONTINUOUS
 62
     7
 10
117.2713714712432
 20
63.960944024497941
 30
0.0
  0
VERTEX
  5
DD0
  8
0
  6
CONTINUOUS
 62
     7
 10
117.18249705296741
 20
63.927585129358533
 30
0.0
  0
VERTEX
  5
DD1
  8
0
  6
CONTINUOUS
 62
     7
 10
117.0101329152276
 20
63.854179293616284
 30
0.0
  0
VERTEX
  5
DD2
  8
0
  6
CONTINUOUS
 62
     7
 10
116.8466212951472
 20
63.773223742973641
 30
0.0
  0
VERTEX
  5
DD3
  8
0
  6
CONTINUOUS
 62
     7
 10
116.69136562128691
 20
63.685246313066301
 30
0.0
  0
VERTEX
  5
DD4
  8
0
  6
CONTINUOUS
 62
     7
 10
116.53722046223071
 20
63.586101838751603
 30
0.0
  0
VERTEX
  5
DD5
  8
0
  6
CONTINUOUS
 62
     7
 10
116.38560449086781
 20
63.475769465185572
 30
0.0
  0
VERTEX
  5
DD6
  8
0
  6
CONTINUOUS
 62
     7
 10
116.311413030084
 20
63.416636669135947
 30
0.0
  0
VERTEX
  5
DD7
  8
0
  6
CONTINUOUS
 62
     7
 10
116.2386283398984
 20
63.355020753138348
 30
0.0
  0
VERTEX
  5
DD8
  8
0
  6
CONTINUOUS
 62
     7
 10
116.098179191913
 20
63.224939257471078
 30
0.0
  0
VERTEX
  5
DD9
  8
0
  6
CONTINUOUS
 62
     7
 10
115.9658311934224
 20
63.086835346506092
 30
0.0
  0
VERTEX
  5
DDA
  8
0
  6
CONTINUOUS
 62
     7
 10
115.8429275064241
 20
62.942314186196022
 30
0.0
  0
VERTEX
  5
DDB
  8
0
  6
CONTINUOUS
 62
     7
 10
115.73055831215819
 20
62.79327216278989
 30
0.0
  0
VERTEX
  5
DDC
  8
0
  6
CONTINUOUS
 62
     7
 10
115.6295100852922
 20
62.641845853236021
 30
0.0
  0
VERTEX
  5
DDD
  8
0
  6
CONTINUOUS
 62
     7
 10
115.5832284745331
 20
62.565690172151079
 30
0.0
  0
VERTEX
  5
DDE
  8
0
  6
CONTINUOUS
 62
     7
 10
115.53798995692171
 20
62.486286719277729
 30
0.0
  0
VERTEX
  5
DDF
  8
0
  6
CONTINUOUS
 62
     7
 10
115.45137334869391
 20
62.317399526344843
 30
0.0
  0
VERTEX
  5
DE0
  8
0
  6
CONTINUOUS
 62
     7
 10
115.3734541896965
 20
62.14000269509333
 30
0.0
  0
VERTEX
  5
DE1
  8
0
  6
CONTINUOUS
 62
     7
 10
115.3072141110468
 20
61.960533024474898
 30
0.0
  0
VERTEX
  5
DE2
  8
0
  6
CONTINUOUS
 62
     7
 10
115.2541518854155
 20
61.785924421010101
 30
0.0
  0
VERTEX
  5
DE3
  8
0
  6
CONTINUOUS
 62
     7
 10
115.2106936810747
 20
61.606379085484427
 30
0.0
  0
VERTEX
  5
DE4
  8
0
  6
CONTINUOUS
 62
     7
 10
115.19229863532711
 20
61.51251990997244
 30
0.0
  0
VERTEX
  5
DE5
  8
0
  6
CONTINUOUS
 62
     7
 10
115.1765629166609
 20
61.41706115144359
 30
0.0
  0
VERTEX
  5
DE6
  8
0
  6
CONTINUOUS
 62
     7
 10
115.1537975049152
 20
61.224776934446929
 30
0.0
  0
VERTEX
  5
DE7
  8
0
  6
CONTINUOUS
 62
     7
 10
115.1428833371167
 20
61.036529100807392
 30
0.0
  0
VERTEX
  5
DE8
  8
0
  6
CONTINUOUS
 62
     7
 10
115.14160278809869
 20
60.946169512017228
 30
0.0
  0
VERTEX
  5
DE9
  8
0
  6
CONTINUOUS
 62
     7
 10
115.1428833371167
 20
60.855809923227071
 30
0.0
  0
VERTEX
  5
DEA
  8
0
  6
CONTINUOUS
 62
     7
 10
115.1537975049152
 20
60.667562089587562
 30
0.0
  0
VERTEX
  5
DEB
  8
0
  6
CONTINUOUS
 62
     7
 10
115.1765629166609
 20
60.475277872590908
 30
0.0
  0
VERTEX
  5
DEC
  8
0
  6
CONTINUOUS
 62
     7
 10
115.19229863532711
 20
60.379819114062052
 30
0.0
  0
VERTEX
  5
DED
  8
0
  6
CONTINUOUS
 62
     7
 10
115.2106936810747
 20
60.285959938550029
 30
0.0
  0
VERTEX
  5
DEE
  8
0
  6
CONTINUOUS
 62
     7
 10
115.2541518854155
 20
60.106414603024369
 30
0.0
  0
VERTEX
  5
DEF
  8
0
  6
CONTINUOUS
 62
     7
 10
115.3072141110468
 20
59.9318059995596
 30
0.0
  0
VERTEX
  5
DF0
  8
0
  6
CONTINUOUS
 62
     7
 10
115.3734541896965
 20
59.752336328941141
 30
0.0
  0
VERTEX
  5
DF1
  8
0
  6
CONTINUOUS
 62
     7
 10
115.45137334869391
 20
59.574939497689627
 30
0.0
  0
VERTEX
  5
DF2
  8
0
  6
CONTINUOUS
 62
     7
 10
115.53798995692171
 20
59.40605230475677
 30
0.0
  0
VERTEX
  5
DF3
  8
0
  6
CONTINUOUS
 62
     7
 10
115.5832284745331
 20
59.326648851883391
 30
0.0
  0
VERTEX
  5
DF4
  8
0
  6
CONTINUOUS
 62
     7
 10
115.6295100852922
 20
59.250493170798478
 30
0.0
  0
VERTEX
  5
DF5
  8
0
  6
CONTINUOUS
 62
     7
 10
115.73055831215819
 20
59.099066861244609
 30
0.0
  0
VERTEX
  5
DF6
  8
0
  6
CONTINUOUS
 62
     7
 10
115.8429275064241
 20
58.950024837838441
 30
0.0
  0
VERTEX
  5
DF7
  8
0
  6
CONTINUOUS
 62
     7
 10
115.9658311934224
 20
58.805503677528378
 30
0.0
  0
VERTEX
  5
DF8
  8
0
  6
CONTINUOUS
 62
     7
 10
116.098179191913
 20
58.66739976656342
 30
0.0
  0
VERTEX
  5
DF9
  8
0
  6
CONTINUOUS
 62
     7
 10
116.2386283398984
 20
58.537318270896122
 30
0.0
  0
VERTEX
  5
DFA
  8
0
  6
CONTINUOUS
 62
     7
 10
116.311413030084
 20
58.475702354898509
 30
0.0
  0
VERTEX
  5
DFB
  8
0
  6
CONTINUOUS
 62
     7
 10
116.38560449086781
 20
58.416569558848892
 30
0.0
  0
VERTEX
  5
DFC
  8
0
  6
CONTINUOUS
 62
     7
 10
116.53722046223071
 20
58.306237185282903
 30
0.0
  0
VERTEX
  5
DFD
  8
0
  6
CONTINUOUS
 62
     7
 10
116.69136562128691
 20
58.207092710968162
 30
0.0
  0
VERTEX
  5
DFE
  8
0
  6
CONTINUOUS
 62
     7
 10
116.8466212951472
 20
58.119115281060829
 30
0.0
  0
VERTEX
  5
DFF
  8
0
  6
CONTINUOUS
 62
     7
 10
117.0101329152276
 20
58.03815973041818
 30
0.0
  0
VERTEX
  5
E00
  8
0
  6
CONTINUOUS
 62
     7
 10
117.18249705296741
 20
57.964753894675937
 30
0.0
  0
VERTEX
  5
E01
  8
0
  6
CONTINUOUS
 62
     7
 10
117.2713714712431
 20
57.931394999536529
 30
0.0
  0
VERTEX
  5
E02
  8
0
  6
CONTINUOUS
 62
     7
 10
117.3616845555779
 20
57.900486179212692
 30
0.0
  0
VERTEX
  5
E03
  8
0
  6
CONTINUOUS
 62
     7
 10
117.5455300285219
 20
57.846510830929418
 30
0.0
  0
VERTEX
  5
E04
  8
0
  6
CONTINUOUS
 62
     7
 10
117.731822266404
 20
57.803533083335907
 30
0.0
  0
VERTEX
  5
E05
  8
0
  6
CONTINUOUS
 62
     7
 10
117.9181987689868
 20
57.771849005479538
 30
0.0
  0
VERTEX
  5
E06
  8
0
  6
CONTINUOUS
 62
     7
 10
118.1021351907582
 20
57.75133330742969
 30
0.0
  0
VERTEX
  5
E07
  8
0
  6
CONTINUOUS
 62
     7
 10
118.2811628023828
 20
57.741414873823913
 30
0.0
  0
VERTEX
  5
E08
  8
0
  6
CONTINUOUS
 62
     7
 10
118.370892577352
 20
57.74013644661585
 30
0.0
  0
VERTEX
  5
E09
  8
0
  6
CONTINUOUS
 62
     7
 10
118.4624495684552
 20
57.741365374862248
 30
0.0
  0
VERTEX
  5
E0A
  8
0
  6
CONTINUOUS
 62
     7
 10
118.6494999681066
 20
57.75184171449677
 30
0.0
  0
VERTEX
  5
E0B
  8
0
  6
CONTINUOUS
 62
     7
 10
118.83920668782859
 20
57.773479796355609
 30
0.0
  0
VERTEX
  5
E0C
  8
0
  6
CONTINUOUS
 62
     7
 10
119.02854524311159
 20
57.806343219086529
 30
0.0
  0
VERTEX
  5
E0D
  8
0
  6
CONTINUOUS
 62
     7
 10
119.2146526275839
 20
57.84994254651491
 30
0.0
  0
VERTEX
  5
E0E
  8
0
  6
CONTINUOUS
 62
     7
 10
119.3947051944797
 20
57.903215998869122
 30
0.0
  0
VERTEX
  5
E0F
  8
0
  6
CONTINUOUS
 62
     7
 10
119.48160297705419
 20
57.932992379025727
 30
0.0
  0
VERTEX
  5
E10
  8
0
  6
CONTINUOUS
 62
     7
 10
119.5659833467648
 20
57.964535318903131
 30
0.0
  0
VERTEX
  5
E11
  8
0
  6
CONTINUOUS
 62
     7
 10
119.73182957941481
 20
58.034404032943627
 30
0.0
  0
VERTEX
  5
E12
  8
0
  6
CONTINUOUS
 62
     7
 10
119.90024301793871
 20
58.11669255730402
 30
0.0
  0
VERTEX
  5
E13
  8
0
  6
CONTINUOUS
 62
     7
 10
119.9842320943991
 20
58.162300713729223
 30
0.0
  0
VERTEX
  5
E14
  8
0
  6
CONTINUOUS
 62
     7
 10
120.0674276525011
 20
58.21066856554873
 30
0.0
  0
VERTEX
  5
E15
  8
0
  6
CONTINUOUS
 62
     7
 10
120.2296792026081
 20
58.314794280709982
 30
0.0
  0
VERTEX
  5
E16
  8
0
  6
CONTINUOUS
 62
     7
 10
120.3837492071618
 20
58.426871898129662
 30
0.0
  0
VERTEX
  5
E17
  8
0
  6
CONTINUOUS
 62
     7
 10
120.4568007537228
 20
58.48500793157973
 30
0.0
  0
VERTEX
  5
E18
  8
0
  6
CONTINUOUS
 62
     7
 10
120.52676570896
 20
58.543987543443563
 30
0.0
  0
VERTEX
  5
E19
  8
0
  6
CONTINUOUS
 62
     7
 10
120.65929246902741
 20
58.66545609831104
 30
0.0
  0
VERTEX
  5
E1A
  8
0
  6
CONTINUOUS
 62
     7
 10
120.7903403674531
 20
58.799906536634069
 30
0.0
  0
VERTEX
  5
E1B
  8
0
  6
CONTINUOUS
 62
     7
 10
120.9165713214983
 20
58.94555862299444
 30
0.0
  0
VERTEX
  5
E1C
  8
0
  6
CONTINUOUS
 62
     7
 10
121.0340344865124
 20
59.098614213267837
 30
0.0
  0
VERTEX
  5
E1D
  8
0
  6
CONTINUOUS
 62
     7
 10
121.1396833568876
 20
59.25453786410597
 30
0.0
  0
VERTEX
  5
E1E
  8
0
  6
CONTINUOUS
 62
     7
 10
121.1873691836273
 20
59.331950517779489
 30
0.0
  0
VERTEX
  5
E1F
  8
0
  6
CONTINUOUS
 62
     7
 10
121.2321650552869
 20
59.409473402045393
 30
0.0
  0
VERTEX
  5
E20
  8
0
  6
CONTINUOUS
 62
     7
 10
121.31865263760589
 20
59.575307498022397
 30
0.0
  0
VERTEX
  5
E21
  8
0
  6
CONTINUOUS
 62
     7
 10
121.39759241003679
 20
59.75157523793041
 30
0.0
  0
VERTEX
  5
E22
  8
0
  6
CONTINUOUS
 62
     7
 10
121.4655672093941
 20
59.932055233961108
 30
0.0
  0
VERTEX
  5
E23
  8
0
  6
CONTINUOUS
 62
     7
 10
121.52062033270521
 20
60.109907601008189
 30
0.0
  0
VERTEX
  5
E24
  8
0
  6
CONTINUOUS
 62
     7
 10
121.56411761115641
 20
60.286338255835112
 30
0.0
  0
VERTEX
  5
E25
  8
0
  6
CONTINUOUS
 62
     7
 10
121.5827254979834
 20
60.379249964943511
 30
0.0
  0
VERTEX
  5
E26
  8
0
  6
CONTINUOUS
 62
     7
 10
121.5987606848778
 20
60.474292529582101
 30
0.0
  0
VERTEX
  5
E27
  8
0
  6
CONTINUOUS
 62
     7
 10
121.6221103257255
 20
60.666776349423117
 30
0.0
  0
VERTEX
  5
E28
  8
0
  6
CONTINUOUS
 62
     7
 10
121.63333505072001
 20
60.85567399910061
 30
0.0
  0
VERTEX
  5
E29
  8
0
  6
CONTINUOUS
 62
     7
 10
121.63464825851079
 20
60.946169512017228
 30
0.0
  0
SEQEND
  5
E2A
  8
0
  6
CONTINUOUS
 62
     7
  0
POLYLINE
  5
58A
  8
0
  6
CONTINUOUS
 62
     7
 66
     1
 10
0.0
 20
0.0
 30
0.0
  0
VERTEX
  5
E2B
  8
0
  6
CONTINUOUS
 62
     7
 10
94.851211911678547
 20
60.946169512017228
 30
0.0
  0
VERTEX
  5
E2C
  8
0
  6
CONTINUOUS
 62
     7
 10
94.849931362660485
 20
61.036529100807428
 30
0.0
  0
VERTEX
  5
E2D
  8
0
  6
CONTINUOUS
 62
     7
 10
94.839017194861967
 20
61.224776934446993
 30
0.0
  0
VERTEX
  5
E2E
  8
0
  6
CONTINUOUS
 62
     7
 10
94.816251783116286
 20
61.417061151443647
 30
0.0
  0
VERTEX
  5
E2F
  8
0
  6
CONTINUOUS
 62
     7
 10
94.800516064450107
 20
61.512519909972518
 30
0.0
  0
VERTEX
  5
E30
  8
0
  6
CONTINUOUS
 62
     7
 10
94.782121018702455
 20
61.606379085484512
 30
0.0
  0
VERTEX
  5
E31
  8
0
  6
CONTINUOUS
 62
     7
 10
94.738662814361703
 20
61.785924421010243
 30
0.0
  0
VERTEX
  5
E32
  8
0
  6
CONTINUOUS
 62
     7
 10
94.685600588730395
 20
61.960533024474991
 30
0.0
  0
VERTEX
  5
E33
  8
0
  6
CONTINUOUS
 62
     7
 10
94.619360510080696
 20
62.140002695093408
 30
0.0
  0
VERTEX
  5
E34
  8
0
  6
CONTINUOUS
 62
     7
 10
94.541441351083321
 20
62.31739952634495
 30
0.0
  0
VERTEX
  5
E35
  8
0
  6
CONTINUOUS
 62
     7
 10
94.454824742855422
 20
62.486286719277807
 30
0.0
  0
VERTEX
  5
E36
  8
0
  6
CONTINUOUS
 62
     7
 10
94.409586225244013
 20
62.565690172151193
 30
0.0
  0
VERTEX
  5
E37
  8
0
  6
CONTINUOUS
 62
     7
 10
94.363304614484903
 20
62.641845853236127
 30
0.0
  0
VERTEX
  5
E38
  8
0
  6
CONTINUOUS
 62
     7
 10
94.262256387618905
 20
62.793272162789968
 30
0.0
  0
VERTEX
  5
E39
  8
0
  6
CONTINUOUS
 62
     7
 10
94.149887193353067
 20
62.942314186196143
 30
0.0
  0
VERTEX
  5
E3A
  8
0
  6
CONTINUOUS
 62
     7
 10
94.026983506354753
 20
63.086835346506199
 30
0.0
  0
VERTEX
  5
E3B
  8
0
  6
CONTINUOUS
 62
     7
 10
93.894635507864066
 20
63.224939257471192
 30
0.0
  0
VERTEX
  5
E3C
  8
0
  6
CONTINUOUS
 62
     7
 10
93.754186359878673
 20
63.355020753138461
 30
0.0
  0
VERTEX
  5
E3D
  8
0
  6
CONTINUOUS
 62
     7
 10
93.681401669693088
 20
63.416636669136068
 30
0.0
  0
VERTEX
  5
E3E
  8
0
  6
CONTINUOUS
 62
     7
 10
93.607210208909351
 20
63.475769465185657
 30
0.0
  0
VERTEX
  5
E3F
  8
0
  6
CONTINUOUS
 62
     7
 10
93.455594237546407
 20
63.586101838751709
 30
0.0
  0
VERTEX
  5
E40
  8
0
  6
CONTINUOUS
 62
     7
 10
93.301449078490194
 20
63.685246313066408
 30
0.0
  0
VERTEX
  5
E41
  8
0
  6
CONTINUOUS
 62
     7
 10
93.224150753277385
 20
63.730464672259217
 30
0.0
  0
VERTEX
  5
E42
  8
0
  6
CONTINUOUS
 62
     7
 10
93.146193404629841
 20
63.773223742973727
 30
0.0
  0
VERTEX
  5
E43
  8
0
  6
CONTINUOUS
 62
     7
 10
92.982681784549456
 20
63.854179293616362
 30
0.0
  0
VERTEX
  5
E44
  8
0
  6
CONTINUOUS
 62
     7
 10
92.810317646809636
 20
63.927585129358619
 30
0.0
  0
VERTEX
  5
E45
  8
0
  6
CONTINUOUS
 62
     7
 10
92.721443228533914
 20
63.960944024498019
 30
0.0
  0
VERTEX
  5
E46
  8
0
  6
CONTINUOUS
 62
     7
 10
92.631130144199119
 20
63.991852844821857
 30
0.0
  0
VERTEX
  5
E47
  8
0
  6
CONTINUOUS
 62
     7
 10
92.447284671255147
 20
64.045828193105137
 30
0.0
  0
VERTEX
  5
E48
  8
0
  6
CONTINUOUS
 62
     7
 10
92.260992433373048
 20
64.08880594069862
 30
0.0
  0
VERTEX
  5
E49
  8
0
  6
CONTINUOUS
 62
     7
 10
92.074615930790202
 20
64.120490018555017
 30
0.0
  0
VERTEX
  5
E4A
  8
0
  6
CONTINUOUS
 62
     7
 10
91.890679509018838
 20
64.141005716604823
 30
0.0
  0
VERTEX
  5
E4B
  8
0
  6
CONTINUOUS
 62
     7
 10
91.711651897394219
 20
64.150924150210614
 30
0.0
  0
VERTEX
  5
E4C
  8
0
  6
CONTINUOUS
 62
     7
 10
91.621922122425005
 20
64.152202577418677
 30
0.0
  0
VERTEX
  5
E4D
  8
0
  6
CONTINUOUS
 62
     7
 10
91.530365131321872
 20
64.150973649172272
 30
0.0
  0
VERTEX
  5
E4E
  8
0
  6
CONTINUOUS
 62
     7
 10
91.343314731670418
 20
64.14049730953775
 30
0.0
  0
VERTEX
  5
E4F
  8
0
  6
CONTINUOUS
 62
     7
 10
91.153608011948393
 20
64.118859227678882
 30
0.0
  0
VERTEX
  5
E50
  8
0
  6
CONTINUOUS
 62
     7
 10
90.964269456665406
 20
64.08599580494797
 30
0.0
  0
VERTEX
  5
E51
  8
0
  6
CONTINUOUS
 62
     7
 10
90.778162072193055
 20
64.04239647751956
 30
0.0
  0
VERTEX
  5
E52
  8
0
  6
CONTINUOUS
 62
     7
 10
90.59810950529733
 20
63.989123025165348
 30
0.0
  0
VERTEX
  5
E53
  8
0
  6
CONTINUOUS
 62
     7
 10
90.511211722722834
 20
63.959346645008701
 30
0.0
  0
VERTEX
  5
E54
  8
0
  6
CONTINUOUS
 62
     7
 10
90.426831353012219
 20
63.927803705131282
 30
0.0
  0
VERTEX
  5
E55
  8
0
  6
CONTINUOUS
 62
     7
 10
90.260985120362236
 20
63.857934991090843
 30
0.0
  0
VERTEX
  5
E56
  8
0
  6
CONTINUOUS
 62
     7
 10
90.092571681838308
 20
63.775646466730421
 30
0.0
  0
VERTEX
  5
E57
  8
0
  6
CONTINUOUS
 62
     7
 10
89.92538704727589
 20
63.681670458485712
 30
0.0
  0
VERTEX
  5
E58
  8
0
  6
CONTINUOUS
 62
     7
 10
89.763135497168889
 20
63.577544743324438
 30
0.0
  0
VERTEX
  5
E59
  8
0
  6
CONTINUOUS
 62
     7
 10
89.609065492615244
 20
63.465467125904752
 30
0.0
  0
VERTEX
  5
E5A
  8
0
  6
CONTINUOUS
 62
     7
 10
89.536013946054226
 20
63.407331092454683
 30
0.0
  0
VERTEX
  5
E5B
  8
0
  6
CONTINUOUS
 62
     7
 10
89.466048990816986
 20
63.348351480590843
 30
0.0
  0
VERTEX
  5
E5C
  8
0
  6
CONTINUOUS
 62
     7
 10
89.333522230749651
 20
63.226882925723338
 30
0.0
  0
VERTEX
  5
E5D
  8
0
  6
CONTINUOUS
 62
     7
 10
89.202474332323916
 20
63.092432487400281
 30
0.0
  0
VERTEX
  5
E5E
  8
0
  6
CONTINUOUS
 62
     7
 10
89.076243378278761
 20
62.946780401039923
 30
0.0
  0
VERTEX
  5
E5F
  8
0
  6
CONTINUOUS
 62
     7
 10
88.958780213264575
 20
62.793724810766548
 30
0.0
  0
VERTEX
  5
E60
  8
0
  6
CONTINUOUS
 62
     7
 10
88.853131342889398
 20
62.637801159928387
 30
0.0
  0
VERTEX
  5
E61
  8
0
  6
CONTINUOUS
 62
     7
 10
88.805445516149717
 20
62.56038850625486
 30
0.0
  0
VERTEX
  5
E62
  8
0
  6
CONTINUOUS
 62
     7
 10
88.760649644490172
 20
62.482865621988928
 30
0.0
  0
VERTEX
  5
E63
  8
0
  6
CONTINUOUS
 62
     7
 10
88.674162062171206
 20
62.317031526011959
 30
0.0
  0
VERTEX
  5
E64
  8
0
  6
CONTINUOUS
 62
     7
 10
88.595222289740263
 20
62.140763786103918
 30
0.0
  0
VERTEX
  5
E65
  8
0
  6
CONTINUOUS
 62
     7
 10
88.527247490383004
 20
61.96028379007322
 30
0.0
  0
VERTEX
  5
E66
  8
0
  6
CONTINUOUS
 62
     7
 10
88.472194367071836
 20
61.782431423026082
 30
0.0
  0
VERTEX
  5
E67
  8
0
  6
CONTINUOUS
 62
     7
 10
88.42869708862068
 20
61.606000768199152
 30
0.0
  0
VERTEX
  5
E68
  8
0
  6
CONTINUOUS
 62
     7
 10
88.410089201793738
 20
61.513089059090788
 30
0.0
  0
VERTEX
  5
E69
  8
0
  6
CONTINUOUS
 62
     7
 10
88.394054014899325
 20
61.418046494452192
 30
0.0
  0
VERTEX
  5
E6A
  8
0
  6
CONTINUOUS
 62
     7
 10
88.370704374051655
 20
61.225562674611183
 30
0.0
  0
VERTEX
  5
E6B
  8
0
  6
CONTINUOUS
 62
     7
 10
88.359479649057164
 20
61.036665024933789
 30
0.0
  0
VERTEX
  5
E6C
  8
0
  6
CONTINUOUS
 62
     7
 10
88.358166441266306
 20
60.946169512017228
 30
0.0
  0
VERTEX
  5
E6D
  8
0
  6
CONTINUOUS
 62
     7
 10
88.359479649057164
 20
60.855673999100667
 30
0.0
  0
VERTEX
  5
E6E
  8
0
  6
CONTINUOUS
 62
     7
 10
88.370704374051627
 20
60.666776349423287
 30
0.0
  0
VERTEX
  5
E6F
  8
0
  6
CONTINUOUS
 62
     7
 10
88.394054014899325
 20
60.474292529582272
 30
0.0
  0
VERTEX
  5
E70
  8
0
  6
CONTINUOUS
 62
     7
 10
88.410089201793738
 20
60.379249964943682
 30
0.0
  0
VERTEX
  5
E71
  8
0
  6
CONTINUOUS
 62
     7
 10
88.42869708862068
 20
60.286338255835318
 30
0.0
  0
VERTEX
  5
E72
  8
0
  6
CONTINUOUS
 62
     7
 10
88.472194367071808
 20
60.109907601008423
 30
0.0
  0
VERTEX
  5
E73
  8
0
  6
CONTINUOUS
 62
     7
 10
88.527247490383004
 20
59.932055233961272
 30
0.0
  0
VERTEX
  5
E74
  8
0
  6
CONTINUOUS
 62
     7
 10
88.595222289740263
 20
59.751575237930552
 30
0.0
  0
VERTEX
  5
E75
  8
0
  6
CONTINUOUS
 62
     7
 10
88.674162062171177
 20
59.575307498022539
 30
0.0
  0
VERTEX
  5
E76
  8
0
  6
CONTINUOUS
 62
     7
 10
88.760649644490172
 20
59.409473402045563
 30
0.0
  0
VERTEX
  5
E77
  8
0
  6
CONTINUOUS
 62
     7
 10
88.805445516149717
 20
59.331950517779632
 30
0.0
  0
VERTEX
  5
E78
  8
0
  6
CONTINUOUS
 62
     7
 10
88.853131342889398
 20
59.254537864106112
 30
0.0
  0
VERTEX
  5
E79
  8
0
  6
CONTINUOUS
 62
     7
 10
88.958780213264603
 20
59.09861421326795
 30
0.0
  0
VERTEX
  5
E7A
  8
0
  6
CONTINUOUS
 62
     7
 10
89.076243378278747
 20
58.945558622994547
 30
0.0
  0
VERTEX
  5
E7B
  8
0
  6
CONTINUOUS
 62
     7
 10
89.202474332323916
 20
58.799906536634182
 30
0.0
  0
VERTEX
  5
E7C
  8
0
  6
CONTINUOUS
 62
     7
 10
89.333522230749651
 20
58.665456098311132
 30
0.0
  0
VERTEX
  5
E7D
  8
0
  6
CONTINUOUS
 62
     7
 10
89.466048990816986
 20
58.543987543443649
 30
0.0
  0
VERTEX
  5
E7E
  8
0
  6
CONTINUOUS
 62
     7
 10
89.536013946054226
 20
58.48500793157978
 30
0.0
  0
VERTEX
  5
E7F
  8
0
  6
CONTINUOUS
 62
     7
 10
89.609065492615244
 20
58.426871898129718
 30
0.0
  0
VERTEX
  5
E80
  8
0
  6
CONTINUOUS
 62
     7
 10
89.763135497168889
 20
58.314794280710061
 30
0.0
  0
VERTEX
  5
E81
  8
0
  6
CONTINUOUS
 62
     7
 10
89.92538704727589
 20
58.210668565548751
 30
0.0
  0
VERTEX
  5
E82
  8
0
  6
CONTINUOUS
 62
     7
 10
90.092571681838308
 20
58.11669255730407
 30
0.0
  0
VERTEX
  5
E83
  8
0
  6
CONTINUOUS
 62
     7
 10
90.260985120362236
 20
58.034404032943662
 30
0.0
  0
VERTEX
  5
E84
  8
0
  6
CONTINUOUS
 62
     7
 10
90.426831353012219
 20
57.964535318903181
 30
0.0
  0
VERTEX
  5
E85
  8
0
  6
CONTINUOUS
 62
     7
 10
90.511211722722834
 20
57.932992379025762
 30
0.0
  0
VERTEX
  5
E86
  8
0
  6
CONTINUOUS
 62
     7
 10
90.59810950529733
 20
57.903215998869122
 30
0.0
  0
VERTEX
  5
E87
  8
0
  6
CONTINUOUS
 62
     7
 10
90.778162072193055
 20
57.849942546514932
 30
0.0
  0
VERTEX
  5
E88
  8
0
  6
CONTINUOUS
 62
     7
 10
90.964269456665406
 20
57.8063432190865
 30
0.0
  0
VERTEX
  5
E89
  8
0
  6
CONTINUOUS
 62
     7
 10
91.153608011948393
 20
57.773479796355609
 30
0.0
  0
VERTEX
  5
E8A
  8
0
  6
CONTINUOUS
 62
     7
 10
91.343314731670418
 20
57.75184171449672
 30
0.0
  0
VERTEX
  5
E8B
  8
0
  6
CONTINUOUS
 62
     7
 10
91.530365131321872
 20
57.741365374862227
 30
0.0
  0
VERTEX
  5
E8C
  8
0
  6
CONTINUOUS
 62
     7
 10
91.621922122425005
 20
57.740136446615793
 30
0.0
  0
VERTEX
  5
E8D
  8
0
  6
CONTINUOUS
 62
     7
 10
91.711651897394219
 20
57.741414873823878
 30
0.0
  0
VERTEX
  5
E8E
  8
0
  6
CONTINUOUS
 62
     7
 10
91.890679509018838
 20
57.751333307429633
 30
0.0
  0
VERTEX
  5
E8F
  8
0
  6
CONTINUOUS
 62
     7
 10
92.074615930790202
 20
57.771849005479481
 30
0.0
  0
VERTEX
  5
E90
  8
0
  6
CONTINUOUS
 62
     7
 10
92.260992433373048
 20
57.80353308333585
 30
0.0
  0
VERTEX
  5
E91
  8
0
  6
CONTINUOUS
 62
     7
 10
92.447284671255147
 20
57.846510830929361
 30
0.0
  0
VERTEX
  5
E92
  8
0
  6
CONTINUOUS
 62
     7
 10
92.631130144199119
 20
57.900486179212614
 30
0.0
  0
VERTEX
  5
E93
  8
0
  6
CONTINUOUS
 62
     7
 10
92.721443228533914
 20
57.931394999536451
 30
0.0
  0
VERTEX
  5
E94
  8
0
  6
CONTINUOUS
 62
     7
 10
92.810317646809636
 20
57.964753894675852
 30
0.0
  0
VERTEX
  5
E95
  8
0
  6
CONTINUOUS
 62
     7
 10
92.98268178454947
 20
58.038159730418101
 30
0.0
  0
VERTEX
  5
E96
  8
0
  6
CONTINUOUS
 62
     7
 10
93.146193404629855
 20
58.119115281060743
 30
0.0
  0
VERTEX
  5
E97
  8
0
  6
CONTINUOUS
 62
     7
 10
93.224150753277357
 20
58.161874351775282
 30
0.0
  0
VERTEX
  5
E98
  8
0
  6
CONTINUOUS
 62
     7
 10
93.301449078490208
 20
58.207092710968077
 30
0.0
  0
VERTEX
  5
E99
  8
0
  6
CONTINUOUS
 62
     7
 10
93.455594237546393
 20
58.306237185282782
 30
0.0
  0
VERTEX
  5
E9A
  8
0
  6
CONTINUOUS
 62
     7
 10
93.607210208909351
 20
58.416569558848799
 30
0.0
  0
VERTEX
  5
E9B
  8
0
  6
CONTINUOUS
 62
     7
 10
93.681401669693088
 20
58.475702354898402
 30
0.0
  0
VERTEX
  5
E9C
  8
0
  6
CONTINUOUS
 62
     7
 10
93.754186359878673
 20
58.53731827089603
 30
0.0
  0
VERTEX
  5
E9D
  8
0
  6
CONTINUOUS
 62
     7
 10
93.894635507864095
 20
58.6673997665633
 30
0.0
  0
VERTEX
  5
E9E
  8
0
  6
CONTINUOUS
 62
     7
 10
94.026983506354767
 20
58.805503677528257
 30
0.0
  0
VERTEX
  5
E9F
  8
0
  6
CONTINUOUS
 62
     7
 10
94.149887193353067
 20
58.950024837838349
 30
0.0
  0
VERTEX
  5
EA0
  8
0
  6
CONTINUOUS
 62
     7
 10
94.262256387618905
 20
59.099066861244502
 30
0.0
  0
VERTEX
  5
EA1
  8
0
  6
CONTINUOUS
 62
     7
 10
94.363304614484903
 20
59.250493170798357
 30
0.0
  0
VERTEX
  5
EA2
  8
0
  6
CONTINUOUS
 62
     7
 10
94.409586225244027
 20
59.32664885188327
 30
0.0
  0
VERTEX
  5
EA3
  8
0
  6
CONTINUOUS
 62
     7
 10
94.454824742855422
 20
59.406052304756649
 30
0.0
  0
VERTEX
  5
EA4
  8
0
  6
CONTINUOUS
 62
     7
 10
94.541441351083336
 20
59.574939497689513
 30
0.0
  0
VERTEX
  5
EA5
  8
0
  6
CONTINUOUS
 62
     7
 10
94.619360510080682
 20
59.752336328941063
 30
0.0
  0
VERTEX
  5
EA6
  8
0
  6
CONTINUOUS
 62
     7
 10
94.685600588730381
 20
59.931805999559479
 30
0.0
  0
VERTEX
  5
EA7
  8
0
  6
CONTINUOUS
 62
     7
 10
94.738662814361689
 20
60.106414603024263
 30
0.0
  0
VERTEX
  5
EA8
  8
0
  6
CONTINUOUS
 62
     7
 10
94.782121018702455
 20
60.285959938549951
 30
0.0
  0
VERTEX
  5
EA9
  8
0
  6
CONTINUOUS
 62
     7
 10
94.800516064450107
 20
60.379819114061974
 30
0.0
  0
VERTEX
  5
EAA
  8
0
  6
CONTINUOUS
 62
     7
 10
94.816251783116286
 20
60.475277872590823
 30
0.0
  0
VERTEX
  5
EAB
  8
0
  6
CONTINUOUS
 62
     7
 10
94.839017194861967
 20
60.66756208958747
 30
0.0
  0
VERTEX
  5
EAC
  8
0
  6
CONTINUOUS
 62
     7
 10
94.849931362660485
 20
60.855809923227071
 30
0.0
  0
VERTEX
  5
EAD
  8
0
  6
CONTINUOUS
 62
     7
 10
94.851211911678547
 20
60.946169512017228
 30
0.0
  0
SEQEND
  5
EAE
  8
0
  6
CONTINUOUS
 62
     7
  0
POLYLINE
  5
58B
  8
0
  6
CONTINUOUS
 62
     7
 66
     1
 10
0.0
 20
0.0
 30
0.0
  0
VERTEX
  5
EAF
  8
0
  6
CONTINUOUS
 62
     7
 10
88.35816644126632
 20
60.946169512017228
 30
0.0
  0
VERTEX
  5
EB0
  8
0
  6
CONTINUOUS
 62
     7
 10
88.359479649057178
 20
61.036665024933939
 30
0.0
  0
VERTEX
  5
EB1
  8
0
  6
CONTINUOUS
 62
     7
 10
88.370704374051684
 20
61.225562674611531
 30
0.0
  0
VERTEX
  5
EB2
  8
0
  6
CONTINUOUS
 62
     7
 10
88.394054014899396
 20
61.41804649445254
 30
0.0
  0
VERTEX
  5
EB3
  8
0
  6
CONTINUOUS
 62
     7
 10
88.410089201793824
 20
61.513089059091129
 30
0.0
  0
VERTEX
  5
EB4
  8
0
  6
CONTINUOUS
 62
     7
 10
88.428697088620765
 20
61.60600076819955
 30
0.0
  0
VERTEX
  5
EB5
  8
0
  6
CONTINUOUS
 62
     7
 10
88.47219436707195
 20
61.782431423026537
 30
0.0
  0
VERTEX
  5
EB6
  8
0
  6
CONTINUOUS
 62
     7
 10
88.527247490383147
 20
61.960283790073497
 30
0.0
  0
VERTEX
  5
EB7
  8
0
  6
CONTINUOUS
 62
     7
 10
88.595222289740406
 20
62.140763786104181
 30
0.0
  0
VERTEX
  5
EB8
  8
0
  6
CONTINUOUS
 62
     7
 10
88.67416206217132
 20
62.317031526012208
 30
0.0
  0
VERTEX
  5
EB9
  8
0
  6
CONTINUOUS
 62
     7
 10
88.760649644490371
 20
62.48286562198922
 30
0.0
  0
VERTEX
  5
EBA
  8
0
  6
CONTINUOUS
 62
     7
 10
88.805445516149902
 20
62.560388506255151
 30
0.0
  0
VERTEX
  5
EBB
  8
0
  6
CONTINUOUS
 62
     7
 10
88.853131342889597
 20
62.637801159928642
 30
0.0
  0
VERTEX
  5
EBC
  8
0
  6
CONTINUOUS
 62
     7
 10
88.958780213264788
 20
62.793724810766768
 30
0.0
  0
VERTEX
  5
EBD
  8
0
  6
CONTINUOUS
 62
     7
 10
89.076243378278946
 20
62.946780401040108
 30
0.0
  0
VERTEX
  5
EBE
  8
0
  6
CONTINUOUS
 62
     7
 10
89.202474332324087
 20
63.092432487400487
 30
0.0
  0
VERTEX
  5
EBF
  8
0
  6
CONTINUOUS
 62
     7
 10
89.333522230749864
 20
63.226882925723508
 30
0.0
  0
VERTEX
  5
EC0
  8
0
  6
CONTINUOUS
 62
     7
 10
89.466048990817214
 20
63.348351480590992
 30
0.0
  0
VERTEX
  5
EC1
  8
0
  6
CONTINUOUS
 62
     7
 10
89.536013946054439
 20
63.407331092454832
 30
0.0
  0
VERTEX
  5
EC2
  8
0
  6
CONTINUOUS
 62
     7
 10
89.609065492615443
 20
63.465467125904887
 30
0.0
  0
VERTEX
  5
EC3
  8
0
  6
CONTINUOUS
 62
     7
 10
89.763135497169117
 20
63.577544743324552
 30
0.0
  0
VERTEX
  5
EC4
  8
0
  6
CONTINUOUS
 62
     7
 10
89.925387047276089
 20
63.68167045848579
 30
0.0
  0
VERTEX
  5
EC5
  8
0
  6
CONTINUOUS
 62
     7
 10
90.008582605378095
 20
63.730038310305297
 30
0.0
  0
VERTEX
  5
EC6
  8
0
  6
CONTINUOUS
 62
     7
 10
90.092571681838507
 20
63.775646466730478
 30
0.0
  0
VERTEX
  5
EC7
  8
0
  6
CONTINUOUS
 62
     7
 10
90.26098512036242
 20
63.8579349910909
 30
0.0
  0
VERTEX
  5
EC8
  8
0
  6
CONTINUOUS
 62
     7
 10
90.426831353012403
 20
63.92780370513136
 30
0.0
  0
VERTEX
  5
EC9
  8
0
  6
CONTINUOUS
 62
     7
 10
90.511211722723004
 20
63.959346645008758
 30
0.0
  0
VERTEX
  5
ECA
  8
0
  6
CONTINUOUS
 62
     7
 10
90.598109505297487
 20
63.989123025165391
 30
0.0
  0
VERTEX
  5
ECB
  8
0
  6
CONTINUOUS
 62
     7
 10
90.778162072193226
 20
64.042396477519588
 30
0.0
  0
VERTEX
  5
ECC
  8
0
  6
CONTINUOUS
 62
     7
 10
90.964269456665548
 20
64.08599580494797
 30
0.0
  0
VERTEX
  5
ECD
  8
0
  6
CONTINUOUS
 62
     7
 10
91.153608011948535
 20
64.118859227678854
 30
0.0
  0
VERTEX
  5
ECE
  8
0
  6
CONTINUOUS
 62
     7
 10
91.343314731670546
 20
64.140497309537722
 30
0.0
  0
VERTEX
  5
ECF
  8
0
  6
CONTINUOUS
 62
     7
 10
91.530365131321986
 20
64.150973649172244
 30
0.0
  0
VERTEX
  5
ED0
  8
0
  6
CONTINUOUS
 62
     7
 10
91.621922122425104
 20
64.152202577418677
 30
0.0
  0
VERTEX
  5
ED1
  8
0
  6
CONTINUOUS
 62
     7
 10
91.711651897394304
 20
64.150924150210585
 30
0.0
  0
VERTEX
  5
ED2
  8
0
  6
CONTINUOUS
 62
     7
 10
91.890679509018909
 20
64.141005716604809
 30
0.0
  0
VERTEX
  5
ED3
  8
0
  6
CONTINUOUS
 62
     7
 10
92.074615930790287
 20
64.12049001855496
 30
0.0
  0
VERTEX
  5
ED4
  8
0
  6
CONTINUOUS
 62
     7
 10
92.260992433373119
 20
64.088805940698592
 30
0.0
  0
VERTEX
  5
ED5
  8
0
  6
CONTINUOUS
 62
     7
 10
92.447284671255204
 20
64.045828193105081
 30
0.0
  0
VERTEX
  5
ED6
  8
0
  6
CONTINUOUS
 62
     7
 10
92.631130144199133
 20
63.991852844821828
 30
0.0
  0
VERTEX
  5
ED7
  8
0
  6
CONTINUOUS
 62
     7
 10
92.721443228533957
 20
63.960944024497962
 30
0.0
  0
VERTEX
  5
ED8
  8
0
  6
CONTINUOUS
 62
     7
 10
92.810317646809665
 20
63.92758512935859
 30
0.0
  0
VERTEX
  5
ED9
  8
0
  6
CONTINUOUS
 62
     7
 10
92.98268178454947
 20
63.85417929361634
 30
0.0
  0
VERTEX
  5
EDA
  8
0
  6
CONTINUOUS
 62
     7
 10
93.146193404629841
 20
63.773223742973698
 30
0.0
  0
VERTEX
  5
EDB
  8
0
  6
CONTINUOUS
 62
     7
 10
93.301449078490194
 20
63.685246313066379
 30
0.0
  0
VERTEX
  5
EDC
  8
0
  6
CONTINUOUS
 62
     7
 10
93.455594237546379
 20
63.586101838751681
 30
0.0
  0
VERTEX
  5
EDD
  8
0
  6
CONTINUOUS
 62
     7
 10
93.607210208909336
 20
63.475769465185657
 30
0.0
  0
VERTEX
  5
EDE
  8
0
  6
CONTINUOUS
 62
     7
 10
93.681401669693074
 20
63.416636669136032
 30
0.0
  0
VERTEX
  5
EDF
  8
0
  6
CONTINUOUS
 62
     7
 10
93.754186359878673
 20
63.355020753138461
 30
0.0
  0
VERTEX
  5
EE0
  8
0
  6
CONTINUOUS
 62
     7
 10
93.894635507864052
 20
63.224939257471164
 30
0.0
  0
VERTEX
  5
EE1
  8
0
  6
CONTINUOUS
 62
     7
 10
94.026983506354711
 20
63.086835346506199
 30
0.0
  0
VERTEX
  5
EE2
  8
0
  6
CONTINUOUS
 62
     7
 10
94.14988719335301
 20
62.942314186196143
 30
0.0
  0
VERTEX
  5
EE3
  8
0
  6
CONTINUOUS
 62
     7
 10
94.262256387618834
 20
62.793272162790032
 30
0.0
  0
VERTEX
  5
EE4
  8
0
  6
CONTINUOUS
 62
     7
 10
94.363304614484861
 20
62.641845853236191
 30
0.0
  0
VERTEX
  5
EE5
  8
0
  6
CONTINUOUS
 62
     7
 10
94.409586225243942
 20
62.565690172151271
 30
0.0
  0
VERTEX
  5
EE6
  8
0
  6
CONTINUOUS
 62
     7
 10
94.454824742855351
 20
62.486286719277871
 30
0.0
  0
VERTEX
  5
EE7
  8
0
  6
CONTINUOUS
 62
     7
 10
94.541441351083265
 20
62.317399526344978
 30
0.0
  0
VERTEX
  5
EE8
  8
0
  6
CONTINUOUS
 62
     7
 10
94.619360510080625
 20
62.1400026950935
 30
0.0
  0
VERTEX
  5
EE9
  8
0
  6
CONTINUOUS
 62
     7
 10
94.685600588730324
 20
61.96053302447509
 30
0.0
  0
VERTEX
  5
EEA
  8
0
  6
CONTINUOUS
 62
     7
 10
94.738662814361646
 20
61.785924421010407
 30
0.0
  0
VERTEX
  5
EEB
  8
0
  6
CONTINUOUS
 62
     7
 10
94.782121018702412
 20
61.606379085484662
 30
0.0
  0
VERTEX
  5
EEC
  8
0
  6
CONTINUOUS
 62
     7
 10
94.800516064450051
 20
61.512519909972639
 30
0.0
  0
VERTEX
  5
EED
  8
0
  6
CONTINUOUS
 62
     7
 10
94.816251783116243
 20
61.417061151443761
 30
0.0
  0
VERTEX
  5
EEE
  8
0
  6
CONTINUOUS
 62
     7
 10
94.839017194861924
 20
61.224776934447107
 30
0.0
  0
VERTEX
  5
EEF
  8
0
  6
CONTINUOUS
 62
     7
 10
94.849931362660456
 20
61.036529100807464
 30
0.0
  0
VERTEX
  5
EF0
  8
0
  6
CONTINUOUS
 62
     7
 10
94.851211911678504
 20
60.946169512017228
 30
0.0
  0
VERTEX
  5
EF1
  8
0
  6
CONTINUOUS
 62
     7
 10
94.849931362660456
 20
60.855809923226978
 30
0.0
  0
VERTEX
  5
EF2
  8
0
  6
CONTINUOUS
 62
     7
 10
94.839017194861924
 20
60.667562089587328
 30
0.0
  0
VERTEX
  5
EF3
  8
0
  6
CONTINUOUS
 62
     7
 10
94.816251783116243
 20
60.475277872590681
 30
0.0
  0
VERTEX
  5
EF4
  8
0
  6
CONTINUOUS
 62
     7
 10
94.800516064450036
 20
60.379819114061831
 30
0.0
  0
VERTEX
  5
EF5
  8
0
  6
CONTINUOUS
 62
     7
 10
94.782121018702384
 20
60.285959938549809
 30
0.0
  0
VERTEX
  5
EF6
  8
0
  6
CONTINUOUS
 62
     7
 10
94.738662814361618
 20
60.106414603024056
 30
0.0
  0
VERTEX
  5
EF7
  8
0
  6
CONTINUOUS
 62
     7
 10
94.685600588730324
 20
59.931805999559373
 30
0.0
  0
VERTEX
  5
EF8
  8
0
  6
CONTINUOUS
 62
     7
 10
94.619360510080625
 20
59.75233632894097
 30
0.0
  0
VERTEX
  5
EF9
  8
0
  6
CONTINUOUS
 62
     7
 10
94.54144135108325
 20
59.574939497689449
 30
0.0
  0
VERTEX
  5
EFA
  8
0
  6
CONTINUOUS
 62
     7
 10
94.454824742855351
 20
59.406052304756571
 30
0.0
  0
VERTEX
  5
EFB
  8
0
  6
CONTINUOUS
 62
     7
 10
94.409586225243942
 20
59.326648851883192
 30
0.0
  0
VERTEX
  5
EFC
  8
0
  6
CONTINUOUS
 62
     7
 10
94.363304614484818
 20
59.250493170798279
 30
0.0
  0
VERTEX
  5
EFD
  8
0
  6
CONTINUOUS
 62
     7
 10
94.262256387618834
 20
59.099066861244431
 30
0.0
  0
VERTEX
  5
EFE
  8
0
  6
CONTINUOUS
 62
     7
 10
94.149887193352995
 20
58.950024837838328
 30
0.0
  0
VERTEX
  5
EFF
  8
0
  6
CONTINUOUS
 62
     7
 10
94.026983506354711
 20
58.805503677528257
 30
0.0
  0
VERTEX
  5
F00
  8
0
  6
CONTINUOUS
 62
     7
 10
93.894635507864038
 20
58.6673997665633
 30
0.0
  0
VERTEX
  5
F01
  8
0
  6
CONTINUOUS
 62
     7
 10
93.754186359878645
 20
58.537318270896009
 30
0.0
  0
VERTEX
  5
F02
  8
0
  6
CONTINUOUS
 62
     7
 10
93.681401669693059
 20
58.475702354898431
 30
0.0
  0
VERTEX
  5
F03
  8
0
  6
CONTINUOUS
 62
     7
 10
93.607210208909308
 20
58.416569558848799
 30
0.0
  0
VERTEX
  5
F04
  8
0
  6
CONTINUOUS
 62
     7
 10
93.455594237546364
 20
58.306237185282782
 30
0.0
  0
VERTEX
  5
F05
  8
0
  6
CONTINUOUS
 62
     7
 10
93.301449078490165
 20
58.207092710968077
 30
0.0
  0
VERTEX
  5
F06
  8
0
  6
CONTINUOUS
 62
     7
 10
93.146193404629827
 20
58.119115281060743
 30
0.0
  0
VERTEX
  5
F07
  8
0
  6
CONTINUOUS
 62
     7
 10
92.982681784549456
 20
58.03815973041813
 30
0.0
  0
VERTEX
  5
F08
  8
0
  6
CONTINUOUS
 62
     7
 10
92.810317646809636
 20
57.964753894675908
 30
0.0
  0
VERTEX
  5
F09
  8
0
  6
CONTINUOUS
 62
     7
 10
92.721443228533914
 20
57.931394999536501
 30
0.0
  0
VERTEX
  5
F0A
  8
0
  6
CONTINUOUS
 62
     7
 10
92.631130144199119
 20
57.900486179212663
 30
0.0
  0
VERTEX
  5
F0B
  8
0
  6
CONTINUOUS
 62
     7
 10
92.447284671255176
 20
57.846510830929383
 30
0.0
  0
VERTEX
  5
F0C
  8
0
  6
CONTINUOUS
 62
     7
 10
92.260992433373104
 20
57.803533083335871
 30
0.0
  0
VERTEX
  5
F0D
  8
0
  6
CONTINUOUS
 62
     7
 10
92.074615930790259
 20
57.771849005479503
 30
0.0
  0
VERTEX
  5
F0E
  8
0
  6
CONTINUOUS
 62
     7
 10
91.890679509018895
 20
57.75133330742969
 30
0.0
  0
VERTEX
  5
F0F
  8
0
  6
CONTINUOUS
 62
     7
 10
91.71165189739429
 20
57.741414873823878
 30
0.0
  0
VERTEX
  5
F10
  8
0
  6
CONTINUOUS
 62
     7
 10
91.62192212242509
 20
57.740136446615821
 30
0.0
  0
VERTEX
  5
F11
  8
0
  6
CONTINUOUS
 62
     7
 10
91.530365131321986
 20
57.741365374862248
 30
0.0
  0
VERTEX
  5
F12
  8
0
  6
CONTINUOUS
 62
     7
 10
91.343314731670532
 20
57.751841714496749
 30
0.0
  0
VERTEX
  5
F13
  8
0
  6
CONTINUOUS
 62
     7
 10
91.153608011948506
 20
57.773479796355609
 30
0.0
  0
VERTEX
  5
F14
  8
0
  6
CONTINUOUS
 62
     7
 10
90.964269456665548
 20
57.8063432190865
 30
0.0
  0
VERTEX
  5
F15
  8
0
  6
CONTINUOUS
 62
     7
 10
90.778162072193211
 20
57.84994254651491
 30
0.0
  0
VERTEX
  5
F16
  8
0
  6
CONTINUOUS
 62
     7
 10
90.598109505297487
 20
57.903215998869079
 30
0.0
  0
VERTEX
  5
F17
  8
0
  6
CONTINUOUS
 62
     7
 10
90.51121172272299
 20
57.932992379025727
 30
0.0
  0
VERTEX
  5
F18
  8
0
  6
CONTINUOUS
 62
     7
 10
90.426831353012375
 20
57.964535318903131
 30
0.0
  0
VERTEX
  5
F19
  8
0
  6
CONTINUOUS
 62
     7
 10
90.260985120362406
 20
58.034404032943591
 30
0.0
  0
VERTEX
  5
F1A
  8
0
  6
CONTINUOUS
 62
     7
 10
90.092571681838479
 20
58.116692557303992
 30
0.0
  0
VERTEX
  5
F1B
  8
0
  6
CONTINUOUS
 62
     7
 10
90.008582605378095
 20
58.162300713729202
 30
0.0
  0
VERTEX
  5
F1C
  8
0
  6
CONTINUOUS
 62
     7
 10
89.925387047276075
 20
58.210668565548701
 30
0.0
  0
VERTEX
  5
F1D
  8
0
  6
CONTINUOUS
 62
     7
 10
89.763135497169088
 20
58.314794280709947
 30
0.0
  0
VERTEX
  5
F1E
  8
0
  6
CONTINUOUS
 62
     7
 10
89.609065492615414
 20
58.426871898129598
 30
0.0
  0
VERTEX
  5
F1F
  8
0
  6
CONTINUOUS
 62
     7
 10
89.536013946054425
 20
58.485007931579673
 30
0.0
  0
VERTEX
  5
F20
  8
0
  6
CONTINUOUS
 62
     7
 10
89.466048990817185
 20
58.543987543443507
 30
0.0
  0
VERTEX
  5
F21
  8
0
  6
CONTINUOUS
 62
     7
 10
89.333522230749836
 20
58.665456098310962
 30
0.0
  0
VERTEX
  5
F22
  8
0
  6
CONTINUOUS
 62
     7
 10
89.202474332324087
 20
58.799906536634012
 30
0.0
  0
VERTEX
  5
F23
  8
0
  6
CONTINUOUS
 62
     7
 10
89.076243378278932
 20
58.945558622994383
 30
0.0
  0
VERTEX
  5
F24
  8
0
  6
CONTINUOUS
 62
     7
 10
88.958780213264774
 20
59.098614213267751
 30
0.0
  0
VERTEX
  5
F25
  8
0
  6
CONTINUOUS
 62
     7
 10
88.853131342889597
 20
59.254537864105849
 30
0.0
  0
VERTEX
  5
F26
  8
0
  6
CONTINUOUS
 62
     7
 10
88.805445516149902
 20
59.331950517779347
 30
0.0
  0
VERTEX
  5
F27
  8
0
  6
CONTINUOUS
 62
     7
 10
88.760649644490357
 20
59.409473402045279
 30
0.0
  0
VERTEX
  5
F28
  8
0
  6
CONTINUOUS
 62
     7
 10
88.67416206217132
 20
59.575307498022283
 30
0.0
  0
VERTEX
  5
F29
  8
0
  6
CONTINUOUS
 62
     7
 10
88.595222289740406
 20
59.751575237930332
 30
0.0
  0
VERTEX
  5
F2A
  8
0
  6
CONTINUOUS
 62
     7
 10
88.527247490383118
 20
59.932055233960959
 30
0.0
  0
VERTEX
  5
F2B
  8
0
  6
CONTINUOUS
 62
     7
 10
88.47219436707195
 20
60.109907601007961
 30
0.0
  0
VERTEX
  5
F2C
  8
0
  6
CONTINUOUS
 62
     7
 10
88.428697088620765
 20
60.286338255834949
 30
0.0
  0
VERTEX
  5
F2D
  8
0
  6
CONTINUOUS
 62
     7
 10
88.410089201793824
 20
60.379249964943341
 30
0.0
  0
VERTEX
  5
F2E
  8
0
  6
CONTINUOUS
 62
     7
 10
88.39405401489941
 20
60.47429252958193
 30
0.0
  0
VERTEX
  5
F2F
  8
0
  6
CONTINUOUS
 62
     7
 10
88.370704374051684
 20
60.666776349422982
 30
0.0
  0
VERTEX
  5
F30
  8
0
  6
CONTINUOUS
 62
     7
 10
88.359479649057178
 20
60.85567399910056
 30
0.0
  0
VERTEX
  5
F31
  8
0
  6
CONTINUOUS
 62
     7
 10
88.35816644126632
 20
60.946169512017228
 30
0.0
  0
SEQEND
  5
F32
  8
0
  6
CONTINUOUS
 62
     7
  0
POLYLINE
  5
58C
  8
0
  6
CONTINUOUS
 62
     7
 66
     1
 10
0.0
 20
0.0
 30
0.0
  0
VERTEX
  5
F33
  8
0
  6
CONTINUOUS
 62
     7
 10
100.4830759097506
 20
66.156265270623976
 30
0.0
  0
VERTEX
  5
F34
  8
0
  6
CONTINUOUS
 62
     7
 10
100.4433496281176
 20
66.161774682340166
 30
0.0
  0
VERTEX
  5
F35
  8
0
  6
CONTINUOUS
 62
     7
 10
100.36683547031311
 20
66.172524716680385
 30
0.0
  0
VERTEX
  5
F36
  8
0
  6
CONTINUOUS
 62
     7
 10
100.2943638662807
 20
66.182875326061946
 30
0.0
  0
VERTEX
  5
F37
  8
0
  6
CONTINUOUS
 62
     7
 10
100.2596872068916
 20
66.187885994861489
 30
0.0
  0
VERTEX
  5
F38
  8
0
  6
CONTINUOUS
 62
     7
 10
100.226071015485
 20
66.19277931656174
 30
0.0
  0
VERTEX
  5
F39
  8
0
  6
CONTINUOUS
 62
     7
 10
100.162076941842
 20
66.20219228028526
 30
0.0
  0
VERTEX
  5
F3A
  8
0
  6
CONTINUOUS
 62
     7
 10
100.1024770663816
 20
66.21107419454998
 30
0.0
  0
VERTEX
  5
F3B
  8
0
  6
CONTINUOUS
 62
     7
 10
100.04734315849529
 20
66.219389658199773
 30
0.0
  0
VERTEX
  5
F3C
  8
0
  6
CONTINUOUS
 62
     7
 10
99.996754656983015
 20
66.227103416398833
 30
0.0
  0
VERTEX
  5
F3D
  8
0
  6
CONTINUOUS
 62
     7
 10
99.950777112070952
 20
66.234183747528434
 30
0.0
  0
VERTEX
  5
F3E
  8
0
  6
CONTINUOUS
 62
     7
 10
99.929533560655358
 20
66.237477572536136
 30
0.0
  0
VERTEX
  5
F3F
  8
0
  6
CONTINUOUS
 62
     7
 10
99.909459985227954
 20
66.240603016261161
 30
0.0
  0
VERTEX
  5
F40
  8
0
  6
CONTINUOUS
 62
     7
 10
99.872835741895997
 20
66.246338009726145
 30
0.0
  0
VERTEX
  5
F41
  8
0
  6
CONTINUOUS
 62
     7
 10
99.84091928642097
 20
66.251370190232123
 30
0.0
  0
VERTEX
  5
F42
  8
0
  6
CONTINUOUS
 62
     7
 10
99.813707889194404
 20
66.25568583502772
 30
0.0
  0
VERTEX
  5
F43
  8
0
  6
CONTINUOUS
 62
     7
 10
99.791182188249564
 20
66.259275965429538
 30
0.0
  0
VERTEX
  5
F44
  8
0
  6
CONTINUOUS
 62
     7
 10
99.773306109222233
 20
66.262136406372548
 30
0.0
  0
VERTEX
  5
F45
  8
0
  6
CONTINUOUS
 62
     7
 10
99.766095546560962
 20
66.263293051520833
 30
0.0
  0
VERTEX
  5
F46
  8
0
  6
CONTINUOUS
 62
     7
 10
99.760025718601369
 20
66.264267980468816
 30
0.0
  0
VERTEX
  5
F47
  8
0
  6
CONTINUOUS
 62
     7
 10
99.751268403047533
 20
66.265676614758462
 30
0.0
  0
VERTEX
  5
F48
  8
0
  6
CONTINUOUS
 62
     7
 10
99.746942454104939
 20
66.26637334463868
 30
0.0
  0
VERTEX
  5
F49
  8
0
  6
CONTINUOUS
 62
     7
 10
99.746407349888614
 20
66.266459568557025
 30
0.0
  0
SEQEND
  5
F4A
  8
0
  6
CONTINUOUS
 62
     7
  0
POLYLINE
  5
58D
  8
0
  6
CONTINUOUS
 62
     7
 66
     1
 10
0.0
 20
0.0
 30
0.0
  0
VERTEX
  5
F4B
  8
0
  6
CONTINUOUS
 62
     7
 10
99.746407349888614
 20
66.266459568557025
 30
0.0
  0
VERTEX
  5
F4C
  8
0
  6
CONTINUOUS
 62
     7
 10
99.746942454104939
 20
66.26637334463868
 30
0.0
  0
VERTEX
  5
F4D
  8
0
  6
CONTINUOUS
 62
     7
 10
99.751268403047533
 20
66.265676614758462
 30
0.0
  0
VERTEX
  5
F4E
  8
0
  6
CONTINUOUS
 62
     7
 10
99.760025718601369
 20
66.264267980468816
 30
0.0
  0
VERTEX
  5
F4F
  8
0
  6
CONTINUOUS
 62
     7
 10
99.766095546560962
 20
66.263293051520833
 30
0.0
  0
VERTEX
  5
F50
  8
0
  6
CONTINUOUS
 62
     7
 10
99.773306109222233
 20
66.262136406372548
 30
0.0
  0
VERTEX
  5
F51
  8
0
  6
CONTINUOUS
 62
     7
 10
99.791182188249564
 20
66.259275965429538
 30
0.0
  0
VERTEX
  5
F52
  8
0
  6
CONTINUOUS
 62
     7
 10
99.813707889194404
 20
66.25568583502772
 30
0.0
  0
VERTEX
  5
F53
  8
0
  6
CONTINUOUS
 62
     7
 10
99.84091928642097
 20
66.251370190232123
 30
0.0
  0
VERTEX
  5
F54
  8
0
  6
CONTINUOUS
 62
     7
 10
99.872835741895983
 20
66.246338009726145
 30
0.0
  0
VERTEX
  5
F55
  8
0
  6
CONTINUOUS
 62
     7
 10
99.909459985227926
 20
66.240603016261161
 30
0.0
  0
VERTEX
  5
F56
  8
0
  6
CONTINUOUS
 62
     7
 10
99.929533560655344
 20
66.237477572536136
 30
0.0
  0
VERTEX
  5
F57
  8
0
  6
CONTINUOUS
 62
     7
 10
99.950777112070924
 20
66.234183747528434
 30
0.0
  0
VERTEX
  5
F58
  8
0
  6
CONTINUOUS
 62
     7
 10
99.996754656983015
 20
66.227103416398833
 30
0.0
  0
VERTEX
  5
F59
  8
0
  6
CONTINUOUS
 62
     7
 10
100.04734315849529
 20
66.219389658199773
 30
0.0
  0
VERTEX
  5
F5A
  8
0
  6
CONTINUOUS
 62
     7
 10
100.1024770663816
 20
66.21107419454998
 30
0.0
  0
VERTEX
  5
F5B
  8
0
  6
CONTINUOUS
 62
     7
 10
100.162076941842
 20
66.20219228028526
 30
0.0
  0
VERTEX
  5
F5C
  8
0
  6
CONTINUOUS
 62
     7
 10
100.226071015485
 20
66.19277931656174
 30
0.0
  0
VERTEX
  5
F5D
  8
0
  6
CONTINUOUS
 62
     7
 10
100.2596872068916
 20
66.187885994861489
 30
0.0
  0
VERTEX
  5
F5E
  8
0
  6
CONTINUOUS
 62
     7
 10
100.29436386628061
 20
66.182875326061946
 30
0.0
  0
VERTEX
  5
F5F
  8
0
  6
CONTINUOUS
 62
     7
 10
100.36683547031301
 20
66.172524716680385
 30
0.0
  0
VERTEX
  5
F60
  8
0
  6
CONTINUOUS
 62
     7
 10
100.4433496281176
 20
66.161774682340166
 30
0.0
  0
VERTEX
  5
F61
  8
0
  6
CONTINUOUS
 62
     7
 10
100.4830759097506
 20
66.156265270623976
 30
0.0
  0
SEQEND
  5
F62
  8
0
  6
CONTINUOUS
 62
     7
  0
LINE
  5
595
  8
2
 10
108.9964073498886
 20
46.846169512017241
 30
0.0
 11
108.9964073498886
 21
59.846169512017241
 31
0.0
  0
LINE
  5
596
  8
2
 10
108.3199073498886
 20
60.596169512017241
 30
0.0
 11
108.9964073498886
 21
59.846169512017241
 31
0.0
  0
LINE
  5
597
  8
2
 10
108.9964073498886
 20
59.846169512017241
 30
0.0
 11
100.9964073498886
 21
59.846169512017241
 31
0.0
  0
LINE
  5
598
  8
2
 10
100.9964073498886
 20
46.846169512017241
 30
0.0
 11
100.9964073498886
 21
59.846169512017241
 31
0.0
  0
LINE
  5
599
  8
2
 10
101.6729073498886
 20
60.596169512017241
 30
0.0
 11
100.9964073498886
 21
59.846169512017241
 31
0.0
  0
LINE
  5
59A
  8
1
 10
104.9964073498886
 20
44.444516080286569
 30
0.0
 11
104.9964073498886
 21
70.526940685628674
 31
0.0
  0
TEXT
  5
68F
  8
0
 62
     3
 10
0.0
 20
0.0
 30
0.0
 40
10.0
  1
CWN40A
  7
STANDARD1
  0
ENDSEC
  0
EOF
