  0
SECTION
  2
HEADER
  9
$ACADVER
  1
AC1009
  9
$INSBASE
 10
0.0
 20
0.0
 30
0.0
  9
$EXTMIN
 10
0.0
 20
-2.960436562073669
 30
0.0
  9
$EXTMAX
 10
116.5708685928813
 20
119.049706912818
 30
0.0
  9
$LIMMIN
 10
0.0
 20
0.0
  9
$LIMMAX
 10
187.5
 20
135.0
  9
$ORTHOMODE
 70
     1
  9
$REGENMODE
 70
     1
  9
$FILLMODE
 70
     1
  9
$QTEXTMODE
 70
     0
  9
$MIRRTEXT
 70
     0
  9
$DRAGMODE
 70
     2
  9
$LTSCALE
 40
5.0
  9
$OSMODE
 70
  3071
  9
$ATTMODE
 70
     1
  9
$TEXTSIZE
 40
4.000000000000048
  9
$TRACEWID
 40
0.05
  9
$TEXTSTYLE
  7
STANDARD
  9
$CLAYER
  8
0
  9
$CELTYPE
  6
BYLAYER
  9
$CECOLOR
 62
   256
  9
$DIMSCALE
 40
0.5
  9
$DIMASZ
 40
3.0
  9
$DIMEXO
 40
2.0
  9
$DIMDLI
 40
0.38
  9
$DIMRND
 40
0.0
  9
$DIMDLE
 40
0.0
  9
$DIMEXE
 40
2.0
  9
$DIMTP
 40
0.0
  9
$DIMTM
 40
0.0
  9
$DIMTXT
 40
3.2000000000000002
  9
$DIMCEN
 40
0.0
  9
$DIMTSZ
 40
0.0
  9
$DIMTOL
 70
     0
  9
$DIMLIM
 70
     0
  9
$DIMTIH
 70
     0
  9
$DIMTOH
 70
     0
  9
$DIMSE1
 70
     0
  9
$DIMSE2
 70
     0
  9
$DIMTAD
 70
     1
  9
$DIMZIN
 70
     0
  9
$DIMBLK
  1

  9
$DIMASO
 70
     1
  9
$DIMSHO
 70
     0
  9
$DIMPOST
  1

  9
$DIMAPOST
  1

  9
$DIMALT
 70
     0
  9
$DIMALTD
 70
     2
  9
$DIMALTF
 40
25.399999999999999
  9
$DIMLFAC
 40
1.0
  9
$DIMTOFL
 70
     1
  9
$DIMTVP
 40
1.6000000000000001
  9
$DIMTIX
 70
     1
  9
$DIMSOXD
 70
     0
  9
$DIMSAH
 70
     0
  9
$DIMBLK1
  1

  9
$DIMBLK2
  1

  9
$DIMSTYLE
  2
STANDARD
  9
$DIMCLRD
 70
     0
  9
$DIMCLRE
 70
     0
  9
$DIMCLRT
 70
     0
  9
$DIMTFAC
 40
1.0
  9
$DIMGAP
 40
0.09
  9
$LUNITS
 70
     2
  9
$LUPREC
 70
     4
  9
$SKETCHINC
 40
0.1
  9
$FILLETRAD
 40
1.0
  9
$AUNITS
 70
     1
  9
$AUPREC
 70
     4
  9
$MENU
  1
E:\r13\win\SUPPORT\ACAD
  9
$ELEVATION
 40
0.0
  9
$PELEVATION
 40
0.0
  9
$THICKNESS
 40
0.0
  9
$LIMCHECK
 70
     0
  9
$BLIPMODE
 70
     0
  9
$CHAMFERA
 40
2.0
  9
$CHAMFERB
 40
2.0
  9
$SKPOLY
 70
     0
  9
$TDCREATE
 40
2449839.7904861118
  9
$TDUPDATE
 40
2456598.504831343
  9
$TDINDWG
 40
0.4267890856
  9
$TDUSRTIMER
 40
0.4267890856
  9
$USRTIMER
 70
     1
  9
$ANGBASE
 50
0.0
  9
$ANGDIR
 70
     0
  9
$PDMODE
 70
     0
  9
$PDSIZE
 40
0.0
  9
$PLINEWID
 40
0.0
  9
$COORDS
 70
     1
  9
$SPLFRAME
 70
     0
  9
$SPLINETYPE
 70
     6
  9
$SPLINESEGS
 70
     8
  9
$ATTDIA
 70
     0
  9
$ATTREQ
 70
     1
  9
$HANDLING
 70
     1
  9
$HANDSEED
  5
2E49
  9
$SURFTAB1
 70
     6
  9
$SURFTAB2
 70
     6
  9
$SURFTYPE
 70
     6
  9
$SURFU
 70
     6
  9
$SURFV
 70
     6
  9
$UCSNAME
  2

  9
$UCSORG
 10
0.0
 20
0.0
 30
0.0
  9
$UCSXDIR
 10
1.0
 20
0.0
 30
0.0
  9
$UCSYDIR
 10
0.0
 20
1.0
 30
0.0
  9
$PUCSNAME
  2

  9
$PUCSORG
 10
0.0
 20
0.0
 30
0.0
  9
$PUCSXDIR
 10
1.0
 20
0.0
 30
0.0
  9
$PUCSYDIR
 10
0.0
 20
1.0
 30
0.0
  9
$USERI1
 70
     0
  9
$USERI2
 70
     1
  9
$USERI3
 70
     1
  9
$USERI4
 70
     0
  9
$USERI5
 70
     0
  9
$USERR1
 40
0.0
  9
$USERR2
 40
0.0
  9
$USERR3
 40
0.0
  9
$USERR4
 40
0.0
  9
$USERR5
 40
0.0
  9
$WORLDVIEW
 70
     1
  9
$SHADEDGE
 70
     3
  9
$SHADEDIF
 70
    70
  9
$TILEMODE
 70
     1
  9
$MAXACTVP
 70
    16
  9
$PLIMCHECK
 70
     0
  9
$PEXTMIN
 10
1.0000000000000000E+020
 20
1.0000000000000000E+020
 30
1.0000000000000000E+020
  9
$PEXTMAX
 10
-1.0000000000000000E+020
 20
-1.0000000000000000E+020
 30
-1.0000000000000000E+020
  9
$PLIMMIN
 10
0.0
 20
0.0
  9
$PLIMMAX
 10
12.0
 20
9.0
  9
$UNITMODE
 70
     0
  9
$VISRETAIN
 70
     0
  9
$PLINEGEN
 70
     0
  9
$PSLTSCALE
 70
     0
  0
ENDSEC
  0
SECTION
  2
TABLES
  0
TABLE
  2
VPORT
 70
     1
  0
VPORT
  2
*ACTIVE
 70
     0
 10
0.0
 20
0.0
 11
1.0
 21
1.0
 12
97.570150770051072
 22
66.014785922033241
 13
0.0
 23
0.0
 14
5.0
 24
5.0
 15
5.0
 25
5.0
 16
0.0
 26
0.0
 36
1.0
 17
0.0
 27
0.0
 37
0.0
 40
139.20783109903601
 41
1.831871345029239
 42
50.0
 43
0.0
 44
0.0
 50
0.0
 51
0.0
 71
     0
 72
   500
 73
     1
 74
     0
 75
     0
 76
     0
 77
     0
 78
     2
  0
ENDTAB
  0
TABLE
  2
LTYPE
 70
     4
  0
LTYPE
  2
CONTINUOUS
 70
     0
  3
Solid Line
 72
    65
 73
     0
 40
0.0
  0
LTYPE
  2
CENTER
 70
     0
  3
____ _ ____ _ ____ _ ____ _ ____ _ ____ _ ____
 72
    65
 73
     4
 40
2.0
 49
1.25
 49
-0.25
 49
0.25
 49
-0.25
  0
LTYPE
  2
GESTRICHELT
 70
     0
  3

 72
    65
 73
     2
 40
2.0
 49
1.0
 49
-1.0
  0
LTYPE
  2
PHANTOM2
 70
     0
  3
___ _ _ ___ _ _ ___ _ _ ___ _ _
 72
    65
 73
     6
 40
1.25
 49
0.625
 49
-0.125
 49
0.125
 49
-0.125
 49
0.125
 49
-0.125
  0
ENDTAB
  0
TABLE
  2
LAYER
 70
     4
  0
LAYER
  2
0
 70
     0
 62
     7
  6
CONTINUOUS
  0
LAYER
  2
1
 70
     0
 62
     1
  6
CENTER
  0
LAYER
  2
DEFPOINTS
 70
     0
 62
     7
  6
CONTINUOUS
  0
LAYER
  2
3
 70
     0
 62
     3
  6
CONTINUOUS
  0
ENDTAB
  0
TABLE
  2
STYLE
 70
     2
  0
STYLE
  2
STANDARD
 70
     0
 40
0.0
 41
1.0
 50
0.0
 71
     0
 42
4.000000000000048
  3
TXT
  4
BIGFONT
  0
STYLE
  2
STANDARD1
 70
     0
 40
0.0
 41
1.0
 50
0.0
 71
     0
 42
3.0
  3
txt
  4

  0
ENDTAB
  0
TABLE
  2
VIEW
 70
     1
  0
VIEW
  2
ALL
 70
     0
 40
135.0
 10
110.4957983193277
 20
67.5
 41
0.0
 11
0.0
 21
0.0
 31
1.0
 12
0.0
 22
0.0
 32
0.0
 42
0.0
 43
0.0
 44
0.0
 50
0.0
 71
     0
  0
ENDTAB
  0
TABLE
  2
UCS
 70
     0
  0
ENDTAB
  0
TABLE
  2
APPID
 70
     3
  0
APPID
  2
ACAD
 70
     0
  0
APPID
  2
ACAD_MLEADERVER
 70
     0
  0
APPID
  2
ACAD_NAV_VCDISPLAY
 70
     0
  0
ENDTAB
  0
TABLE
  2
DIMSTYLE
 70
     1
  0
DIMSTYLE
  2
STANDARD
 70
     0
  3

  4

  5

  6

  7

 40
1.0
 41
0.18
 42
0.0625
 43
0.38
 44
0.18
 45
0.0
 46
0.0
 47
0.0
 48
0.0
140
0.18
141
0.09
142
0.0
143
25.399999999999999
144
1.0
145
0.0
146
1.0
147
0.09
 71
     0
 72
     0
 73
     1
 74
     1
 75
     0
 76
     0
 77
     0
 78
     0
170
     0
171
     2
172
     0
173
     0
174
     0
175
     0
176
     0
177
     0
178
     0
  0
ENDTAB
  0
ENDSEC
  0
SECTION
  2
BLOCKS
  0
BLOCK
  8
0
  2
$MODEL_SPACE
 70
     0
 10
0.0
 20
0.0
 30
0.0
  3
$MODEL_SPACE
  1

  0
ENDBLK
  5
13F
  8
0
  0
BLOCK
 67
     1
  8
0
  2
$PAPER_SPACE
 70
     0
 10
0.0
 20
0.0
 30
0.0
  3
$PAPER_SPACE
  1

  0
ENDBLK
  5
13D
 67
     1
  8
0
  0
ENDSEC
  0
SECTION
  2
ENTITIES
  0
LINE
  5
1C87
  8
0
  6
CONTINUOUS
 62
     7
 10
39.286364179416182
 20
58.223643598521797
 30
0.0
 11
39.286364179416182
 21
58.423643598521799
 31
0.0
  0
LINE
  5
1C8B
  8
0
  6
CONTINUOUS
 62
     7
 10
40.286364179416182
 20
58.423643598521799
 30
0.0
 11
40.286364179416182
 21
77.223643598521804
 31
0.0
  0
ARC
  5
1C90
  8
0
  6
CONTINUOUS
 62
     7
 10
47.386364179415892
 20
72.323643598521784
 30
0.0
 40
16.999999999999719
 50
173.07024279122419
 51
186.5210797885191
  0
ARC
  5
1C91
  8
0
  6
CONTINUOUS
 62
     7
 10
19.686364179414849
 20
72.323643598521898
 30
0.0
 40
17.000000000001322
 50
353.47892021148141
 51
6.9265710220101431
  0
ARC
  5
1C94
  8
0
  6
CONTINUOUS
 62
     7
 10
33.536364179415983
 20
70.223643598521448
 30
0.0
 40
9.0000000000003997
 50
54.314665287347658
 51
71.843280775906081
  0
ARC
  5
1C96
  8
0
  6
CONTINUOUS
 62
     7
 10
33.536364179416182
 20
70.223643598521846
 30
0.0
 40
8.9999999999999556
 50
108.15671922409371
 51
125.68533471265231
  0
LINE
  5
1C98
  8
0
  6
CONTINUOUS
 62
     7
 10
38.786364179416182
 20
77.497491021265546
 30
0.0
 11
38.786364179416182
 21
77.533739357128525
 31
0.0
  0
LINE
  5
1C99
  8
0
  6
CONTINUOUS
 62
     7
 10
28.286364179416179
 20
77.533739357128525
 30
0.0
 11
28.286364179416179
 21
77.497491021265461
 31
0.0
  0
LINE
  5
1C9B
  8
0
  6
CONTINUOUS
 62
     7
 10
29.536364179416179
 20
42.9906435985218
 30
0.0
 11
30.303364179416182
 21
42.223643598521797
 31
0.0
  0
LINE
  5
1C9C
  8
0
  6
CONTINUOUS
 62
     7
 10
36.769364179416193
 20
42.223643598521797
 30
0.0
 11
37.536364179416182
 21
42.9906435985218
 31
0.0
  0
LINE
  5
1C9D
  8
0
  6
CONTINUOUS
 62
     7
 10
29.536364179416179
 20
58.223643598521797
 30
0.0
 11
29.536364179416179
 21
42.9906435985218
 31
0.0
  0
LINE
  5
1C9E
  8
0
  6
CONTINUOUS
 62
     7
 10
37.536364179416182
 20
42.9906435985218
 30
0.0
 11
37.536364179416182
 21
58.223643598521797
 31
0.0
  0
LINE
  5
1C9F
  8
0
  6
CONTINUOUS
 62
     7
 10
39.286364179416182
 20
58.223643598521797
 30
0.0
 11
27.786364179416179
 21
58.223643598521797
 31
0.0
  0
LINE
  5
1CA1
  8
0
  6
CONTINUOUS
 62
     7
 10
36.107258690031159
 20
79.223643598521804
 30
0.0
 11
30.965469668801209
 21
79.223643598521804
 31
0.0
  0
LINE
  5
1CA2
  8
0
  6
CONTINUOUS
 62
     7
 10
36.306514318431823
 20
65.946348744997664
 30
0.0
 11
30.766214040400541
 21
65.946348744997664
 31
0.0
  0
LINE
  5
1CA5
  8
0
  6
CONTINUOUS
 62
     7
 10
37.813481426108581
 20
63.223643598521797
 30
0.0
 11
29.259246829391369
 21
63.223643598521797
 31
0.0
  0
LINE
  5
1CAA
  8
0
  6
CONTINUOUS
 62
     7
 10
40.286364179416182
 20
58.423643598521799
 30
0.0
 11
26.786364179416179
 21
58.423643598521799
 31
0.0
  0
LINE
  5
1CAE
  8
0
  6
CONTINUOUS
 62
     7
 10
37.813481426108581
 20
77.639426070062513
 30
0.0
 11
37.813481426108581
 21
63.223643598521797
 31
0.0
  0
LINE
  5
1CCE
  8
0
  6
CONTINUOUS
 62
     7
 10
29.259246829391369
 20
77.639426056498735
 30
0.0
 11
29.259246829391369
 21
63.223643598521797
 31
0.0
  0
LINE
  5
1CEC
  8
0
  6
CONTINUOUS
 62
     7
 10
38.786364179416182
 20
77.533739357128525
 30
0.0
 11
38.558235215437612
 21
77.533739357128525
 31
0.0
  0
LINE
  5
1CEF
  8
0
  6
CONTINUOUS
 62
     7
 10
28.514493143394191
 20
77.533739357128525
 30
0.0
 11
28.286364179416179
 21
77.533739357128525
 31
0.0
  0
LINE
  5
1CF3
  8
0
  6
CONTINUOUS
 62
     7
 10
36.769364179416193
 20
42.223643598521797
 30
0.0
 11
30.303364179416182
 21
42.223643598521797
 31
0.0
  0
LINE
  5
1CF4
  8
0
  6
CONTINUOUS
 62
     7
 10
37.536364179416182
 20
42.9906435985218
 30
0.0
 11
29.536364179416179
 21
42.9906435985218
 31
0.0
  0
LINE
  5
1CF5
  8
3
 10
30.303364179416182
 20
42.223643598521797
 30
0.0
 11
30.303364179416182
 21
56.923643598521807
 31
0.0
  0
LINE
  5
1CF6
  8
3
 10
29.536364179416179
 20
58.223643598521797
 30
0.0
 11
30.303364179416182
 21
56.923643598521807
 31
0.0
  0
LINE
  5
1CF7
  8
0
  6
CONTINUOUS
 62
     7
 10
29.536364179416179
 20
56.923643598521807
 30
0.0
 11
37.536364179416182
 21
56.923643598521807
 31
0.0
  0
LINE
  5
1CF8
  8
3
 10
36.769364179416193
 20
42.223643598521797
 30
0.0
 11
36.769364179416193
 21
56.923643598521807
 31
0.0
  0
LINE
  5
1CF9
  8
3
 10
37.536364179416182
 20
58.223643598521797
 30
0.0
 11
36.769364179416193
 21
56.923643598521807
 31
0.0
  0
LINE
  5
1CFA
  8
1
 10
33.536364179416182
 20
41.407434342938402
 30
0.0
 11
33.536364179416182
 21
80.039852854105206
 31
0.0
  0
ARC
  5
1D0E
  8
0
  6
CONTINUOUS
 62
     7
 10
94.626490735825655
 20
110.2180652212994
 30
0.0
 40
19.999999999999901
 50
172.14880965889509
 51
187.8511903411048
  0
ARC
  5
1D0F
  8
0
  6
CONTINUOUS
 62
     7
 10
94.626490735825911
 20
110.2180652212994
 30
0.0
 40
19.99999999999984
 50
352.14880965889517
 51
7.8511903411048287
  0
ARC
  5
1D10
  8
0
  6
CONTINUOUS
 62
     7
 10
110.22649073582571
 20
96.368065221299574
 30
0.0
 40
16.999999999999879
 50
83.039325939055246
 51
107.96067406094591
  0
ARC
  5
1D11
  8
0
  6
CONTINUOUS
 62
     7
 10
110.22649073582571
 20
124.0680652212997
 30
0.0
 40
17.000000000000242
 50
252.03932593905401
 51
276.96067406094551
  0
ARC
  5
1D12
  8
0
  6
CONTINUOUS
 62
     7
 10
79.026490735825803
 20
96.368065221299574
 30
0.0
 40
16.999999999999901
 50
72.03932593905482
 51
96.960674060945564
  0
ARC
  5
1D13
  8
0
  6
CONTINUOUS
 62
     7
 10
79.026490735825803
 20
124.06806522129941
 30
0.0
 40
16.999999999999961
 50
263.03932593905517
 51
287.96067406094522
  0
LINE
  5
1D26
  8
0
  6
CONTINUOUS
 62
     7
 10
107.1164867326226
 20
107.69119635872759
 30
0.0
 11
107.5737105692606
 21
107.64717071068451
 31
0.0
  0
LINE
  5
1D2F
  8
0
  6
CONTINUOUS
 62
     7
 10
107.5737105692606
 20
112.7889597319144
 30
0.0
 11
107.1164867326226
 21
112.7449340838713
 31
0.0
  0
LINE
  5
1D3A
  8
0
  6
CONTINUOUS
 62
     7
 10
82.13649473902899
 20
112.7449340838713
 30
0.0
 11
81.679270902390869
 21
112.7889597319144
 31
0.0
  0
LINE
  5
1D3D
  8
0
  6
CONTINUOUS
 62
     7
 10
81.679270902390869
 20
107.64717071068451
 30
0.0
 11
82.13649473902899
 21
107.69119635872759
 31
0.0
  0
ARC
  5
1D50
  8
0
  6
CONTINUOUS
 62
     7
 10
94.626490735825755
 20
110.2180652212994
 30
0.0
 40
5.2499999999999991
 50
210.7190833148685
 51
329.28091668513332
  0
ARC
  5
1D52
  8
0
  6
CONTINUOUS
 62
     7
 10
94.626490735825755
 20
110.2180652212994
 30
0.0
 40
5.2499999999999991
 50
30.719083314866651
 51
149.28091668513369
  0
LINE
  5
1D56
  8
1
 10
94.626490735825755
 20
100.8042204672913
 30
0.0
 11
94.626490735825755
 21
119.049706912818
 31
0.0
  0
LINE
  5
1D57
  8
1
 10
116.5708685928813
 20
110.2180652212994
 30
0.0
 11
72.571625892466159
 21
110.2180652212994
 31
0.0
  0
LINE
  5
1D6D
  8
0
  6
CONTINUOUS
 62
     7
 10
88.87649073582574
 20
58.423643598521799
 30
0.0
 11
88.87649073582574
 21
58.223643598521797
 31
0.0
  0
LINE
  5
1D6E
  8
0
  6
CONTINUOUS
 62
     7
 10
100.3764907358257
 20
58.223643598521797
 30
0.0
 11
100.3764907358257
 21
58.423643598521799
 31
0.0
  0
ARC
  5
1D6F
  8
0
  6
CONTINUOUS
 62
     7
 10
81.426490735825723
 20
72.423643598521807
 30
0.0
 40
6.7999999999999998
 50
90.0
 51
252.27775344412311
  0
ARC
  5
1D70
  8
0
  6
CONTINUOUS
 62
     7
 10
107.8264907358257
 20
72.423643598521807
 30
0.0
 40
6.8000000000000016
 50
287.7222465558761
 51
90.0
  0
LINE
  5
1D71
  8
0
  6
CONTINUOUS
 62
     7
 10
79.356550789713822
 20
65.946348744997664
 30
0.0
 11
87.87649073582574
 21
63.223643598521797
 31
0.0
  0
LINE
  5
1D72
  8
0
  6
CONTINUOUS
 62
     7
 10
101.3764907358257
 20
63.223643598521797
 30
0.0
 11
109.8964306819377
 21
65.946348744997664
 31
0.0
  0
LINE
  5
1D73
  8
0
  6
CONTINUOUS
 62
     7
 10
87.87649073582574
 20
63.223643598521797
 30
0.0
 11
87.87649073582574
 21
58.423643598521799
 31
0.0
  0
LINE
  5
1D74
  8
0
  6
CONTINUOUS
 62
     7
 10
101.3764907358257
 20
58.423643598521799
 30
0.0
 11
101.3764907358257
 21
63.223643598521797
 31
0.0
  0
ARC
  5
1D78
  8
0
  6
CONTINUOUS
 62
     7
 10
94.626490735825726
 20
70.223643598521846
 30
0.0
 40
8.9999999999999662
 50
55.307878969974112
 51
124.6921210300263
  0
LINE
  5
1D7A
  8
0
  6
CONTINUOUS
 62
     7
 10
90.626490735825755
 20
42.9906435985218
 30
0.0
 11
91.393490735825736
 21
42.223643598521797
 31
0.0
  0
LINE
  5
1D7B
  8
0
  6
CONTINUOUS
 62
     7
 10
97.859490735825744
 20
42.223643598521797
 30
0.0
 11
98.62649073582574
 21
42.9906435985218
 31
0.0
  0
LINE
  5
1D7C
  8
0
  6
CONTINUOUS
 62
     7
 10
90.626490735825755
 20
58.223643598521797
 30
0.0
 11
90.626490735825755
 21
42.9906435985218
 31
0.0
  0
LINE
  5
1D7D
  8
0
  6
CONTINUOUS
 62
     7
 10
98.62649073582574
 20
42.9906435985218
 30
0.0
 11
98.62649073582574
 21
58.223643598521797
 31
0.0
  0
LINE
  5
1D7E
  8
0
  6
CONTINUOUS
 62
     7
 10
100.3764907358257
 20
58.223643598521797
 30
0.0
 11
88.87649073582574
 21
58.223643598521797
 31
0.0
  0
LINE
  5
1D7F
  8
0
  6
CONTINUOUS
 62
     7
 10
82.136494739028947
 20
79.223643598521804
 30
0.0
 11
81.426490735825752
 21
79.223643598521804
 31
0.0
  0
LINE
  5
1D80
  8
0
  6
CONTINUOUS
 62
     7
 10
107.8264907358257
 20
79.223643598521804
 30
0.0
 11
107.1164867326226
 21
79.223643598521804
 31
0.0
  0
LINE
  5
1D87
  8
0
  6
CONTINUOUS
 62
     7
 10
101.3764907358257
 20
58.423643598521799
 30
0.0
 11
87.87649073582574
 21
58.423643598521799
 31
0.0
  0
POLYLINE
  5
1DAE
  8
0
  6
CONTINUOUS
 62
     7
 10
108.63549402177129
 20
75.99172451256122
 30
0.0
 66
     1
 70
     8
  0
VERTEX
  8
0
  5
2D45
 10
108.635
 20
75.9917
 30
0.000000
  70
    32
  0
VERTEX
  8
0
  5
2D46
 10
108.456
 20
75.9873
 30
0.000000
  70
    32
  0
VERTEX
  8
0
  5
2D47
 10
108.278
 20
75.9741
 30
0.000000
  70
    32
  0
VERTEX
  8
0
  5
2D48
 10
108.100
 20
75.9520
 30
0.000000
  70
    32
  0
VERTEX
  8
0
  5
2D49
 10
107.923
 20
75.9212
 30
0.000000
  70
    32
  0
VERTEX
  8
0
  5
2D4A
 10
107.748
 20
75.8818
 30
0.000000
  70
    32
  0
VERTEX
  8
0
  5
2D4B
 10
107.576
 20
75.8338
 30
0.000000
  70
    32
  0
VERTEX
  8
0
  5
2D4C
 10
107.405
 20
75.7773
 30
0.000000
  70
    32
  0
VERTEX
  8
0
  5
2D4D
 10
107.238
 20
75.7125
 30
0.000000
  70
    32
  0
VERTEX
  8
0
  5
2D4E
 10
107.074
 20
75.6395
 30
0.000000
  70
    32
  0
VERTEX
  8
0
  5
2D4F
 10
106.914
 20
75.5586
 30
0.000000
  70
    32
  0
VERTEX
  8
0
  5
2D50
 10
106.758
 20
75.4699
 30
0.000000
  70
    32
  0
VERTEX
  8
0
  5
2D51
 10
106.607
 20
75.3735
 30
0.000000
  70
    32
  0
VERTEX
  8
0
  5
2D52
 10
106.460
 20
75.2699
 30
0.000000
  70
    32
  0
VERTEX
  8
0
  5
2D53
 10
106.319
 20
75.1591
 30
0.000000
  70
    32
  0
VERTEX
  8
0
  5
2D54
 10
106.184
 20
75.0415
 30
0.000000
  70
    32
  0
VERTEX
  8
0
  5
2D55
 10
106.054
 20
74.9174
 30
0.000000
  70
    32
  0
VERTEX
  8
0
  5
2D56
 10
105.930
 20
74.7870
 30
0.000000
  70
    32
  0
VERTEX
  8
0
  5
2D57
 10
105.813
 20
74.6506
 30
0.000000
  70
    32
  0
VERTEX
  8
0
  5
2D58
 10
105.703
 20
74.5087
 30
0.000000
  70
    32
  0
VERTEX
  8
0
  5
2D59
 10
105.600
 20
74.3615
 30
0.000000
  70
    32
  0
VERTEX
  8
0
  5
2D5A
 10
105.504
 20
74.2094
 30
0.000000
  70
    32
  0
VERTEX
  8
0
  5
2D5B
 10
105.415
 20
74.0528
 30
0.000000
  70
    32
  0
VERTEX
  8
0
  5
2D5C
 10
105.335
 20
73.8920
 30
0.000000
  70
    32
  0
VERTEX
  8
0
  5
2D5D
 10
105.262
 20
73.7274
 30
0.000000
  70
    32
  0
VERTEX
  8
0
  5
2D5E
 10
105.198
 20
73.5594
 30
0.000000
  70
    32
  0
VERTEX
  8
0
  5
2D5F
 10
105.142
 20
73.3884
 30
0.000000
  70
    32
  0
VERTEX
  8
0
  5
2D60
 10
105.094
 20
73.2149
 30
0.000000
  70
    32
  0
VERTEX
  8
0
  5
2D61
 10
105.054
 20
73.0393
 30
0.000000
  70
    32
  0
VERTEX
  8
0
  5
2D62
 10
105.024
 20
72.8619
 30
0.000000
  70
    32
  0
VERTEX
  8
0
  5
2D63
 10
105.002
 20
72.6832
 30
0.000000
  70
    32
  0
VERTEX
  8
0
  5
2D64
 10
104.989
 20
72.5036
 30
0.000000
  70
    32
  0
VERTEX
  8
0
  5
2D65
 10
104.984
 20
72.3236
 30
0.000000
  70
    32
  0
VERTEX
  8
0
  5
2D66
 10
104.989
 20
72.1437
 30
0.000000
  70
    32
  0
VERTEX
  8
0
  5
2D67
 10
105.002
 20
71.9641
 30
0.000000
  70
    32
  0
VERTEX
  8
0
  5
2D68
 10
105.024
 20
71.7854
 30
0.000000
  70
    32
  0
VERTEX
  8
0
  5
2D69
 10
105.054
 20
71.6080
 30
0.000000
  70
    32
  0
VERTEX
  8
0
  5
2D6A
 10
105.094
 20
71.4324
 30
0.000000
  70
    32
  0
VERTEX
  8
0
  5
2D6B
 10
105.142
 20
71.2589
 30
0.000000
  70
    32
  0
VERTEX
  8
0
  5
2D6C
 10
105.198
 20
71.0879
 30
0.000000
  70
    32
  0
VERTEX
  8
0
  5
2D6D
 10
105.262
 20
70.9199
 30
0.000000
  70
    32
  0
VERTEX
  8
0
  5
2D6E
 10
105.335
 20
70.7553
 30
0.000000
  70
    32
  0
VERTEX
  8
0
  5
2D6F
 10
105.415
 20
70.5945
 30
0.000000
  70
    32
  0
VERTEX
  8
0
  5
2D70
 10
105.504
 20
70.4379
 30
0.000000
  70
    32
  0
VERTEX
  8
0
  5
2D71
 10
105.600
 20
70.2858
 30
0.000000
  70
    32
  0
VERTEX
  8
0
  5
2D72
 10
105.703
 20
70.1386
 30
0.000000
  70
    32
  0
VERTEX
  8
0
  5
2D73
 10
105.813
 20
69.9966
 30
0.000000
  70
    32
  0
VERTEX
  8
0
  5
2D74
 10
105.930
 20
69.8603
 30
0.000000
  70
    32
  0
VERTEX
  8
0
  5
2D75
 10
106.054
 20
69.7299
 30
0.000000
  70
    32
  0
VERTEX
  8
0
  5
2D76
 10
106.184
 20
69.6058
 30
0.000000
  70
    32
  0
VERTEX
  8
0
  5
2D77
 10
106.319
 20
69.4882
 30
0.000000
  70
    32
  0
VERTEX
  8
0
  5
2D78
 10
106.460
 20
69.3774
 30
0.000000
  70
    32
  0
VERTEX
  8
0
  5
2D79
 10
106.607
 20
69.2737
 30
0.000000
  70
    32
  0
VERTEX
  8
0
  5
2D7A
 10
106.758
 20
69.1774
 30
0.000000
  70
    32
  0
VERTEX
  8
0
  5
2D7B
 10
106.914
 20
69.0887
 30
0.000000
  70
    32
  0
VERTEX
  8
0
  5
2D7C
 10
107.074
 20
69.0077
 30
0.000000
  70
    32
  0
VERTEX
  8
0
  5
2D7D
 10
107.238
 20
68.9348
 30
0.000000
  70
    32
  0
VERTEX
  8
0
  5
2D7E
 10
107.405
 20
68.8700
 30
0.000000
  70
    32
  0
VERTEX
  8
0
  5
2D7F
 10
107.576
 20
68.8135
 30
0.000000
  70
    32
  0
VERTEX
  8
0
  5
2D80
 10
107.748
 20
68.7655
 30
0.000000
  70
    32
  0
VERTEX
  8
0
  5
2D81
 10
107.923
 20
68.7260
 30
0.000000
  70
    32
  0
VERTEX
  8
0
  5
2D82
 10
108.100
 20
68.6953
 30
0.000000
  70
    32
  0
VERTEX
  8
0
  5
2D83
 10
108.278
 20
68.6732
 30
0.000000
  70
    32
  0
VERTEX
  8
0
  5
2D84
 10
108.456
 20
68.6600
 30
0.000000
  70
    32
  0
VERTEX
  8
0
  5
2D85
 10
108.635
 20
68.6556
 30
0.000000
  70
    32
  0
VERTEX
  8
0
  5
2D86
 10
108.815
 20
68.6600
 30
0.000000
  70
    32
  0
VERTEX
  8
0
  5
2D87
 10
108.993
 20
68.6732
 30
0.000000
  70
    32
  0
VERTEX
  8
0
  5
2D88
 10
109.171
 20
68.6953
 30
0.000000
  70
    32
  0
VERTEX
  8
0
  5
2D89
 10
109.348
 20
68.7260
 30
0.000000
  70
    32
  0
VERTEX
  8
0
  5
2D8A
 10
109.523
 20
68.7655
 30
0.000000
  70
    32
  0
VERTEX
  8
0
  5
2D8B
 10
109.695
 20
68.8135
 30
0.000000
  70
    32
  0
VERTEX
  8
0
  5
2D8C
 10
109.866
 20
68.8700
 30
0.000000
  70
    32
  0
VERTEX
  8
0
  5
2D8D
 10
110.033
 20
68.9348
 30
0.000000
  70
    32
  0
VERTEX
  8
0
  5
2D8E
 10
110.197
 20
69.0077
 30
0.000000
  70
    32
  0
VERTEX
  8
0
  5
2D8F
 10
110.357
 20
69.0887
 30
0.000000
  70
    32
  0
VERTEX
  8
0
  5
2D90
 10
110.513
 20
69.1774
 30
0.000000
  70
    32
  0
VERTEX
  8
0
  5
2D91
 10
110.664
 20
69.2737
 30
0.000000
  70
    32
  0
VERTEX
  8
0
  5
2D92
 10
110.811
 20
69.3774
 30
0.000000
  70
    32
  0
VERTEX
  8
0
  5
2D93
 10
110.952
 20
69.4882
 30
0.000000
  70
    32
  0
VERTEX
  8
0
  5
2D94
 10
111.087
 20
69.6058
 30
0.000000
  70
    32
  0
VERTEX
  8
0
  5
2D95
 10
111.217
 20
69.7299
 30
0.000000
  70
    32
  0
VERTEX
  8
0
  5
2D96
 10
111.341
 20
69.8603
 30
0.000000
  70
    32
  0
VERTEX
  8
0
  5
2D97
 10
111.458
 20
69.9966
 30
0.000000
  70
    32
  0
VERTEX
  8
0
  5
2D98
 10
111.568
 20
70.1386
 30
0.000000
  70
    32
  0
VERTEX
  8
0
  5
2D99
 10
111.671
 20
70.2858
 30
0.000000
  70
    32
  0
VERTEX
  8
0
  5
2D9A
 10
111.767
 20
70.4379
 30
0.000000
  70
    32
  0
VERTEX
  8
0
  5
2D9B
 10
111.856
 20
70.5945
 30
0.000000
  70
    32
  0
VERTEX
  8
0
  5
2D9C
 10
111.936
 20
70.7553
 30
0.000000
  70
    32
  0
VERTEX
  8
0
  5
2D9D
 10
112.009
 20
70.9199
 30
0.000000
  70
    32
  0
VERTEX
  8
0
  5
2D9E
 10
112.073
 20
71.0879
 30
0.000000
  70
    32
  0
VERTEX
  8
0
  5
2D9F
 10
112.129
 20
71.2589
 30
0.000000
  70
    32
  0
VERTEX
  8
0
  5
2DA0
 10
112.177
 20
71.4324
 30
0.000000
  70
    32
  0
VERTEX
  8
0
  5
2DA1
 10
112.217
 20
71.6080
 30
0.000000
  70
    32
  0
VERTEX
  8
0
  5
2DA2
 10
112.247
 20
71.7854
 30
0.000000
  70
    32
  0
VERTEX
  8
0
  5
2DA3
 10
112.269
 20
71.9641
 30
0.000000
  70
    32
  0
VERTEX
  8
0
  5
2DA4
 10
112.282
 20
72.1437
 30
0.000000
  70
    32
  0
VERTEX
  8
0
  5
2DA5
 10
112.287
 20
72.3236
 30
0.000000
  70
    32
  0
VERTEX
  8
0
  5
2DA6
 10
112.282
 20
72.5036
 30
0.000000
  70
    32
  0
VERTEX
  8
0
  5
2DA7
 10
112.269
 20
72.6832
 30
0.000000
  70
    32
  0
VERTEX
  8
0
  5
2DA8
 10
112.247
 20
72.8619
 30
0.000000
  70
    32
  0
VERTEX
  8
0
  5
2DA9
 10
112.217
 20
73.0393
 30
0.000000
  70
    32
  0
VERTEX
  8
0
  5
2DAA
 10
112.177
 20
73.2149
 30
0.000000
  70
    32
  0
VERTEX
  8
0
  5
2DAB
 10
112.129
 20
73.3884
 30
0.000000
  70
    32
  0
VERTEX
  8
0
  5
2DAC
 10
112.073
 20
73.5594
 30
0.000000
  70
    32
  0
VERTEX
  8
0
  5
2DAD
 10
112.009
 20
73.7274
 30
0.000000
  70
    32
  0
VERTEX
  8
0
  5
2DAE
 10
111.936
 20
73.8920
 30
0.000000
  70
    32
  0
VERTEX
  8
0
  5
2DAF
 10
111.856
 20
74.0528
 30
0.000000
  70
    32
  0
VERTEX
  8
0
  5
2DB0
 10
111.767
 20
74.2094
 30
0.000000
  70
    32
  0
VERTEX
  8
0
  5
2DB1
 10
111.671
 20
74.3615
 30
0.000000
  70
    32
  0
VERTEX
  8
0
  5
2DB2
 10
111.568
 20
74.5087
 30
0.000000
  70
    32
  0
VERTEX
  8
0
  5
2DB3
 10
111.458
 20
74.6506
 30
0.000000
  70
    32
  0
VERTEX
  8
0
  5
2DB4
 10
111.341
 20
74.7870
 30
0.000000
  70
    32
  0
VERTEX
  8
0
  5
2DB5
 10
111.217
 20
74.9174
 30
0.000000
  70
    32
  0
VERTEX
  8
0
  5
2DB6
 10
111.087
 20
75.0415
 30
0.000000
  70
    32
  0
VERTEX
  8
0
  5
2DB7
 10
110.952
 20
75.1591
 30
0.000000
  70
    32
  0
VERTEX
  8
0
  5
2DB8
 10
110.811
 20
75.2699
 30
0.000000
  70
    32
  0
VERTEX
  8
0
  5
2DB9
 10
110.664
 20
75.3735
 30
0.000000
  70
    32
  0
VERTEX
  8
0
  5
2DBA
 10
110.513
 20
75.4699
 30
0.000000
  70
    32
  0
VERTEX
  8
0
  5
2DBB
 10
110.357
 20
75.5586
 30
0.000000
  70
    32
  0
VERTEX
  8
0
  5
2DBC
 10
110.197
 20
75.6395
 30
0.000000
  70
    32
  0
VERTEX
  8
0
  5
2DBD
 10
110.033
 20
75.7125
 30
0.000000
  70
    32
  0
VERTEX
  8
0
  5
2DBE
 10
109.866
 20
75.7773
 30
0.000000
  70
    32
  0
VERTEX
  8
0
  5
2DBF
 10
109.695
 20
75.8338
 30
0.000000
  70
    32
  0
VERTEX
  8
0
  5
2DC0
 10
109.523
 20
75.8818
 30
0.000000
  70
    32
  0
VERTEX
  8
0
  5
2DC1
 10
109.348
 20
75.9212
 30
0.000000
  70
    32
  0
VERTEX
  8
0
  5
2DC2
 10
109.171
 20
75.9520
 30
0.000000
  70
    32
  0
VERTEX
  8
0
  5
2DC3
 10
108.993
 20
75.9741
 30
0.000000
  70
    32
  0
VERTEX
  8
0
  5
2DC4
 10
108.815
 20
75.9873
 30
0.000000
  70
    32
  0
VERTEX
  8
0
  5
2DC5
 10
108.635
 20
75.9917
 30
0.000000
  70
    32
  0
SEQEND
  8
0
  5
2DC6
  0
POLYLINE
  5
1DAF
  8
0
  6
CONTINUOUS
 62
     7
 10
80.617487395221445
 20
68.655562684482604
 30
0.0
 66
     1
 70
     8
  0
VERTEX
  8
0
  5
2DC7
 10
80.6175
 20
68.6556
 30
0.000000
  70
    32
  0
VERTEX
  8
0
  5
2DC8
 10
80.7966
 20
68.6600
 30
0.000000
  70
    32
  0
VERTEX
  8
0
  5
2DC9
 10
80.9754
 20
68.6732
 30
0.000000
  70
    32
  0
VERTEX
  8
0
  5
2DCA
 10
81.1532
 20
68.6953
 30
0.000000
  70
    32
  0
VERTEX
  8
0
  5
2DCB
 10
81.3298
 20
68.7260
 30
0.000000
  70
    32
  0
VERTEX
  8
0
  5
2DCC
 10
81.5047
 20
68.7655
 30
0.000000
  70
    32
  0
VERTEX
  8
0
  5
2DCD
 10
81.6774
 20
68.8135
 30
0.000000
  70
    32
  0
VERTEX
  8
0
  5
2DCE
 10
81.8475
 20
68.8700
 30
0.000000
  70
    32
  0
VERTEX
  8
0
  5
2DCF
 10
82.0147
 20
68.9348
 30
0.000000
  70
    32
  0
VERTEX
  8
0
  5
2DD0
 10
82.1786
 20
69.0077
 30
0.000000
  70
    32
  0
VERTEX
  8
0
  5
2DD1
 10
82.3386
 20
69.0887
 30
0.000000
  70
    32
  0
VERTEX
  8
0
  5
2DD2
 10
82.4946
 20
69.1774
 30
0.000000
  70
    32
  0
VERTEX
  8
0
  5
2DD3
 10
82.6460
 20
69.2737
 30
0.000000
  70
    32
  0
VERTEX
  8
0
  5
2DD4
 10
82.7925
 20
69.3774
 30
0.000000
  70
    32
  0
VERTEX
  8
0
  5
2DD5
 10
82.9338
 20
69.4882
 30
0.000000
  70
    32
  0
VERTEX
  8
0
  5
2DD6
 10
83.0695
 20
69.6058
 30
0.000000
  70
    32
  0
VERTEX
  8
0
  5
2DD7
 10
83.1993
 20
69.7299
 30
0.000000
  70
    32
  0
VERTEX
  8
0
  5
2DD8
 10
83.3228
 20
69.8603
 30
0.000000
  70
    32
  0
VERTEX
  8
0
  5
2DD9
 10
83.4399
 20
69.9966
 30
0.000000
  70
    32
  0
VERTEX
  8
0
  5
2DDA
 10
83.5502
 20
70.1386
 30
0.000000
  70
    32
  0
VERTEX
  8
0
  5
2DDB
 10
83.6533
 20
70.2858
 30
0.000000
  70
    32
  0
VERTEX
  8
0
  5
2DDC
 10
83.7492
 20
70.4379
 30
0.000000
  70
    32
  0
VERTEX
  8
0
  5
2DDD
 10
83.8376
 20
70.5945
 30
0.000000
  70
    32
  0
VERTEX
  8
0
  5
2DDE
 10
83.9181
 20
70.7553
 30
0.000000
  70
    32
  0
VERTEX
  8
0
  5
2DDF
 10
83.9908
 20
70.9199
 30
0.000000
  70
    32
  0
VERTEX
  8
0
  5
2DE0
 10
84.0552
 20
71.0879
 30
0.000000
  70
    32
  0
VERTEX
  8
0
  5
2DE1
 10
84.1115
 20
71.2589
 30
0.000000
  70
    32
  0
VERTEX
  8
0
  5
2DE2
 10
84.1593
 20
71.4324
 30
0.000000
  70
    32
  0
VERTEX
  8
0
  5
2DE3
 10
84.1985
 20
71.6080
 30
0.000000
  70
    32
  0
VERTEX
  8
0
  5
2DE4
 10
84.2292
 20
71.7854
 30
0.000000
  70
    32
  0
VERTEX
  8
0
  5
2DE5
 10
84.2511
 20
71.9641
 30
0.000000
  70
    32
  0
VERTEX
  8
0
  5
2DE6
 10
84.2643
 20
72.1437
 30
0.000000
  70
    32
  0
VERTEX
  8
0
  5
2DE7
 10
84.2687
 20
72.3236
 30
0.000000
  70
    32
  0
VERTEX
  8
0
  5
2DE8
 10
84.2643
 20
72.5036
 30
0.000000
  70
    32
  0
VERTEX
  8
0
  5
2DE9
 10
84.2511
 20
72.6832
 30
0.000000
  70
    32
  0
VERTEX
  8
0
  5
2DEA
 10
84.2292
 20
72.8619
 30
0.000000
  70
    32
  0
VERTEX
  8
0
  5
2DEB
 10
84.1985
 20
73.0393
 30
0.000000
  70
    32
  0
VERTEX
  8
0
  5
2DEC
 10
84.1593
 20
73.2149
 30
0.000000
  70
    32
  0
VERTEX
  8
0
  5
2DED
 10
84.1115
 20
73.3884
 30
0.000000
  70
    32
  0
VERTEX
  8
0
  5
2DEE
 10
84.0552
 20
73.5594
 30
0.000000
  70
    32
  0
VERTEX
  8
0
  5
2DEF
 10
83.9908
 20
73.7274
 30
0.000000
  70
    32
  0
VERTEX
  8
0
  5
2DF0
 10
83.9181
 20
73.8920
 30
0.000000
  70
    32
  0
VERTEX
  8
0
  5
2DF1
 10
83.8376
 20
74.0528
 30
0.000000
  70
    32
  0
VERTEX
  8
0
  5
2DF2
 10
83.7492
 20
74.2094
 30
0.000000
  70
    32
  0
VERTEX
  8
0
  5
2DF3
 10
83.6533
 20
74.3615
 30
0.000000
  70
    32
  0
VERTEX
  8
0
  5
2DF4
 10
83.5502
 20
74.5087
 30
0.000000
  70
    32
  0
VERTEX
  8
0
  5
2DF5
 10
83.4399
 20
74.6506
 30
0.000000
  70
    32
  0
VERTEX
  8
0
  5
2DF6
 10
83.3228
 20
74.7870
 30
0.000000
  70
    32
  0
VERTEX
  8
0
  5
2DF7
 10
83.1993
 20
74.9174
 30
0.000000
  70
    32
  0
VERTEX
  8
0
  5
2DF8
 10
83.0695
 20
75.0415
 30
0.000000
  70
    32
  0
VERTEX
  8
0
  5
2DF9
 10
82.9338
 20
75.1591
 30
0.000000
  70
    32
  0
VERTEX
  8
0
  5
2DFA
 10
82.7925
 20
75.2699
 30
0.000000
  70
    32
  0
VERTEX
  8
0
  5
2DFB
 10
82.6460
 20
75.3735
 30
0.000000
  70
    32
  0
VERTEX
  8
0
  5
2DFC
 10
82.4946
 20
75.4699
 30
0.000000
  70
    32
  0
VERTEX
  8
0
  5
2DFD
 10
82.3386
 20
75.5586
 30
0.000000
  70
    32
  0
VERTEX
  8
0
  5
2DFE
 10
82.1786
 20
75.6395
 30
0.000000
  70
    32
  0
VERTEX
  8
0
  5
2DFF
 10
82.0147
 20
75.7125
 30
0.000000
  70
    32
  0
VERTEX
  8
0
  5
2E00
 10
81.8475
 20
75.7773
 30
0.000000
  70
    32
  0
VERTEX
  8
0
  5
2E01
 10
81.6774
 20
75.8338
 30
0.000000
  70
    32
  0
VERTEX
  8
0
  5
2E02
 10
81.5047
 20
75.8818
 30
0.000000
  70
    32
  0
VERTEX
  8
0
  5
2E03
 10
81.3298
 20
75.9212
 30
0.000000
  70
    32
  0
VERTEX
  8
0
  5
2E04
 10
81.1532
 20
75.9520
 30
0.000000
  70
    32
  0
VERTEX
  8
0
  5
2E05
 10
80.9754
 20
75.9741
 30
0.000000
  70
    32
  0
VERTEX
  8
0
  5
2E06
 10
80.7966
 20
75.9873
 30
0.000000
  70
    32
  0
VERTEX
  8
0
  5
2E07
 10
80.6175
 20
75.9917
 30
0.000000
  70
    32
  0
VERTEX
  8
0
  5
2E08
 10
80.4383
 20
75.9873
 30
0.000000
  70
    32
  0
VERTEX
  8
0
  5
2E09
 10
80.2596
 20
75.9741
 30
0.000000
  70
    32
  0
VERTEX
  8
0
  5
2E0A
 10
80.0817
 20
75.9520
 30
0.000000
  70
    32
  0
VERTEX
  8
0
  5
2E0B
 10
79.9052
 20
75.9212
 30
0.000000
  70
    32
  0
VERTEX
  8
0
  5
2E0C
 10
79.7303
 20
75.8818
 30
0.000000
  70
    32
  0
VERTEX
  8
0
  5
2E0D
 10
79.5576
 20
75.8338
 30
0.000000
  70
    32
  0
VERTEX
  8
0
  5
2E0E
 10
79.3874
 20
75.7773
 30
0.000000
  70
    32
  0
VERTEX
  8
0
  5
2E0F
 10
79.2202
 20
75.7125
 30
0.000000
  70
    32
  0
VERTEX
  8
0
  5
2E10
 10
79.0564
 20
75.6395
 30
0.000000
  70
    32
  0
VERTEX
  8
0
  5
2E11
 10
78.8963
 20
75.5586
 30
0.000000
  70
    32
  0
VERTEX
  8
0
  5
2E12
 10
78.7404
 20
75.4699
 30
0.000000
  70
    32
  0
VERTEX
  8
0
  5
2E13
 10
78.5890
 20
75.3735
 30
0.000000
  70
    32
  0
VERTEX
  8
0
  5
2E14
 10
78.4425
 20
75.2699
 30
0.000000
  70
    32
  0
VERTEX
  8
0
  5
2E15
 10
78.3012
 20
75.1591
 30
0.000000
  70
    32
  0
VERTEX
  8
0
  5
2E16
 10
78.1655
 20
75.0415
 30
0.000000
  70
    32
  0
VERTEX
  8
0
  5
2E17
 10
78.0357
 20
74.9174
 30
0.000000
  70
    32
  0
VERTEX
  8
0
  5
2E18
 10
77.9121
 20
74.7870
 30
0.000000
  70
    32
  0
VERTEX
  8
0
  5
2E19
 10
77.7951
 20
74.6506
 30
0.000000
  70
    32
  0
VERTEX
  8
0
  5
2E1A
 10
77.6848
 20
74.5087
 30
0.000000
  70
    32
  0
VERTEX
  8
0
  5
2E1B
 10
77.5816
 20
74.3615
 30
0.000000
  70
    32
  0
VERTEX
  8
0
  5
2E1C
 10
77.4858
 20
74.2094
 30
0.000000
  70
    32
  0
VERTEX
  8
0
  5
2E1D
 10
77.3974
 20
74.0528
 30
0.000000
  70
    32
  0
VERTEX
  8
0
  5
2E1E
 10
77.3168
 20
73.8920
 30
0.000000
  70
    32
  0
VERTEX
  8
0
  5
2E1F
 10
77.2442
 20
73.7274
 30
0.000000
  70
    32
  0
VERTEX
  8
0
  5
2E20
 10
77.1797
 20
73.5594
 30
0.000000
  70
    32
  0
VERTEX
  8
0
  5
2E21
 10
77.1235
 20
73.3884
 30
0.000000
  70
    32
  0
VERTEX
  8
0
  5
2E22
 10
77.0757
 20
73.2149
 30
0.000000
  70
    32
  0
VERTEX
  8
0
  5
2E23
 10
77.0365
 20
73.0393
 30
0.000000
  70
    32
  0
VERTEX
  8
0
  5
2E24
 10
77.0058
 20
72.8619
 30
0.000000
  70
    32
  0
VERTEX
  8
0
  5
2E25
 10
76.9839
 20
72.6832
 30
0.000000
  70
    32
  0
VERTEX
  8
0
  5
2E26
 10
76.9707
 20
72.5036
 30
0.000000
  70
    32
  0
VERTEX
  8
0
  5
2E27
 10
76.9663
 20
72.3236
 30
0.000000
  70
    32
  0
VERTEX
  8
0
  5
2E28
 10
76.9707
 20
72.1437
 30
0.000000
  70
    32
  0
VERTEX
  8
0
  5
2E29
 10
76.9839
 20
71.9641
 30
0.000000
  70
    32
  0
VERTEX
  8
0
  5
2E2A
 10
77.0058
 20
71.7854
 30
0.000000
  70
    32
  0
VERTEX
  8
0
  5
2E2B
 10
77.0365
 20
71.6080
 30
0.000000
  70
    32
  0
VERTEX
  8
0
  5
2E2C
 10
77.0757
 20
71.4324
 30
0.000000
  70
    32
  0
VERTEX
  8
0
  5
2E2D
 10
77.1235
 20
71.2589
 30
0.000000
  70
    32
  0
VERTEX
  8
0
  5
2E2E
 10
77.1797
 20
71.0879
 30
0.000000
  70
    32
  0
VERTEX
  8
0
  5
2E2F
 10
77.2442
 20
70.9199
 30
0.000000
  70
    32
  0
VERTEX
  8
0
  5
2E30
 10
77.3168
 20
70.7553
 30
0.000000
  70
    32
  0
VERTEX
  8
0
  5
2E31
 10
77.3974
 20
70.5945
 30
0.000000
  70
    32
  0
VERTEX
  8
0
  5
2E32
 10
77.4858
 20
70.4379
 30
0.000000
  70
    32
  0
VERTEX
  8
0
  5
2E33
 10
77.5816
 20
70.2858
 30
0.000000
  70
    32
  0
VERTEX
  8
0
  5
2E34
 10
77.6848
 20
70.1386
 30
0.000000
  70
    32
  0
VERTEX
  8
0
  5
2E35
 10
77.7951
 20
69.9966
 30
0.000000
  70
    32
  0
VERTEX
  8
0
  5
2E36
 10
77.9121
 20
69.8603
 30
0.000000
  70
    32
  0
VERTEX
  8
0
  5
2E37
 10
78.0357
 20
69.7299
 30
0.000000
  70
    32
  0
VERTEX
  8
0
  5
2E38
 10
78.1655
 20
69.6058
 30
0.000000
  70
    32
  0
VERTEX
  8
0
  5
2E39
 10
78.3012
 20
69.4882
 30
0.000000
  70
    32
  0
VERTEX
  8
0
  5
2E3A
 10
78.4425
 20
69.3774
 30
0.000000
  70
    32
  0
VERTEX
  8
0
  5
2E3B
 10
78.5890
 20
69.2737
 30
0.000000
  70
    32
  0
VERTEX
  8
0
  5
2E3C
 10
78.7404
 20
69.1774
 30
0.000000
  70
    32
  0
VERTEX
  8
0
  5
2E3D
 10
78.8963
 20
69.0887
 30
0.000000
  70
    32
  0
VERTEX
  8
0
  5
2E3E
 10
79.0564
 20
69.0077
 30
0.000000
  70
    32
  0
VERTEX
  8
0
  5
2E3F
 10
79.2202
 20
68.9348
 30
0.000000
  70
    32
  0
VERTEX
  8
0
  5
2E40
 10
79.3874
 20
68.8700
 30
0.000000
  70
    32
  0
VERTEX
  8
0
  5
2E41
 10
79.5576
 20
68.8135
 30
0.000000
  70
    32
  0
VERTEX
  8
0
  5
2E42
 10
79.7303
 20
68.7655
 30
0.000000
  70
    32
  0
VERTEX
  8
0
  5
2E43
 10
79.9052
 20
68.7260
 30
0.000000
  70
    32
  0
VERTEX
  8
0
  5
2E44
 10
80.0817
 20
68.6953
 30
0.000000
  70
    32
  0
VERTEX
  8
0
  5
2E45
 10
80.2596
 20
68.6732
 30
0.000000
  70
    32
  0
VERTEX
  8
0
  5
2E46
 10
80.4383
 20
68.6600
 30
0.000000
  70
    32
  0
VERTEX
  8
0
  5
2E47
 10
80.6175
 20
68.6556
 30
0.000000
  70
    32
  0
SEQEND
  8
0
  5
2E48
  0
LINE
  5
1DB9
  8
0
  6
CONTINUOUS
 62
     7
 10
97.859490735825744
 20
42.223643598521797
 30
0.0
 11
91.393490735825736
 21
42.223643598521797
 31
0.0
  0
LINE
  5
1DBB
  8
0
  6
CONTINUOUS
 62
     7
 10
98.62649073582574
 20
42.9906435985218
 30
0.0
 11
90.626490735825755
 21
42.9906435985218
 31
0.0
  0
LINE
  5
1DBC
  8
3
 10
97.859490735825744
 20
42.223643598521797
 30
0.0
 11
97.859490735825744
 21
56.923643598521807
 31
0.0
  0
LINE
  5
1DBD
  8
3
 10
98.62649073582574
 20
58.223643598521797
 30
0.0
 11
97.859490735825744
 21
56.923643598521807
 31
0.0
  0
LINE
  5
1DBE
  8
0
  6
CONTINUOUS
 62
     7
 10
98.62649073582574
 20
56.923643598521807
 30
0.0
 11
90.626490735825755
 21
56.923643598521807
 31
0.0
  0
LINE
  5
1DBF
  8
3
 10
91.393490735825736
 20
42.223643598521797
 30
0.0
 11
91.393490735825736
 21
56.923643598521807
 31
0.0
  0
LINE
  5
1DC0
  8
3
 10
90.626490735825755
 20
58.223643598521797
 30
0.0
 11
91.393490735825736
 21
56.923643598521807
 31
0.0
  0
LINE
  5
1DC1
  8
1
 10
94.626490735825726
 20
38.154827310028679
 30
0.0
 11
94.626490735825726
 21
83.114009607088505
 31
0.0
  0
LINE
  5
1DD3
  8
0
 10
26.786364179416179
 20
77.223643598521804
 30
0.0
 11
26.786364179416189
 21
58.423643598521799
 31
0.0
  0
LINE
  5
1DD4
  8
0
 10
27.786364179416179
 20
58.223643598521797
 30
0.0
 11
27.786364179416189
 21
58.423643598521799
 31
0.0
  0
LINE
  5
1ED9
  8
0
  6
CONTINUOUS
 62
     7
 10
99.139822175963772
 20
112.8999189293644
 30
0.0
 11
99.218301735644687
 21
112.7632119247218
 31
0.0
  0
LINE
  5
1EDA
  8
0
  6
CONTINUOUS
 62
     7
 10
99.218301735644687
 20
112.7632119247218
 30
0.0
 11
99.363210878822784
 21
112.48212844632791
 31
0.0
  0
LINE
  5
1EDB
  8
0
  6
CONTINUOUS
 62
     7
 10
99.363210878822784
 20
112.48212844632791
 30
0.0
 11
99.491174121309385
 21
112.1922373412018
 31
0.0
  0
LINE
  5
1EDC
  8
0
  6
CONTINUOUS
 62
     7
 10
99.491174121309385
 20
112.1922373412018
 30
0.0
 11
99.548551455525669
 21
112.0444874812347
 31
0.0
  0
LINE
  5
1EDD
  8
0
  6
CONTINUOUS
 62
     7
 10
99.548551455525669
 20
112.0444874812347
 30
0.0
 11
99.601421814777851
 21
111.8951343193621
 31
0.0
  0
LINE
  5
1EDE
  8
0
  6
CONTINUOUS
 62
     7
 10
99.601421814777851
 20
111.8951343193621
 30
0.0
 11
99.693364525059025
 21
111.5925796824751
 31
0.0
  0
LINE
  5
1EDF
  8
0
  6
CONTINUOUS
 62
     7
 10
99.693364525059025
 20
111.5925796824751
 30
0.0
 11
99.766609282225986
 21
111.2865601108298
 31
0.0
  0
LINE
  5
1EE0
  8
0
  6
CONTINUOUS
 62
     7
 10
99.766609282225986
 20
111.2865601108298
 30
0.0
 11
99.821036910521102
 21
110.97911058062959
 31
0.0
  0
LINE
  5
1EE1
  8
0
  6
CONTINUOUS
 62
     7
 10
99.821036910521102
 20
110.97911058062959
 30
0.0
 11
99.856802539153406
 21
110.67231013318229
 31
0.0
  0
LINE
  5
1EE2
  8
0
  6
CONTINUOUS
 62
     7
 10
99.856802539153406
 20
110.67231013318229
 30
0.0
 11
99.874340097130002
 21
110.3683219384824
 31
0.0
  0
LINE
  5
1EE3
  8
0
  6
CONTINUOUS
 62
     7
 10
99.874340097130002
 20
110.3683219384824
 30
0.0
 11
99.876490735825755
 21
110.2180652212994
 31
0.0
  0
LINE
  5
1EE4
  8
0
  6
CONTINUOUS
 62
     7
 10
99.876490735825755
 20
110.2180652212994
 30
0.0
 11
99.874340097130002
 21
110.0678085041165
 31
0.0
  0
LINE
  5
1EE5
  8
0
  6
CONTINUOUS
 62
     7
 10
99.874340097130002
 20
110.0678085041165
 30
0.0
 11
99.856802539153406
 21
109.7638203094166
 31
0.0
  0
LINE
  5
1EE6
  8
0
  6
CONTINUOUS
 62
     7
 10
99.856802539153406
 20
109.7638203094166
 30
0.0
 11
99.821036910521102
 21
109.4570198619693
 31
0.0
  0
LINE
  5
1EE7
  8
0
  6
CONTINUOUS
 62
     7
 10
99.821036910521102
 20
109.4570198619693
 30
0.0
 11
99.766609282225986
 21
109.1495703317691
 31
0.0
  0
LINE
  5
1EE8
  8
0
  6
CONTINUOUS
 62
     7
 10
99.766609282225986
 20
109.1495703317691
 30
0.0
 11
99.693364525059025
 21
108.8435507601238
 31
0.0
  0
LINE
  5
1EE9
  8
0
  6
CONTINUOUS
 62
     7
 10
99.693364525059025
 20
108.8435507601238
 30
0.0
 11
99.601421814777851
 21
108.54099612323679
 31
0.0
  0
LINE
  5
1EEA
  8
0
  6
CONTINUOUS
 62
     7
 10
99.601421814777851
 20
108.54099612323679
 30
0.0
 11
99.548551455525669
 21
108.3916429613641
 31
0.0
  0
LINE
  5
1EEB
  8
0
  6
CONTINUOUS
 62
     7
 10
99.548551455525669
 20
108.3916429613641
 30
0.0
 11
99.491174121309385
 21
108.24389310139711
 31
0.0
  0
LINE
  5
1EEC
  8
0
  6
CONTINUOUS
 62
     7
 10
99.491174121309385
 20
108.24389310139711
 30
0.0
 11
99.363210878822784
 21
107.954001996271
 31
0.0
  0
LINE
  5
1EED
  8
0
  6
CONTINUOUS
 62
     7
 10
99.363210878822784
 20
107.954001996271
 30
0.0
 11
99.218301735644687
 21
107.67291851787709
 31
0.0
  0
LINE
  5
1EEE
  8
0
  6
CONTINUOUS
 62
     7
 10
99.218301735644687
 20
107.67291851787709
 30
0.0
 11
99.139822175963772
 21
107.53621151323451
 31
0.0
  0
LINE
  5
1EEF
  8
0
  6
CONTINUOUS
 62
     7
 10
90.113159295687794
 20
107.53621151323441
 30
0.0
 11
90.034679736006865
 21
107.67291851787699
 31
0.0
  0
LINE
  5
1EF0
  8
0
  6
CONTINUOUS
 62
     7
 10
90.034679736006865
 20
107.67291851787699
 30
0.0
 11
89.889770592828768
 21
107.9540019962709
 31
0.0
  0
LINE
  5
1EF1
  8
0
  6
CONTINUOUS
 62
     7
 10
89.889770592828768
 20
107.9540019962709
 30
0.0
 11
89.761807350342139
 21
108.24389310139711
 31
0.0
  0
LINE
  5
1EF2
  8
0
  6
CONTINUOUS
 62
     7
 10
89.761807350342139
 20
108.24389310139711
 30
0.0
 11
89.704430016125855
 21
108.3916429613641
 31
0.0
  0
LINE
  5
1EF3
  8
0
  6
CONTINUOUS
 62
     7
 10
89.704430016125855
 20
108.3916429613641
 30
0.0
 11
89.651559656873673
 21
108.54099612323679
 31
0.0
  0
LINE
  5
1EF4
  8
0
  6
CONTINUOUS
 62
     7
 10
89.651559656873673
 20
108.54099612323679
 30
0.0
 11
89.559616946592513
 21
108.8435507601238
 31
0.0
  0
LINE
  5
1EF5
  8
0
  6
CONTINUOUS
 62
     7
 10
89.559616946592513
 20
108.8435507601238
 30
0.0
 11
89.486372189425538
 21
109.149570331769
 31
0.0
  0
LINE
  5
1EF6
  8
0
  6
CONTINUOUS
 62
     7
 10
89.486372189425538
 20
109.149570331769
 30
0.0
 11
89.431944561130422
 21
109.4570198619693
 31
0.0
  0
LINE
  5
1EF7
  8
0
  6
CONTINUOUS
 62
     7
 10
89.431944561130422
 20
109.4570198619693
 30
0.0
 11
89.396178932498117
 21
109.7638203094166
 31
0.0
  0
LINE
  5
1EF8
  8
0
  6
CONTINUOUS
 62
     7
 10
89.396178932498117
 20
109.7638203094166
 30
0.0
 11
89.378641374521521
 21
110.0678085041165
 31
0.0
  0
LINE
  5
1EF9
  8
0
  6
CONTINUOUS
 62
     7
 10
89.378641374521521
 20
110.0678085041165
 30
0.0
 11
89.376490735825755
 21
110.2180652212994
 31
0.0
  0
LINE
  5
1EFA
  8
0
  6
CONTINUOUS
 62
     7
 10
89.376490735825755
 20
110.2180652212994
 30
0.0
 11
89.378641374521493
 21
110.3683219384823
 31
0.0
  0
LINE
  5
1EFB
  8
0
  6
CONTINUOUS
 62
     7
 10
89.378641374521493
 20
110.3683219384823
 30
0.0
 11
89.396178932498074
 21
110.67231013318229
 31
0.0
  0
LINE
  5
1EFC
  8
0
  6
CONTINUOUS
 62
     7
 10
89.396178932498074
 20
110.67231013318229
 30
0.0
 11
89.431944561130379
 21
110.97911058062959
 31
0.0
  0
LINE
  5
1EFD
  8
0
  6
CONTINUOUS
 62
     7
 10
89.431944561130379
 20
110.97911058062959
 30
0.0
 11
89.486372189425538
 21
111.2865601108298
 31
0.0
  0
LINE
  5
1EFE
  8
0
  6
CONTINUOUS
 62
     7
 10
89.486372189425538
 20
111.2865601108298
 30
0.0
 11
89.559616946592485
 21
111.59257968247501
 31
0.0
  0
LINE
  5
1EFF
  8
0
  6
CONTINUOUS
 62
     7
 10
89.559616946592485
 20
111.59257968247501
 30
0.0
 11
89.651559656873673
 21
111.8951343193621
 31
0.0
  0
LINE
  5
1F00
  8
0
  6
CONTINUOUS
 62
     7
 10
89.651559656873673
 20
111.8951343193621
 30
0.0
 11
89.704430016125826
 21
112.0444874812347
 31
0.0
  0
LINE
  5
1F01
  8
0
  6
CONTINUOUS
 62
     7
 10
89.704430016125826
 20
112.0444874812347
 30
0.0
 11
89.761807350342096
 21
112.1922373412018
 31
0.0
  0
LINE
  5
1F02
  8
0
  6
CONTINUOUS
 62
     7
 10
89.761807350342096
 20
112.1922373412018
 30
0.0
 11
89.889770592828725
 21
112.48212844632791
 31
0.0
  0
LINE
  5
1F03
  8
0
  6
CONTINUOUS
 62
     7
 10
89.889770592828725
 20
112.48212844632791
 30
0.0
 11
90.034679736006836
 21
112.7632119247218
 31
0.0
  0
LINE
  5
1F04
  8
0
  6
CONTINUOUS
 62
     7
 10
90.034679736006836
 20
112.7632119247218
 30
0.0
 11
90.113159295687751
 21
112.8999189293644
 31
0.0
  0
LINE
  5
1F1B
  8
0
  6
CONTINUOUS
 62
     7
 10
75.722336488345974
 20
113.36254727681801
 30
0.0
 11
75.677415901647151
 21
113.3658535504043
 31
0.0
  0
LINE
  5
1F1C
  8
0
  6
CONTINUOUS
 62
     7
 10
75.677415901647151
 20
113.3658535504043
 30
0.0
 11
75.590234951634102
 21
113.3664936213822
 31
0.0
  0
LINE
  5
1F1D
  8
0
  6
CONTINUOUS
 62
     7
 10
75.590234951634102
 20
113.3664936213822
 30
0.0
 11
75.506636763974754
 21
113.359942610159
 31
0.0
  0
LINE
  5
1F1E
  8
0
  6
CONTINUOUS
 62
     7
 10
75.506636763974754
 20
113.359942610159
 30
0.0
 11
75.46604220340987
 21
113.3541952863998
 31
0.0
  0
LINE
  5
1F1F
  8
0
  6
CONTINUOUS
 62
     7
 10
75.46604220340987
 20
113.3541952863998
 30
0.0
 11
75.42628556994157
 21
113.3469050738768
 31
0.0
  0
LINE
  5
1F20
  8
0
  6
CONTINUOUS
 62
     7
 10
75.42628556994157
 20
113.3469050738768
 30
0.0
 11
75.349409032862553
 21
113.3279974396777
 31
0.0
  0
LINE
  5
1F21
  8
0
  6
CONTINUOUS
 62
     7
 10
75.349409032862553
 20
113.3279974396777
 30
0.0
 11
75.276259868691284
 21
113.3038144863547
 31
0.0
  0
LINE
  5
1F22
  8
0
  6
CONTINUOUS
 62
     7
 10
75.276259868691284
 20
113.3038144863547
 30
0.0
 11
75.207103317184504
 21
113.2749584330616
 31
0.0
  0
LINE
  5
1F23
  8
0
  6
CONTINUOUS
 62
     7
 10
75.207103317184504
 20
113.2749584330616
 30
0.0
 11
75.142219514251622
 21
113.2420690082905
 31
0.0
  0
LINE
  5
1F24
  8
0
  6
CONTINUOUS
 62
     7
 10
75.142219514251622
 20
113.2420690082905
 30
0.0
 11
75.081907356544264
 21
113.2058577870268
 31
0.0
  0
LINE
  5
1F25
  8
0
  6
CONTINUOUS
 62
     7
 10
75.081907356544264
 20
113.2058577870268
 30
0.0
 11
75.053806310531598
 21
113.1869269923599
 31
0.0
  0
LINE
  5
1F26
  8
0
  6
CONTINUOUS
 62
     7
 10
75.053806310531598
 20
113.1869269923599
 30
0.0
 11
75.027380290595659
 21
113.16781747241041
 31
0.0
  0
LINE
  5
1F27
  8
0
  6
CONTINUOUS
 62
     7
 10
75.027380290595659
 20
113.16781747241041
 30
0.0
 11
74.979463988585366
 21
113.1296183815894
 31
0.0
  0
LINE
  5
1F28
  8
0
  6
CONTINUOUS
 62
     7
 10
74.979463988585366
 20
113.1296183815894
 30
0.0
 11
74.937985078449273
 21
113.0923820483911
 31
0.0
  0
LINE
  5
1F29
  8
0
  6
CONTINUOUS
 62
     7
 10
74.937985078449273
 20
113.0923820483911
 30
0.0
 11
74.902778724253096
 21
113.05725318995709
 31
0.0
  0
LINE
  5
1F2A
  8
0
  6
CONTINUOUS
 62
     7
 10
74.902778724253096
 20
113.05725318995709
 30
0.0
 11
74.873688081858802
 21
113.0253973577265
 31
0.0
  0
LINE
  5
1F2B
  8
0
  6
CONTINUOUS
 62
     7
 10
74.873688081858802
 20
113.0253973577265
 30
0.0
 11
74.850492891610074
 21
112.99788663775649
 31
0.0
  0
LINE
  5
1F2C
  8
0
  6
CONTINUOUS
 62
     7
 10
74.850492891610074
 20
112.99788663775649
 30
0.0
 11
74.840956405403375
 21
112.9859691581219
 31
0.0
  0
LINE
  5
1F2D
  8
0
  6
CONTINUOUS
 62
     7
 10
74.840956405403375
 20
112.9859691581219
 30
0.0
 11
74.832807988908414
 21
112.9754829757287
 31
0.0
  0
LINE
  5
1F2E
  8
0
  6
CONTINUOUS
 62
     7
 10
74.832807988908414
 20
112.9754829757287
 30
0.0
 11
74.820801680931368
 21
112.9594897879941
 31
0.0
  0
LINE
  5
1F2F
  8
0
  6
CONTINUOUS
 62
     7
 10
74.820801680931368
 20
112.9594897879941
 30
0.0
 11
74.814730049390278
 21
112.95114130778499
 31
0.0
  0
LINE
  5
1F30
  8
0
  6
CONTINUOUS
 62
     7
 10
74.814730049390278
 20
112.95114130778499
 30
0.0
 11
74.813966908983986
 21
112.9500790592635
 31
0.0
  0
LINE
  5
1F31
  8
0
  6
CONTINUOUS
 62
     7
 10
114.4390145626675
 20
112.9500790592635
 30
0.0
 11
114.4381844410111
 21
112.9512344020977
 31
0.0
  0
LINE
  5
1F32
  8
0
  6
CONTINUOUS
 62
     7
 10
114.4381844410111
 20
112.9512344020977
 30
0.0
 11
114.4315833733523
 21
112.9603001701643
 31
0.0
  0
LINE
  5
1F33
  8
0
  6
CONTINUOUS
 62
     7
 10
114.4315833733523
 20
112.9603001701643
 30
0.0
 11
114.4185287883666
 21
112.97762280042269
 31
0.0
  0
LINE
  5
1F34
  8
0
  6
CONTINUOUS
 62
     7
 10
114.4185287883666
 20
112.97762280042269
 30
0.0
 11
114.40963802013169
 21
112.9889873359046
 31
0.0
  0
LINE
  5
1F35
  8
0
  6
CONTINUOUS
 62
     7
 10
114.40963802013169
 20
112.9889873359046
 30
0.0
 11
114.3992110404387
 21
113.001897745113
 31
0.0
  0
LINE
  5
1F36
  8
0
  6
CONTINUOUS
 62
     7
 10
114.3992110404387
 20
113.001897745113
 30
0.0
 11
114.37387133182661
 21
113.03154722889219
 31
0.0
  0
LINE
  5
1F37
  8
0
  6
CONTINUOUS
 62
     7
 10
114.37387133182661
 20
113.03154722889219
 30
0.0
 11
114.3427567443558
 21
113.06497842459331
 31
0.0
  0
LINE
  5
1F38
  8
0
  6
CONTINUOUS
 62
     7
 10
114.3427567443558
 20
113.06497842459331
 30
0.0
 11
114.30611198495239
 21
113.10071427118569
 31
0.0
  0
LINE
  5
1F39
  8
0
  6
CONTINUOUS
 62
     7
 10
114.30611198495239
 20
113.10071427118569
 30
0.0
 11
114.2641811517243
 21
113.1374438367389
 31
0.0
  0
LINE
  5
1F3A
  8
0
  6
CONTINUOUS
 62
     7
 10
114.2641811517243
 20
113.1374438367389
 30
0.0
 11
114.2170960036382
 21
113.1741116832092
 31
0.0
  0
LINE
  5
1F3B
  8
0
  6
CONTINUOUS
 62
     7
 10
114.2170960036382
 20
113.1741116832092
 30
0.0
 11
114.1916128591097
 21
113.19215834252481
 31
0.0
  0
LINE
  5
1F3C
  8
0
  6
CONTINUOUS
 62
     7
 10
114.1916128591097
 20
113.19215834252481
 30
0.0
 11
114.16485514812589
 21
113.20986322359209
 31
0.0
  0
LINE
  5
1F3D
  8
0
  6
CONTINUOUS
 62
     7
 10
114.16485514812589
 20
113.20986322359209
 30
0.0
 11
114.10757474720791
 21
113.24382557562311
 31
0.0
  0
LINE
  5
1F3E
  8
0
  6
CONTINUOUS
 62
     7
 10
114.10757474720791
 20
113.24382557562311
 30
0.0
 11
114.0453734901342
 21
113.275191406929
 31
0.0
  0
LINE
  5
1F3F
  8
0
  6
CONTINUOUS
 62
     7
 10
114.0453734901342
 20
113.275191406929
 30
0.0
 11
113.97837281608329
 21
113.3031954158588
 31
0.0
  0
LINE
  5
1F40
  8
0
  6
CONTINUOUS
 62
     7
 10
113.97837281608329
 20
113.3031954158588
 30
0.0
 11
113.9066866165157
 21
113.3270939248976
 31
0.0
  0
LINE
  5
1F41
  8
0
  6
CONTINUOUS
 62
     7
 10
113.9066866165157
 20
113.3270939248976
 30
0.0
 11
113.8304621503657
 21
113.3461279229423
 31
0.0
  0
LINE
  5
1F42
  8
0
  6
CONTINUOUS
 62
     7
 10
113.8304621503657
 20
113.3461279229423
 30
0.0
 11
113.7907086109052
 21
113.35357517056551
 31
0.0
  0
LINE
  5
1F43
  8
0
  6
CONTINUOUS
 62
     7
 10
113.7907086109052
 20
113.35357517056551
 30
0.0
 11
113.7498955068037
 21
113.3595074975361
 31
0.0
  0
LINE
  5
1F44
  8
0
  6
CONTINUOUS
 62
     7
 10
113.7498955068037
 20
113.3595074975361
 30
0.0
 11
113.6651327385851
 21
113.3664041973465
 31
0.0
  0
LINE
  5
1F45
  8
0
  6
CONTINUOUS
 62
     7
 10
113.6651327385851
 20
113.3664041973465
 30
0.0
 11
113.5763944148906
 21
113.36589546948819
 31
0.0
  0
LINE
  5
1F46
  8
0
  6
CONTINUOUS
 62
     7
 10
113.5763944148906
 20
113.36589546948819
 30
0.0
 11
113.53064498330551
 21
113.36254727681801
 31
0.0
  0
LINE
  5
1F5D
  8
0
  6
CONTINUOUS
 62
     7
 10
74.813966908983986
 20
107.48605138333539
 30
0.0
 11
74.81479703064042
 21
107.4848960405011
 31
0.0
  0
LINE
  5
1F5E
  8
0
  6
CONTINUOUS
 62
     7
 10
74.81479703064042
 20
107.4848960405011
 30
0.0
 11
74.821398098299312
 21
107.47583027243449
 31
0.0
  0
LINE
  5
1F5F
  8
0
  6
CONTINUOUS
 62
     7
 10
74.821398098299312
 20
107.47583027243449
 30
0.0
 11
74.834452683285036
 21
107.4585076421761
 31
0.0
  0
LINE
  5
1F60
  8
0
  6
CONTINUOUS
 62
     7
 10
74.834452683285036
 20
107.4585076421761
 30
0.0
 11
74.843343451519914
 21
107.4471431066941
 31
0.0
  0
LINE
  5
1F61
  8
0
  6
CONTINUOUS
 62
     7
 10
74.843343451519914
 20
107.4471431066941
 30
0.0
 11
74.853770431212951
 21
107.4342326974856
 31
0.0
  0
LINE
  5
1F62
  8
0
  6
CONTINUOUS
 62
     7
 10
74.853770431212951
 20
107.4342326974856
 30
0.0
 11
74.879110139825059
 21
107.4045832137065
 31
0.0
  0
LINE
  5
1F63
  8
0
  6
CONTINUOUS
 62
     7
 10
74.879110139825059
 20
107.4045832137065
 30
0.0
 11
74.910224727295855
 21
107.3711520180054
 31
0.0
  0
LINE
  5
1F64
  8
0
  6
CONTINUOUS
 62
     7
 10
74.910224727295855
 20
107.3711520180054
 30
0.0
 11
74.946869486699313
 21
107.3354161714129
 31
0.0
  0
LINE
  5
1F65
  8
0
  6
CONTINUOUS
 62
     7
 10
74.946869486699313
 20
107.3354161714129
 30
0.0
 11
74.988800319927435
 21
107.2986866058598
 31
0.0
  0
LINE
  5
1F66
  8
0
  6
CONTINUOUS
 62
     7
 10
74.988800319927435
 20
107.2986866058598
 30
0.0
 11
75.035885468013504
 21
107.26201875938951
 31
0.0
  0
LINE
  5
1F67
  8
0
  6
CONTINUOUS
 62
     7
 10
75.035885468013504
 20
107.26201875938951
 30
0.0
 11
75.061368612541969
 21
107.2439721000739
 31
0.0
  0
LINE
  5
1F68
  8
0
  6
CONTINUOUS
 62
     7
 10
75.061368612541969
 20
107.2439721000739
 30
0.0
 11
75.088126323525785
 21
107.2262672190066
 31
0.0
  0
LINE
  5
1F69
  8
0
  6
CONTINUOUS
 62
     7
 10
75.088126323525785
 20
107.2262672190066
 30
0.0
 11
75.145406724443802
 21
107.1923048669756
 31
0.0
  0
LINE
  5
1F6A
  8
0
  6
CONTINUOUS
 62
     7
 10
75.145406724443802
 20
107.1923048669756
 30
0.0
 11
75.207607981517498
 21
107.1609390356697
 31
0.0
  0
LINE
  5
1F6B
  8
0
  6
CONTINUOUS
 62
     7
 10
75.207607981517498
 20
107.1609390356697
 30
0.0
 11
75.274608655568358
 21
107.13293502674
 31
0.0
  0
LINE
  5
1F6C
  8
0
  6
CONTINUOUS
 62
     7
 10
75.274608655568358
 20
107.13293502674
 30
0.0
 11
75.346294855135937
 21
107.1090365177013
 31
0.0
  0
LINE
  5
1F6D
  8
0
  6
CONTINUOUS
 62
     7
 10
75.346294855135937
 20
107.1090365177013
 30
0.0
 11
75.422519321285961
 21
107.09000251965659
 31
0.0
  0
LINE
  5
1F6E
  8
0
  6
CONTINUOUS
 62
     7
 10
75.422519321285961
 20
107.09000251965659
 30
0.0
 11
75.462272860746424
 21
107.0825552720334
 31
0.0
  0
LINE
  5
1F6F
  8
0
  6
CONTINUOUS
 62
     7
 10
75.462272860746424
 20
107.0825552720334
 30
0.0
 11
75.503085964847884
 21
107.07662294506279
 31
0.0
  0
LINE
  5
1F70
  8
0
  6
CONTINUOUS
 62
     7
 10
75.503085964847884
 20
107.07662294506279
 30
0.0
 11
75.587848733066465
 21
107.0697262452524
 31
0.0
  0
LINE
  5
1F71
  8
0
  6
CONTINUOUS
 62
     7
 10
75.587848733066465
 20
107.0697262452524
 30
0.0
 11
75.67658705676098
 21
107.0702349731107
 31
0.0
  0
LINE
  5
1F72
  8
0
  6
CONTINUOUS
 62
     7
 10
75.67658705676098
 20
107.0702349731107
 30
0.0
 11
75.722336488345974
 21
107.0735831657809
 31
0.0
  0
LINE
  5
1FA3
  8
0
  6
CONTINUOUS
 62
     7
 10
84.322244038468398
 20
107.90166007836901
 30
0.0
 11
84.372216370533067
 21
107.9064718666598
 31
0.0
  0
LINE
  5
1FA4
  8
0
  6
CONTINUOUS
 62
     7
 10
84.372216370533067
 20
107.9064718666598
 30
0.0
 11
84.472239031452844
 21
107.9161029534779
 31
0.0
  0
LINE
  5
1FA5
  8
0
  6
CONTINUOUS
 62
     7
 10
84.472239031452844
 20
107.9161029534779
 30
0.0
 11
84.572364841274862
 21
107.9257439724057
 31
0.0
  0
LINE
  5
1FA6
  8
0
  6
CONTINUOUS
 62
     7
 10
84.572364841274862
 20
107.9257439724057
 30
0.0
 11
84.62246610922179
 21
107.9305681758098
 31
0.0
  0
LINE
  5
1FA7
  8
0
  6
CONTINUOUS
 62
     7
 10
82.13649473902899
 20
107.69119635872759
 30
0.0
 11
82.198241799493616
 21
107.6971419244087
 31
0.0
  0
LINE
  5
1FA8
  8
0
  6
CONTINUOUS
 62
     7
 10
82.198241799493616
 20
107.6971419244087
 30
0.0
 11
82.321716702220016
 21
107.7090312052685
 31
0.0
  0
LINE
  5
1FA9
  8
0
  6
CONTINUOUS
 62
     7
 10
82.321716702220016
 20
107.7090312052685
 30
0.0
 11
82.445133956319324
 21
107.7209149351969
 31
0.0
  0
LINE
  5
1FAA
  8
0
  6
CONTINUOUS
 62
     7
 10
82.445133956319324
 20
107.7209149351969
 30
0.0
 11
82.506808960205447
 21
107.7268535626187
 31
0.0
  0
LINE
  5
1FAB
  8
0
  6
CONTINUOUS
 62
     7
 10
82.506808960205447
 20
107.7268535626187
 30
0.0
 11
82.568455149309898
 21
107.7327894154926
 31
0.0
  0
LINE
  5
1FAC
  8
0
  6
CONTINUOUS
 62
     7
 10
82.568455149309898
 20
107.7327894154926
 30
0.0
 11
82.691641898608225
 21
107.744650950333
 31
0.0
  0
LINE
  5
1FAD
  8
0
  6
CONTINUOUS
 62
     7
 10
82.691641898608225
 20
107.744650950333
 30
0.0
 11
82.814655863475167
 21
107.75649584792509
 31
0.0
  0
LINE
  5
1FAE
  8
0
  6
CONTINUOUS
 62
     7
 10
82.814655863475167
 20
107.75649584792509
 30
0.0
 11
82.937458756949155
 21
107.7683204216536
 31
0.0
  0
LINE
  5
1FAF
  8
0
  6
CONTINUOUS
 62
     7
 10
82.937458756949155
 20
107.7683204216536
 30
0.0
 11
83.060012357762616
 21
107.7801209912291
 31
0.0
  0
LINE
  5
1FB0
  8
0
  6
CONTINUOUS
 62
     7
 10
83.060012357762616
 20
107.7801209912291
 30
0.0
 11
83.182278522238022
 21
107.7918938838332
 31
0.0
  0
LINE
  5
1FB1
  8
0
  6
CONTINUOUS
 62
     7
 10
83.182278522238022
 20
107.7918938838332
 30
0.0
 11
83.243291920087884
 21
107.7977688058395
 31
0.0
  0
LINE
  5
1FB2
  8
0
  6
CONTINUOUS
 62
     7
 10
83.243291920087884
 20
107.7977688058395
 30
0.0
 11
83.304219196159764
 21
107.8036354352617
 31
0.0
  0
LINE
  5
1FB3
  8
0
  6
CONTINUOUS
 62
     7
 10
83.304219196159764
 20
107.8036354352617
 30
0.0
 11
83.425796426618163
 21
107.815341991065
 31
0.0
  0
LINE
  5
1FB4
  8
0
  6
CONTINUOUS
 62
     7
 10
83.425796426618163
 20
107.815341991065
 30
0.0
 11
83.546972373822015
 21
107.82700990768571
 31
0.0
  0
LINE
  5
1FB5
  8
0
  6
CONTINUOUS
 62
     7
 10
83.546972373822015
 20
107.82700990768571
 30
0.0
 11
83.667709322875695
 21
107.8386355535924
 31
0.0
  0
LINE
  5
1FB6
  8
0
  6
CONTINUOUS
 62
     7
 10
83.667709322875695
 20
107.8386355535924
 30
0.0
 11
83.787969695517845
 21
107.85021531040999
 31
0.0
  0
LINE
  5
1FB7
  8
0
  6
CONTINUOUS
 62
     7
 10
83.787969695517845
 20
107.85021531040999
 30
0.0
 11
83.907716061817041
 21
107.861745574046
 31
0.0
  0
LINE
  5
1FB8
  8
0
  6
CONTINUOUS
 62
     7
 10
83.907716061817041
 20
107.861745574046
 30
0.0
 11
83.967384839161383
 21
107.8674910238236
 31
0.0
  0
LINE
  5
1FB9
  8
0
  6
CONTINUOUS
 62
     7
 10
83.967384839161383
 20
107.8674910238236
 30
0.0
 11
84.026911151821594
 21
107.87322275581241
 31
0.0
  0
LINE
  5
1FBA
  8
0
  6
CONTINUOUS
 62
     7
 10
84.026911151821594
 20
107.87322275581241
 30
0.0
 11
84.145517867159498
 21
107.8846432835421
 31
0.0
  0
LINE
  5
1FBB
  8
0
  6
CONTINUOUS
 62
     7
 10
84.145517867159498
 20
107.8846432835421
 30
0.0
 11
84.263499292584896
 21
107.8960036027013
 31
0.0
  0
LINE
  5
1FBC
  8
0
  6
CONTINUOUS
 62
     7
 10
84.263499292584896
 20
107.8960036027013
 30
0.0
 11
84.322244038468398
 21
107.90166007836901
 31
0.0
  0
LINE
  5
1FBD
  8
0
  6
CONTINUOUS
 62
     7
 10
75.722336488345974
 20
107.0735831657809
 30
0.0
 11
75.823564026406785
 21
107.08333026907221
 31
0.0
  0
LINE
  5
1FBE
  8
0
  6
CONTINUOUS
 62
     7
 10
75.823564026406785
 20
107.08333026907221
 30
0.0
 11
76.043917384363567
 21
107.10454788417699
 31
0.0
  0
LINE
  5
1FBF
  8
0
  6
CONTINUOUS
 62
     7
 10
76.043917384363567
 20
107.10454788417699
 30
0.0
 11
76.284940681189056
 21
107.1277557880217
 31
0.0
  0
LINE
  5
1FC0
  8
0
  6
CONTINUOUS
 62
     7
 10
76.284940681189056
 20
107.1277557880217
 30
0.0
 11
76.411691850661072
 21
107.13996053748809
 31
0.0
  0
LINE
  5
1FC1
  8
0
  6
CONTINUOUS
 62
     7
 10
76.411691850661072
 20
107.13996053748809
 30
0.0
 11
76.541625098932343
 21
107.1524716862934
 31
0.0
  0
LINE
  5
1FC2
  8
0
  6
CONTINUOUS
 62
     7
 10
76.541625098932343
 20
107.1524716862934
 30
0.0
 11
76.807652148123225
 21
107.1780871776548
 31
0.0
  0
LINE
  5
1FC3
  8
0
  6
CONTINUOUS
 62
     7
 10
76.807652148123225
 20
107.1780871776548
 30
0.0
 11
77.084558459874529
 21
107.20475022285321
 31
0.0
  0
LINE
  5
1FC4
  8
0
  6
CONTINUOUS
 62
     7
 10
77.084558459874529
 20
107.20475022285321
 30
0.0
 11
77.387830576242123
 21
107.2339520062831
 31
0.0
  0
LINE
  5
1FC5
  8
0
  6
CONTINUOUS
 62
     7
 10
77.387830576242123
 20
107.2339520062831
 30
0.0
 11
77.713842322709723
 21
107.2653433670517
 31
0.0
  0
LINE
  5
1FC6
  8
0
  6
CONTINUOUS
 62
     7
 10
77.713842322709723
 20
107.2653433670517
 30
0.0
 11
78.0571299591806
 21
107.2983982068254
 31
0.0
  0
LINE
  5
1FC7
  8
0
  6
CONTINUOUS
 62
     7
 10
78.0571299591806
 20
107.2983982068254
 30
0.0
 11
78.233335414193164
 21
107.3153648623758
 31
0.0
  0
LINE
  5
1FC8
  8
0
  6
CONTINUOUS
 62
     7
 10
78.233335414193164
 20
107.3153648623758
 30
0.0
 11
78.411432342736362
 21
107.3325136461121
 31
0.0
  0
LINE
  5
1FC9
  8
0
  6
CONTINUOUS
 62
     7
 10
78.411432342736362
 20
107.3325136461121
 30
0.0
 11
78.769530967329075
 21
107.366994621835
 31
0.0
  0
LINE
  5
1FCA
  8
0
  6
CONTINUOUS
 62
     7
 10
78.769530967329075
 20
107.366994621835
 30
0.0
 11
79.123824341904054
 21
107.4011091936555
 31
0.0
  0
LINE
  5
1FCB
  8
0
  6
CONTINUOUS
 62
     7
 10
79.123824341904054
 20
107.4011091936555
 30
0.0
 11
79.490682278869429
 21
107.4364335952296
 31
0.0
  0
LINE
  5
1FCC
  8
0
  6
CONTINUOUS
 62
     7
 10
79.490682278869429
 20
107.4364335952296
 30
0.0
 11
79.877862015283057
 21
107.4737147635303
 31
0.0
  0
LINE
  5
1FCD
  8
0
  6
CONTINUOUS
 62
     7
 10
79.877862015283057
 20
107.4737147635303
 30
0.0
 11
80.278470543389318
 21
107.5122889774014
 31
0.0
  0
LINE
  5
1FCE
  8
0
  6
CONTINUOUS
 62
     7
 10
80.278470543389318
 20
107.5122889774014
 30
0.0
 11
80.481546377902816
 21
107.5318429562187
 31
0.0
  0
LINE
  5
1FCF
  8
0
  6
CONTINUOUS
 62
     7
 10
80.481546377902816
 20
107.5318429562187
 30
0.0
 11
80.685260778398913
 21
107.55145842194661
 31
0.0
  0
LINE
  5
1FD0
  8
0
  6
CONTINUOUS
 62
     7
 10
80.685260778398913
 20
107.55145842194661
 30
0.0
 11
81.090738646655069
 21
107.5905014999461
 31
0.0
  0
LINE
  5
1FD1
  8
0
  6
CONTINUOUS
 62
     7
 10
81.090738646655069
 20
107.5905014999461
 30
0.0
 11
81.487049760181407
 21
107.62866191985771
 31
0.0
  0
LINE
  5
1FD2
  8
0
  6
CONTINUOUS
 62
     7
 10
81.487049760181407
 20
107.62866191985771
 30
0.0
 11
81.679270902390869
 21
107.64717071068451
 31
0.0
  0
LINE
  5
1FD3
  8
0
  6
CONTINUOUS
 62
     7
 10
81.679270902390869
 20
112.7889597319144
 30
0.0
 11
81.487049760181407
 21
112.8074685227412
 31
0.0
  0
LINE
  5
1FD4
  8
0
  6
CONTINUOUS
 62
     7
 10
81.487049760181407
 20
112.8074685227412
 30
0.0
 11
81.090738646655069
 21
112.8456289426527
 31
0.0
  0
LINE
  5
1FD5
  8
0
  6
CONTINUOUS
 62
     7
 10
81.090738646655069
 20
112.8456289426527
 30
0.0
 11
80.685260778398941
 21
112.8846720206523
 31
0.0
  0
LINE
  5
1FD6
  8
0
  6
CONTINUOUS
 62
     7
 10
80.685260778398941
 20
112.8846720206523
 30
0.0
 11
80.481546377902816
 21
112.9042874863802
 31
0.0
  0
LINE
  5
1FD7
  8
0
  6
CONTINUOUS
 62
     7
 10
80.481546377902816
 20
112.9042874863802
 30
0.0
 11
80.278470543389318
 21
112.9238414651974
 31
0.0
  0
LINE
  5
1FD8
  8
0
  6
CONTINUOUS
 62
     7
 10
80.278470543389318
 20
112.9238414651974
 30
0.0
 11
79.877862015283029
 21
112.9624156790686
 31
0.0
  0
LINE
  5
1FD9
  8
0
  6
CONTINUOUS
 62
     7
 10
79.877862015283029
 20
112.9624156790686
 30
0.0
 11
79.490682278869429
 21
112.99969684736929
 31
0.0
  0
LINE
  5
1FDA
  8
0
  6
CONTINUOUS
 62
     7
 10
79.490682278869429
 20
112.99969684736929
 30
0.0
 11
79.123824341904054
 21
113.03502124894339
 31
0.0
  0
LINE
  5
1FDB
  8
0
  6
CONTINUOUS
 62
     7
 10
79.123824341904054
 20
113.03502124894339
 30
0.0
 11
78.769530967329075
 21
113.0691358207639
 31
0.0
  0
LINE
  5
1FDC
  8
0
  6
CONTINUOUS
 62
     7
 10
78.769530967329075
 20
113.0691358207639
 30
0.0
 11
78.411432342736362
 21
113.1036167964868
 31
0.0
  0
LINE
  5
1FDD
  8
0
  6
CONTINUOUS
 62
     7
 10
78.411432342736362
 20
113.1036167964868
 30
0.0
 11
78.233335414193135
 21
113.12076558022309
 31
0.0
  0
LINE
  5
1FDE
  8
0
  6
CONTINUOUS
 62
     7
 10
78.233335414193135
 20
113.12076558022309
 30
0.0
 11
78.0571299591806
 21
113.1377322357735
 31
0.0
  0
LINE
  5
1FDF
  8
0
  6
CONTINUOUS
 62
     7
 10
78.0571299591806
 20
113.1377322357735
 30
0.0
 11
77.713842322709723
 21
113.1707870755472
 31
0.0
  0
LINE
  5
1FE0
  8
0
  6
CONTINUOUS
 62
     7
 10
77.713842322709723
 20
113.1707870755472
 30
0.0
 11
77.387830576242123
 21
113.2021784363158
 31
0.0
  0
LINE
  5
1FE1
  8
0
  6
CONTINUOUS
 62
     7
 10
77.387830576242123
 20
113.2021784363158
 30
0.0
 11
77.084558459874529
 21
113.2313802197457
 31
0.0
  0
LINE
  5
1FE2
  8
0
  6
CONTINUOUS
 62
     7
 10
77.084558459874529
 20
113.2313802197457
 30
0.0
 11
76.807652148123225
 21
113.25804326494411
 31
0.0
  0
LINE
  5
1FE3
  8
0
  6
CONTINUOUS
 62
     7
 10
76.807652148123225
 20
113.25804326494411
 30
0.0
 11
76.541625098932343
 21
113.2836587563055
 31
0.0
  0
LINE
  5
1FE4
  8
0
  6
CONTINUOUS
 62
     7
 10
76.541625098932343
 20
113.2836587563055
 30
0.0
 11
76.411691850661072
 21
113.2961699051108
 31
0.0
  0
LINE
  5
1FE5
  8
0
  6
CONTINUOUS
 62
     7
 10
76.411691850661072
 20
113.2961699051108
 30
0.0
 11
76.284940681189056
 21
113.30837465457709
 31
0.0
  0
LINE
  5
1FE6
  8
0
  6
CONTINUOUS
 62
     7
 10
76.284940681189056
 20
113.30837465457709
 30
0.0
 11
76.043917384363567
 21
113.3315825584219
 31
0.0
  0
LINE
  5
1FE7
  8
0
  6
CONTINUOUS
 62
     7
 10
76.043917384363567
 20
113.3315825584219
 30
0.0
 11
75.823564026406785
 21
113.3528001735267
 31
0.0
  0
LINE
  5
1FE8
  8
0
  6
CONTINUOUS
 62
     7
 10
75.823564026406785
 20
113.3528001735267
 30
0.0
 11
75.722336488345974
 21
113.36254727681801
 31
0.0
  0
LINE
  5
1FE9
  8
0
  6
CONTINUOUS
 62
     7
 10
84.322244038468398
 20
112.5344703642298
 30
0.0
 11
84.263499292584896
 21
112.5401268398976
 31
0.0
  0
LINE
  5
1FEA
  8
0
  6
CONTINUOUS
 62
     7
 10
84.263499292584896
 20
112.5401268398976
 30
0.0
 11
84.145517867159498
 21
112.5514871590568
 31
0.0
  0
LINE
  5
1FEB
  8
0
  6
CONTINUOUS
 62
     7
 10
84.145517867159498
 20
112.5514871590568
 30
0.0
 11
84.026911151821594
 21
112.5629076867865
 31
0.0
  0
LINE
  5
1FEC
  8
0
  6
CONTINUOUS
 62
     7
 10
84.026911151821594
 20
112.5629076867865
 30
0.0
 11
83.967384839161383
 21
112.56863941877531
 31
0.0
  0
LINE
  5
1FED
  8
0
  6
CONTINUOUS
 62
     7
 10
83.967384839161383
 20
112.56863941877531
 30
0.0
 11
83.907716061817055
 21
112.5743848685528
 31
0.0
  0
LINE
  5
1FEE
  8
0
  6
CONTINUOUS
 62
     7
 10
83.907716061817055
 20
112.5743848685528
 30
0.0
 11
83.787969695517845
 21
112.5859151321889
 31
0.0
  0
LINE
  5
1FEF
  8
0
  6
CONTINUOUS
 62
     7
 10
83.787969695517845
 20
112.5859151321889
 30
0.0
 11
83.667709322875695
 21
112.5974948890065
 31
0.0
  0
LINE
  5
1FF0
  8
0
  6
CONTINUOUS
 62
     7
 10
83.667709322875695
 20
112.5974948890065
 30
0.0
 11
83.546972373822015
 21
112.6091205349132
 31
0.0
  0
LINE
  5
1FF1
  8
0
  6
CONTINUOUS
 62
     7
 10
83.546972373822015
 20
112.6091205349132
 30
0.0
 11
83.425796426618163
 21
112.6207884515339
 31
0.0
  0
LINE
  5
1FF2
  8
0
  6
CONTINUOUS
 62
     7
 10
83.425796426618163
 20
112.6207884515339
 30
0.0
 11
83.304219196159764
 21
112.6324950073372
 31
0.0
  0
LINE
  5
1FF3
  8
0
  6
CONTINUOUS
 62
     7
 10
83.304219196159764
 20
112.6324950073372
 30
0.0
 11
83.243291920087884
 21
112.6383616367594
 31
0.0
  0
LINE
  5
1FF4
  8
0
  6
CONTINUOUS
 62
     7
 10
83.243291920087884
 20
112.6383616367594
 30
0.0
 11
83.182278522238022
 21
112.6442365587657
 31
0.0
  0
LINE
  5
1FF5
  8
0
  6
CONTINUOUS
 62
     7
 10
83.182278522238022
 20
112.6442365587657
 30
0.0
 11
83.060012357762616
 21
112.6560094513698
 31
0.0
  0
LINE
  5
1FF6
  8
0
  6
CONTINUOUS
 62
     7
 10
83.060012357762616
 20
112.6560094513698
 30
0.0
 11
82.937458756949155
 21
112.6678100209453
 31
0.0
  0
LINE
  5
1FF7
  8
0
  6
CONTINUOUS
 62
     7
 10
82.937458756949155
 20
112.6678100209453
 30
0.0
 11
82.814655863475167
 21
112.6796345946738
 31
0.0
  0
LINE
  5
1FF8
  8
0
  6
CONTINUOUS
 62
     7
 10
82.814655863475167
 20
112.6796345946738
 30
0.0
 11
82.691641898608225
 21
112.6914794922659
 31
0.0
  0
LINE
  5
1FF9
  8
0
  6
CONTINUOUS
 62
     7
 10
82.691641898608225
 20
112.6914794922659
 30
0.0
 11
82.568455149309898
 21
112.7033410271063
 31
0.0
  0
LINE
  5
1FFA
  8
0
  6
CONTINUOUS
 62
     7
 10
82.568455149309898
 20
112.7033410271063
 30
0.0
 11
82.506808960205447
 21
112.70927687998019
 31
0.0
  0
LINE
  5
1FFB
  8
0
  6
CONTINUOUS
 62
     7
 10
82.506808960205447
 20
112.70927687998019
 30
0.0
 11
82.445133956319324
 21
112.71521550740199
 31
0.0
  0
LINE
  5
1FFC
  8
0
  6
CONTINUOUS
 62
     7
 10
82.445133956319324
 20
112.71521550740199
 30
0.0
 11
82.321716702220016
 21
112.72709923733029
 31
0.0
  0
LINE
  5
1FFD
  8
0
  6
CONTINUOUS
 62
     7
 10
82.321716702220016
 20
112.72709923733029
 30
0.0
 11
82.198241799493616
 21
112.7389885181901
 31
0.0
  0
LINE
  5
1FFE
  8
0
  6
CONTINUOUS
 62
     7
 10
82.198241799493616
 20
112.7389885181901
 30
0.0
 11
82.13649473902899
 21
112.7449340838713
 31
0.0
  0
LINE
  5
1FFF
  8
0
  6
CONTINUOUS
 62
     7
 10
84.62246610922179
 20
112.5055622667891
 30
0.0
 11
84.572364841274819
 21
112.5103864701932
 31
0.0
  0
LINE
  5
2000
  8
0
  6
CONTINUOUS
 62
     7
 10
84.572364841274819
 20
112.5103864701932
 30
0.0
 11
84.472239031452844
 21
112.52002748912101
 31
0.0
  0
LINE
  5
2001
  8
0
  6
CONTINUOUS
 62
     7
 10
84.472239031452844
 20
112.52002748912101
 30
0.0
 11
84.372216370533067
 21
112.5296585759391
 31
0.0
  0
LINE
  5
2002
  8
0
  6
CONTINUOUS
 62
     7
 10
84.372216370533067
 20
112.5296585759391
 30
0.0
 11
84.322244038468398
 21
112.5344703642298
 31
0.0
  0
LINE
  5
201D
  8
0
  6
CONTINUOUS
 62
     7
 10
89.404540221495225
 20
114.49518257132431
 30
0.0
 11
89.306092314484033
 21
114.3783364202982
 31
0.0
  0
LINE
  5
201E
  8
0
  6
CONTINUOUS
 62
     7
 10
89.306092314484033
 20
114.3783364202982
 30
0.0
 11
89.09789603535674
 21
114.15125995719519
 31
0.0
  0
LINE
  5
201F
  8
0
  6
CONTINUOUS
 62
     7
 10
89.09789603535674
 20
114.15125995719519
 30
0.0
 11
88.875960493876335
 21
113.9349515361922
 31
0.0
  0
LINE
  5
2020
  8
0
  6
CONTINUOUS
 62
     7
 10
88.875960493876335
 20
113.9349515361922
 30
0.0
 11
88.760414129909748
 21
113.8314885947499
 31
0.0
  0
LINE
  5
2021
  8
0
  6
CONTINUOUS
 62
     7
 10
88.760414129909748
 20
113.8314885947499
 30
0.0
 11
88.642125445853694
 21
113.73143093828961
 31
0.0
  0
LINE
  5
2022
  8
0
  6
CONTINUOUS
 62
     7
 10
88.642125445853694
 20
113.73143093828961
 30
0.0
 11
88.398411931978984
 21
113.5422985516558
 31
0.0
  0
LINE
  5
2023
  8
0
  6
CONTINUOUS
 62
     7
 10
88.398411931978984
 20
113.5422985516558
 30
0.0
 11
88.147239500770638
 21
113.3689222593494
 31
0.0
  0
LINE
  5
2024
  8
0
  6
CONTINUOUS
 62
     7
 10
88.147239500770638
 20
113.3689222593494
 30
0.0
 11
87.891270910418257
 21
113.2122923294047
 31
0.0
  0
LINE
  5
2025
  8
0
  6
CONTINUOUS
 62
     7
 10
87.891270910418257
 20
113.2122923294047
 30
0.0
 11
87.633396403148851
 21
113.07301774433429
 31
0.0
  0
LINE
  5
2026
  8
0
  6
CONTINUOUS
 62
     7
 10
87.633396403148851
 20
113.07301774433429
 30
0.0
 11
87.374549144591398
 21
112.95036260372
 31
0.0
  0
LINE
  5
2027
  8
0
  6
CONTINUOUS
 62
     7
 10
87.374549144591398
 20
112.95036260372
 30
0.0
 11
87.241162971805892
 21
112.89345076086811
 31
0.0
  0
LINE
  5
2028
  8
0
  6
CONTINUOUS
 62
     7
 10
87.241162971805892
 20
112.89345076086811
 30
0.0
 11
87.104816656957553
 21
112.83950238109171
 31
0.0
  0
LINE
  5
2029
  8
0
  6
CONTINUOUS
 62
     7
 10
87.104816656957553
 20
112.83950238109171
 30
0.0
 11
86.824366336631186
 21
112.7414230592649
 31
0.0
  0
LINE
  5
202A
  8
0
  6
CONTINUOUS
 62
     7
 10
86.824366336631186
 20
112.7414230592649
 30
0.0
 11
86.535501598920547
 21
112.6577113248273
 31
0.0
  0
LINE
  5
202B
  8
0
  6
CONTINUOUS
 62
     7
 10
86.535501598920547
 20
112.6577113248273
 30
0.0
 11
86.240627066734476
 21
112.5895365183079
 31
0.0
  0
LINE
  5
202C
  8
0
  6
CONTINUOUS
 62
     7
 10
86.240627066734476
 20
112.5895365183079
 30
0.0
 11
85.942241516671089
 21
112.537654880639
 31
0.0
  0
LINE
  5
202D
  8
0
  6
CONTINUOUS
 62
     7
 10
85.942241516671089
 20
112.537654880639
 30
0.0
 11
85.642740504767261
 21
112.5023923322475
 31
0.0
  0
LINE
  5
202E
  8
0
  6
CONTINUOUS
 62
     7
 10
85.642740504767261
 20
112.5023923322475
 30
0.0
 11
85.493357067302867
 21
112.49099338741939
 31
0.0
  0
LINE
  5
202F
  8
0
  6
CONTINUOUS
 62
     7
 10
85.493357067302867
 20
112.49099338741939
 30
0.0
 11
85.344650979401649
 21
112.4837004420433
 31
0.0
  0
LINE
  5
2030
  8
0
  6
CONTINUOUS
 62
     7
 10
85.344650979401649
 20
112.4837004420433
 30
0.0
 11
85.050552606395783
 21
112.4811336031176
 31
0.0
  0
LINE
  5
2031
  8
0
  6
CONTINUOUS
 62
     7
 10
85.050552606395783
 20
112.4811336031176
 30
0.0
 11
84.762995895500609
 21
112.49384695500579
 31
0.0
  0
LINE
  5
2032
  8
0
  6
CONTINUOUS
 62
     7
 10
84.762995895500609
 20
112.49384695500579
 30
0.0
 11
84.62246610922179
 21
112.5055622667891
 31
0.0
  0
LINE
  5
2049
  8
0
  6
CONTINUOUS
 62
     7
 10
104.6305153624297
 20
112.5055622667891
 30
0.0
 11
104.4899855774872
 21
112.4938469551
 31
0.0
  0
LINE
  5
204A
  8
0
  6
CONTINUOUS
 62
     7
 10
104.4899855774872
 20
112.4938469551
 30
0.0
 11
104.2024288693752
 21
112.48113360319179
 31
0.0
  0
LINE
  5
204B
  8
0
  6
CONTINUOUS
 62
     7
 10
104.2024288693752
 20
112.48113360319179
 30
0.0
 11
103.9083304992397
 21
112.48370044179531
 31
0.0
  0
LINE
  5
204C
  8
0
  6
CONTINUOUS
 62
     7
 10
103.9083304992397
 20
112.48370044179531
 30
0.0
 11
103.75962441278401
 21
112.49099338689111
 31
0.0
  0
LINE
  5
204D
  8
0
  6
CONTINUOUS
 62
     7
 10
103.75962441278401
 20
112.49099338689111
 30
0.0
 11
103.6102409767595
 21
112.50239233135861
 31
0.0
  0
LINE
  5
204E
  8
0
  6
CONTINUOUS
 62
     7
 10
103.6102409767595
 20
112.50239233135861
 30
0.0
 11
103.310739967682
 21
112.5376548787892
 31
0.0
  0
LINE
  5
204F
  8
0
  6
CONTINUOUS
 62
     7
 10
103.310739967682
 20
112.5376548787892
 30
0.0
 11
103.0123544203221
 21
112.5895365151901
 31
0.0
  0
LINE
  5
2050
  8
0
  6
CONTINUOUS
 62
     7
 10
103.0123544203221
 20
112.5895365151901
 30
0.0
 11
102.7174798906449
 21
112.6577113201629
 31
0.0
  0
LINE
  5
2051
  8
0
  6
CONTINUOUS
 62
     7
 10
102.7174798906449
 20
112.6577113201629
 30
0.0
 11
102.4286151551786
 21
112.74142305282071
 31
0.0
  0
LINE
  5
2052
  8
0
  6
CONTINUOUS
 62
     7
 10
102.4286151551786
 20
112.74142305282071
 30
0.0
 11
102.1481648367723
 21
112.8395023726946
 31
0.0
  0
LINE
  5
2053
  8
0
  6
CONTINUOUS
 62
     7
 10
102.1481648367723
 20
112.8395023726946
 30
0.0
 11
102.0118185227437
 21
112.8934507514531
 31
0.0
  0
LINE
  5
2054
  8
0
  6
CONTINUOUS
 62
     7
 10
102.0118185227437
 20
112.8934507514531
 30
0.0
 11
101.8784323506756
 21
112.95036259327389
 31
0.0
  0
LINE
  5
2055
  8
0
  6
CONTINUOUS
 62
     7
 10
101.8784323506756
 20
112.95036259327389
 30
0.0
 11
101.6195850940273
 21
113.07301773141511
 31
0.0
  0
LINE
  5
2056
  8
0
  6
CONTINUOUS
 62
     7
 10
101.6195850940273
 20
113.07301773141511
 30
0.0
 11
101.36171058914729
 21
113.2122923133537
 31
0.0
  0
LINE
  5
2057
  8
0
  6
CONTINUOUS
 62
     7
 10
101.36171058914729
 20
113.2122923133537
 30
0.0
 11
101.1057420008224
 21
113.3689222398858
 31
0.0
  0
LINE
  5
2058
  8
0
  6
CONTINUOUS
 62
     7
 10
101.1057420008224
 20
113.3689222398858
 30
0.0
 11
100.854569571225
 21
113.54229852855769
 31
0.0
  0
LINE
  5
2059
  8
0
  6
CONTINUOUS
 62
     7
 10
100.854569571225
 20
113.54229852855769
 30
0.0
 11
100.6108560584954
 21
113.7314309114124
 31
0.0
  0
LINE
  5
205A
  8
0
  6
CONTINUOUS
 62
     7
 10
100.6108560584954
 20
113.7314309114124
 30
0.0
 11
100.492567374826
 21
113.8314885659556
 31
0.0
  0
LINE
  5
205B
  8
0
  6
CONTINUOUS
 62
     7
 10
100.492567374826
 20
113.8314885659556
 30
0.0
 11
100.37702101112779
 21
113.9349515054692
 31
0.0
  0
LINE
  5
205C
  8
0
  6
CONTINUOUS
 62
     7
 10
100.37702101112779
 20
113.9349515054692
 30
0.0
 11
100.1550854698
 21
114.1512599226461
 31
0.0
  0
LINE
  5
205D
  8
0
  6
CONTINUOUS
 62
     7
 10
100.1550854698
 20
114.1512599226461
 30
0.0
 11
99.946889190298535
 21
114.37833638206619
 31
0.0
  0
LINE
  5
205E
  8
0
  6
CONTINUOUS
 62
     7
 10
99.946889190298535
 20
114.37833638206619
 30
0.0
 11
99.848441282906492
 21
114.4951825313394
 31
0.0
  0
LINE
  5
2075
  8
0
  6
CONTINUOUS
 62
     7
 10
104.9307374331831
 20
112.5344703642298
 30
0.0
 11
104.8807651011184
 21
112.5296585759391
 31
0.0
  0
LINE
  5
2076
  8
0
  6
CONTINUOUS
 62
     7
 10
104.8807651011184
 20
112.5296585759391
 30
0.0
 11
104.78074244019869
 21
112.52002748912101
 31
0.0
  0
LINE
  5
2077
  8
0
  6
CONTINUOUS
 62
     7
 10
104.78074244019869
 20
112.52002748912101
 30
0.0
 11
104.6806166303766
 21
112.5103864701932
 31
0.0
  0
LINE
  5
2078
  8
0
  6
CONTINUOUS
 62
     7
 10
104.6806166303766
 20
112.5103864701932
 30
0.0
 11
104.6305153624297
 21
112.5055622667891
 31
0.0
  0
LINE
  5
2079
  8
0
  6
CONTINUOUS
 62
     7
 10
107.1164867326226
 20
112.7449340838713
 30
0.0
 11
107.05473967215789
 21
112.7389885181902
 31
0.0
  0
LINE
  5
207A
  8
0
  6
CONTINUOUS
 62
     7
 10
107.05473967215789
 20
112.7389885181902
 30
0.0
 11
106.93126476943149
 21
112.72709923733041
 31
0.0
  0
LINE
  5
207B
  8
0
  6
CONTINUOUS
 62
     7
 10
106.93126476943149
 20
112.72709923733041
 30
0.0
 11
106.8078475153322
 21
112.71521550740199
 31
0.0
  0
LINE
  5
207C
  8
0
  6
CONTINUOUS
 62
     7
 10
106.8078475153322
 20
112.71521550740199
 30
0.0
 11
106.7461725114461
 21
112.70927687998019
 31
0.0
  0
LINE
  5
207D
  8
0
  6
CONTINUOUS
 62
     7
 10
106.7461725114461
 20
112.70927687998019
 30
0.0
 11
106.6845263223417
 21
112.7033410271063
 31
0.0
  0
LINE
  5
207E
  8
0
  6
CONTINUOUS
 62
     7
 10
106.6845263223417
 20
112.7033410271063
 30
0.0
 11
106.5613395730433
 21
112.6914794922659
 31
0.0
  0
LINE
  5
207F
  8
0
  6
CONTINUOUS
 62
     7
 10
106.5613395730433
 20
112.6914794922659
 30
0.0
 11
106.4383256081764
 21
112.6796345946738
 31
0.0
  0
LINE
  5
2080
  8
0
  6
CONTINUOUS
 62
     7
 10
106.4383256081764
 20
112.6796345946738
 30
0.0
 11
106.3155227147024
 21
112.6678100209453
 31
0.0
  0
LINE
  5
2081
  8
0
  6
CONTINUOUS
 62
     7
 10
106.3155227147024
 20
112.6678100209453
 30
0.0
 11
106.19296911388891
 21
112.6560094513698
 31
0.0
  0
LINE
  5
2082
  8
0
  6
CONTINUOUS
 62
     7
 10
106.19296911388891
 20
112.6560094513698
 30
0.0
 11
106.0707029494135
 21
112.6442365587657
 31
0.0
  0
LINE
  5
2083
  8
0
  6
CONTINUOUS
 62
     7
 10
106.0707029494135
 20
112.6442365587657
 30
0.0
 11
106.0096895515636
 21
112.6383616367594
 31
0.0
  0
LINE
  5
2084
  8
0
  6
CONTINUOUS
 62
     7
 10
106.0096895515636
 20
112.6383616367594
 30
0.0
 11
105.9487622754917
 21
112.6324950073372
 31
0.0
  0
LINE
  5
2085
  8
0
  6
CONTINUOUS
 62
     7
 10
105.9487622754917
 20
112.6324950073372
 30
0.0
 11
105.8271850450333
 21
112.6207884515339
 31
0.0
  0
LINE
  5
2086
  8
0
  6
CONTINUOUS
 62
     7
 10
105.8271850450333
 20
112.6207884515339
 30
0.0
 11
105.70600909782949
 21
112.6091205349132
 31
0.0
  0
LINE
  5
2087
  8
0
  6
CONTINUOUS
 62
     7
 10
105.70600909782949
 20
112.6091205349132
 30
0.0
 11
105.5852721487758
 21
112.5974948890065
 31
0.0
  0
LINE
  5
2088
  8
0
  6
CONTINUOUS
 62
     7
 10
105.5852721487758
 20
112.5974948890065
 30
0.0
 11
105.46501177613359
 21
112.5859151321889
 31
0.0
  0
LINE
  5
2089
  8
0
  6
CONTINUOUS
 62
     7
 10
105.46501177613359
 20
112.5859151321889
 30
0.0
 11
105.3452654098344
 21
112.5743848685528
 31
0.0
  0
LINE
  5
208A
  8
0
  6
CONTINUOUS
 62
     7
 10
105.3452654098344
 20
112.5743848685528
 30
0.0
 11
105.2855966324901
 21
112.56863941877531
 31
0.0
  0
LINE
  5
208B
  8
0
  6
CONTINUOUS
 62
     7
 10
105.2855966324901
 20
112.56863941877531
 30
0.0
 11
105.2260703198299
 21
112.5629076867865
 31
0.0
  0
LINE
  5
208C
  8
0
  6
CONTINUOUS
 62
     7
 10
105.2260703198299
 20
112.5629076867865
 30
0.0
 11
105.107463604492
 21
112.5514871590568
 31
0.0
  0
LINE
  5
208D
  8
0
  6
CONTINUOUS
 62
     7
 10
105.107463604492
 20
112.5514871590568
 30
0.0
 11
104.9894821790666
 21
112.5401268398976
 31
0.0
  0
LINE
  5
208E
  8
0
  6
CONTINUOUS
 62
     7
 10
104.9894821790666
 20
112.5401268398976
 30
0.0
 11
104.9307374331831
 21
112.5344703642298
 31
0.0
  0
LINE
  5
208F
  8
0
  6
CONTINUOUS
 62
     7
 10
113.53064498330551
 20
113.36254727681801
 30
0.0
 11
113.4294174452447
 21
113.3528001735267
 31
0.0
  0
LINE
  5
2090
  8
0
  6
CONTINUOUS
 62
     7
 10
113.4294174452447
 20
113.3528001735267
 30
0.0
 11
113.2090640872879
 21
113.3315825584219
 31
0.0
  0
LINE
  5
2091
  8
0
  6
CONTINUOUS
 62
     7
 10
113.2090640872879
 20
113.3315825584219
 30
0.0
 11
112.9680407904624
 21
113.30837465457719
 31
0.0
  0
LINE
  5
2092
  8
0
  6
CONTINUOUS
 62
     7
 10
112.9680407904624
 20
113.30837465457719
 30
0.0
 11
112.84128962099039
 21
113.2961699051108
 31
0.0
  0
LINE
  5
2093
  8
0
  6
CONTINUOUS
 62
     7
 10
112.84128962099039
 20
113.2961699051108
 30
0.0
 11
112.7113563727191
 21
113.2836587563055
 31
0.0
  0
LINE
  5
2094
  8
0
  6
CONTINUOUS
 62
     7
 10
112.7113563727191
 20
113.2836587563055
 30
0.0
 11
112.4453293235283
 21
113.25804326494411
 31
0.0
  0
LINE
  5
2095
  8
0
  6
CONTINUOUS
 62
     7
 10
112.4453293235283
 20
113.25804326494411
 30
0.0
 11
112.16842301177689
 21
113.2313802197457
 31
0.0
  0
LINE
  5
2096
  8
0
  6
CONTINUOUS
 62
     7
 10
112.16842301177689
 20
113.2313802197457
 30
0.0
 11
111.8651508954094
 21
113.2021784363158
 31
0.0
  0
LINE
  5
2097
  8
0
  6
CONTINUOUS
 62
     7
 10
111.8651508954094
 20
113.2021784363158
 30
0.0
 11
111.5391391489418
 21
113.1707870755472
 31
0.0
  0
LINE
  5
2098
  8
0
  6
CONTINUOUS
 62
     7
 10
111.5391391489418
 20
113.1707870755472
 30
0.0
 11
111.1958515124709
 21
113.1377322357735
 31
0.0
  0
LINE
  5
2099
  8
0
  6
CONTINUOUS
 62
     7
 10
111.1958515124709
 20
113.1377322357735
 30
0.0
 11
111.0196460574583
 21
113.12076558022309
 31
0.0
  0
LINE
  5
209A
  8
0
  6
CONTINUOUS
 62
     7
 10
111.0196460574583
 20
113.12076558022309
 30
0.0
 11
110.8415491289151
 21
113.1036167964868
 31
0.0
  0
LINE
  5
209B
  8
0
  6
CONTINUOUS
 62
     7
 10
110.8415491289151
 20
113.1036167964868
 30
0.0
 11
110.48345050432241
 21
113.0691358207639
 31
0.0
  0
LINE
  5
209C
  8
0
  6
CONTINUOUS
 62
     7
 10
110.48345050432241
 20
113.0691358207639
 30
0.0
 11
110.1291571297474
 21
113.03502124894339
 31
0.0
  0
LINE
  5
209D
  8
0
  6
CONTINUOUS
 62
     7
 10
110.1291571297474
 20
113.03502124894339
 30
0.0
 11
109.762299192782
 21
112.99969684736929
 31
0.0
  0
LINE
  5
209E
  8
0
  6
CONTINUOUS
 62
     7
 10
109.762299192782
 20
112.99969684736929
 30
0.0
 11
109.3751194563684
 21
112.9624156790686
 31
0.0
  0
LINE
  5
209F
  8
0
  6
CONTINUOUS
 62
     7
 10
109.3751194563684
 20
112.9624156790686
 30
0.0
 11
108.97451092826221
 21
112.9238414651975
 31
0.0
  0
LINE
  5
20A0
  8
0
  6
CONTINUOUS
 62
     7
 10
108.97451092826221
 20
112.9238414651975
 30
0.0
 11
108.77143509374871
 21
112.9042874863802
 31
0.0
  0
LINE
  5
20A1
  8
0
  6
CONTINUOUS
 62
     7
 10
108.77143509374871
 20
112.9042874863802
 30
0.0
 11
108.5677206932525
 21
112.8846720206523
 31
0.0
  0
LINE
  5
20A2
  8
0
  6
CONTINUOUS
 62
     7
 10
108.5677206932525
 20
112.8846720206523
 30
0.0
 11
108.1622428249964
 21
112.8456289426527
 31
0.0
  0
LINE
  5
20A3
  8
0
  6
CONTINUOUS
 62
     7
 10
108.1622428249964
 20
112.8456289426527
 30
0.0
 11
107.7659317114701
 21
112.8074685227412
 31
0.0
  0
LINE
  5
20A4
  8
0
  6
CONTINUOUS
 62
     7
 10
107.7659317114701
 20
112.8074685227412
 30
0.0
 11
107.5737105692606
 21
112.7889597319144
 31
0.0
  0
LINE
  5
20D5
  8
0
  6
CONTINUOUS
 62
     7
 10
113.53064498330551
 20
107.0735831657809
 30
0.0
 11
113.5755655700047
 21
107.0702768921946
 31
0.0
  0
LINE
  5
20D6
  8
0
  6
CONTINUOUS
 62
     7
 10
113.5755655700047
 20
107.0702768921946
 30
0.0
 11
113.6627465200185
 21
107.0696368212167
 31
0.0
  0
LINE
  5
20D7
  8
0
  6
CONTINUOUS
 62
     7
 10
113.6627465200185
 20
107.0696368212167
 30
0.0
 11
113.7463447076782
 21
107.0761878324401
 31
0.0
  0
LINE
  5
20D8
  8
0
  6
CONTINUOUS
 62
     7
 10
113.7463447076782
 20
107.0761878324401
 30
0.0
 11
113.7869392682431
 21
107.08193515619941
 31
0.0
  0
LINE
  5
20D9
  8
0
  6
CONTINUOUS
 62
     7
 10
113.7869392682431
 20
107.08193515619941
 30
0.0
 11
113.8266959017114
 21
107.0892253687224
 31
0.0
  0
LINE
  5
20DA
  8
0
  6
CONTINUOUS
 62
     7
 10
113.8266959017114
 20
107.0892253687224
 30
0.0
 11
113.90357243879011
 21
107.10813300292151
 31
0.0
  0
LINE
  5
20DB
  8
0
  6
CONTINUOUS
 62
     7
 10
113.90357243879011
 20
107.10813300292151
 30
0.0
 11
113.97672160296079
 21
107.1323159562444
 31
0.0
  0
LINE
  5
20DC
  8
0
  6
CONTINUOUS
 62
     7
 10
113.97672160296079
 20
107.1323159562444
 30
0.0
 11
114.04587815446671
 21
107.1611720095372
 31
0.0
  0
LINE
  5
20DD
  8
0
  6
CONTINUOUS
 62
     7
 10
114.04587815446671
 20
107.1611720095372
 30
0.0
 11
114.11076195739849
 21
107.1940614343076
 31
0.0
  0
LINE
  5
20DE
  8
0
  6
CONTINUOUS
 62
     7
 10
114.11076195739849
 20
107.1940614343076
 30
0.0
 11
114.1710741151047
 21
107.2302726555705
 31
0.0
  0
LINE
  5
20DF
  8
0
  6
CONTINUOUS
 62
     7
 10
114.1710741151047
 20
107.2302726555705
 30
0.0
 11
114.19917516111759
 21
107.2492034502374
 31
0.0
  0
LINE
  5
20E0
  8
0
  6
CONTINUOUS
 62
     7
 10
114.19917516111759
 20
107.2492034502374
 30
0.0
 11
114.2256011810538
 21
107.268312970187
 31
0.0
  0
LINE
  5
20E1
  8
0
  6
CONTINUOUS
 62
     7
 10
114.2256011810538
 20
107.268312970187
 30
0.0
 11
114.2735174830645
 21
107.30651206100811
 31
0.0
  0
LINE
  5
20E2
  8
0
  6
CONTINUOUS
 62
     7
 10
114.2735174830645
 20
107.30651206100811
 30
0.0
 11
114.314996393201
 21
107.3437483942066
 31
0.0
  0
LINE
  5
20E3
  8
0
  6
CONTINUOUS
 62
     7
 10
114.314996393201
 20
107.3437483942066
 30
0.0
 11
114.3502027473976
 21
107.3788772526409
 31
0.0
  0
LINE
  5
20E4
  8
0
  6
CONTINUOUS
 62
     7
 10
114.3502027473976
 20
107.3788772526409
 30
0.0
 11
114.3792933897922
 21
107.41073308487179
 31
0.0
  0
LINE
  5
20E5
  8
0
  6
CONTINUOUS
 62
     7
 10
114.3792933897922
 20
107.41073308487179
 30
0.0
 11
114.40248858004109
 21
107.4382438048421
 31
0.0
  0
LINE
  5
20E6
  8
0
  6
CONTINUOUS
 62
     7
 10
114.40248858004109
 20
107.4382438048421
 30
0.0
 11
114.41202506624791
 21
107.45016128447671
 31
0.0
  0
LINE
  5
20E7
  8
0
  6
CONTINUOUS
 62
     7
 10
114.41202506624791
 20
107.45016128447671
 30
0.0
 11
114.4201734827429
 21
107.46064746687
 31
0.0
  0
LINE
  5
20E8
  8
0
  6
CONTINUOUS
 62
     7
 10
114.4201734827429
 20
107.46064746687
 30
0.0
 11
114.43217979072
 21
107.47664065460469
 31
0.0
  0
LINE
  5
20E9
  8
0
  6
CONTINUOUS
 62
     7
 10
114.43217979072
 20
107.47664065460469
 30
0.0
 11
114.4382514222612
 21
107.4849891348139
 31
0.0
  0
LINE
  5
20EA
  8
0
  6
CONTINUOUS
 62
     7
 10
114.4382514222612
 20
107.4849891348139
 30
0.0
 11
114.4390145626675
 21
107.48605138333539
 31
0.0
  0
LINE
  5
2105
  8
0
  6
CONTINUOUS
 62
     7
 10
107.5737105692606
 20
107.64717071068451
 30
0.0
 11
107.7659317114701
 21
107.62866191985771
 31
0.0
  0
LINE
  5
2106
  8
0
  6
CONTINUOUS
 62
     7
 10
107.7659317114701
 20
107.62866191985771
 30
0.0
 11
108.1622428249964
 21
107.5905014999461
 31
0.0
  0
LINE
  5
2107
  8
0
  6
CONTINUOUS
 62
     7
 10
108.1622428249964
 20
107.5905014999461
 30
0.0
 11
108.5677206932525
 21
107.55145842194661
 31
0.0
  0
LINE
  5
2108
  8
0
  6
CONTINUOUS
 62
     7
 10
108.5677206932525
 20
107.55145842194661
 30
0.0
 11
108.77143509374871
 21
107.5318429562187
 31
0.0
  0
LINE
  5
2109
  8
0
  6
CONTINUOUS
 62
     7
 10
108.77143509374871
 20
107.5318429562187
 30
0.0
 11
108.97451092826221
 21
107.5122889774015
 31
0.0
  0
LINE
  5
210A
  8
0
  6
CONTINUOUS
 62
     7
 10
108.97451092826221
 20
107.5122889774015
 30
0.0
 11
109.3751194563684
 21
107.4737147635303
 31
0.0
  0
LINE
  5
210B
  8
0
  6
CONTINUOUS
 62
     7
 10
109.3751194563684
 20
107.4737147635303
 30
0.0
 11
109.762299192782
 21
107.4364335952296
 31
0.0
  0
LINE
  5
210C
  8
0
  6
CONTINUOUS
 62
     7
 10
109.762299192782
 20
107.4364335952296
 30
0.0
 11
110.1291571297474
 21
107.4011091936555
 31
0.0
  0
LINE
  5
210D
  8
0
  6
CONTINUOUS
 62
     7
 10
110.1291571297474
 20
107.4011091936555
 30
0.0
 11
110.48345050432241
 21
107.366994621835
 31
0.0
  0
LINE
  5
210E
  8
0
  6
CONTINUOUS
 62
     7
 10
110.48345050432241
 20
107.366994621835
 30
0.0
 11
110.8415491289151
 21
107.3325136461121
 31
0.0
  0
LINE
  5
210F
  8
0
  6
CONTINUOUS
 62
     7
 10
110.8415491289151
 20
107.3325136461121
 30
0.0
 11
111.0196460574583
 21
107.3153648623758
 31
0.0
  0
LINE
  5
2110
  8
0
  6
CONTINUOUS
 62
     7
 10
111.0196460574583
 20
107.3153648623758
 30
0.0
 11
111.1958515124709
 21
107.2983982068254
 31
0.0
  0
LINE
  5
2111
  8
0
  6
CONTINUOUS
 62
     7
 10
111.1958515124709
 20
107.2983982068254
 30
0.0
 11
111.5391391489418
 21
107.2653433670517
 31
0.0
  0
LINE
  5
2112
  8
0
  6
CONTINUOUS
 62
     7
 10
111.5391391489418
 20
107.2653433670517
 30
0.0
 11
111.8651508954094
 21
107.2339520062831
 31
0.0
  0
LINE
  5
2113
  8
0
  6
CONTINUOUS
 62
     7
 10
111.8651508954094
 20
107.2339520062831
 30
0.0
 11
112.16842301177699
 21
107.20475022285321
 31
0.0
  0
LINE
  5
2114
  8
0
  6
CONTINUOUS
 62
     7
 10
112.16842301177699
 20
107.20475022285321
 30
0.0
 11
112.4453293235283
 21
107.1780871776548
 31
0.0
  0
LINE
  5
2115
  8
0
  6
CONTINUOUS
 62
     7
 10
112.4453293235283
 20
107.1780871776548
 30
0.0
 11
112.7113563727191
 21
107.1524716862934
 31
0.0
  0
LINE
  5
2116
  8
0
  6
CONTINUOUS
 62
     7
 10
112.7113563727191
 20
107.1524716862934
 30
0.0
 11
112.84128962099039
 21
107.13996053748809
 31
0.0
  0
LINE
  5
2117
  8
0
  6
CONTINUOUS
 62
     7
 10
112.84128962099039
 20
107.13996053748809
 30
0.0
 11
112.9680407904624
 21
107.1277557880218
 31
0.0
  0
LINE
  5
2118
  8
0
  6
CONTINUOUS
 62
     7
 10
112.9680407904624
 20
107.1277557880218
 30
0.0
 11
113.2090640872879
 21
107.10454788417699
 31
0.0
  0
LINE
  5
2119
  8
0
  6
CONTINUOUS
 62
     7
 10
113.2090640872879
 20
107.10454788417699
 30
0.0
 11
113.4294174452447
 21
107.08333026907221
 31
0.0
  0
LINE
  5
211A
  8
0
  6
CONTINUOUS
 62
     7
 10
113.4294174452447
 20
107.08333026907221
 30
0.0
 11
113.53064498330551
 21
107.0735831657809
 31
0.0
  0
LINE
  5
211B
  8
0
  6
CONTINUOUS
 62
     7
 10
104.9307374331831
 20
107.90166007836901
 30
0.0
 11
104.9894821790666
 21
107.8960036027013
 31
0.0
  0
LINE
  5
211C
  8
0
  6
CONTINUOUS
 62
     7
 10
104.9894821790666
 20
107.8960036027013
 30
0.0
 11
105.107463604492
 21
107.8846432835421
 31
0.0
  0
LINE
  5
211D
  8
0
  6
CONTINUOUS
 62
     7
 10
105.107463604492
 20
107.8846432835421
 30
0.0
 11
105.2260703198299
 21
107.87322275581241
 31
0.0
  0
LINE
  5
211E
  8
0
  6
CONTINUOUS
 62
     7
 10
105.2260703198299
 20
107.87322275581241
 30
0.0
 11
105.2855966324901
 21
107.8674910238236
 31
0.0
  0
LINE
  5
211F
  8
0
  6
CONTINUOUS
 62
     7
 10
105.2855966324901
 20
107.8674910238236
 30
0.0
 11
105.3452654098344
 21
107.861745574046
 31
0.0
  0
LINE
  5
2120
  8
0
  6
CONTINUOUS
 62
     7
 10
105.3452654098344
 20
107.861745574046
 30
0.0
 11
105.46501177613359
 21
107.85021531040999
 31
0.0
  0
LINE
  5
2121
  8
0
  6
CONTINUOUS
 62
     7
 10
105.46501177613359
 20
107.85021531040999
 30
0.0
 11
105.5852721487758
 21
107.8386355535924
 31
0.0
  0
LINE
  5
2122
  8
0
  6
CONTINUOUS
 62
     7
 10
105.5852721487758
 20
107.8386355535924
 30
0.0
 11
105.70600909782949
 21
107.82700990768571
 31
0.0
  0
LINE
  5
2123
  8
0
  6
CONTINUOUS
 62
     7
 10
105.70600909782949
 20
107.82700990768571
 30
0.0
 11
105.8271850450333
 21
107.815341991065
 31
0.0
  0
LINE
  5
2124
  8
0
  6
CONTINUOUS
 62
     7
 10
105.8271850450333
 20
107.815341991065
 30
0.0
 11
105.9487622754917
 21
107.8036354352617
 31
0.0
  0
LINE
  5
2125
  8
0
  6
CONTINUOUS
 62
     7
 10
105.9487622754917
 20
107.8036354352617
 30
0.0
 11
106.0096895515636
 21
107.7977688058395
 31
0.0
  0
LINE
  5
2126
  8
0
  6
CONTINUOUS
 62
     7
 10
106.0096895515636
 20
107.7977688058395
 30
0.0
 11
106.0707029494135
 21
107.7918938838332
 31
0.0
  0
LINE
  5
2127
  8
0
  6
CONTINUOUS
 62
     7
 10
106.0707029494135
 20
107.7918938838332
 30
0.0
 11
106.19296911388891
 21
107.7801209912291
 31
0.0
  0
LINE
  5
2128
  8
0
  6
CONTINUOUS
 62
     7
 10
106.19296911388891
 20
107.7801209912291
 30
0.0
 11
106.3155227147024
 21
107.7683204216536
 31
0.0
  0
LINE
  5
2129
  8
0
  6
CONTINUOUS
 62
     7
 10
106.3155227147024
 20
107.7683204216536
 30
0.0
 11
106.4383256081764
 21
107.75649584792509
 31
0.0
  0
LINE
  5
212A
  8
0
  6
CONTINUOUS
 62
     7
 10
106.4383256081764
 20
107.75649584792509
 30
0.0
 11
106.5613395730433
 21
107.744650950333
 31
0.0
  0
LINE
  5
212B
  8
0
  6
CONTINUOUS
 62
     7
 10
106.5613395730433
 20
107.744650950333
 30
0.0
 11
106.6845263223416
 21
107.7327894154926
 31
0.0
  0
LINE
  5
212C
  8
0
  6
CONTINUOUS
 62
     7
 10
106.6845263223416
 20
107.7327894154926
 30
0.0
 11
106.7461725114461
 21
107.7268535626187
 31
0.0
  0
LINE
  5
212D
  8
0
  6
CONTINUOUS
 62
     7
 10
106.7461725114461
 20
107.7268535626187
 30
0.0
 11
106.8078475153322
 21
107.7209149351969
 31
0.0
  0
LINE
  5
212E
  8
0
  6
CONTINUOUS
 62
     7
 10
106.8078475153322
 20
107.7209149351969
 30
0.0
 11
106.93126476943149
 21
107.7090312052685
 31
0.0
  0
LINE
  5
212F
  8
0
  6
CONTINUOUS
 62
     7
 10
106.93126476943149
 20
107.7090312052685
 30
0.0
 11
107.05473967215789
 21
107.6971419244087
 31
0.0
  0
LINE
  5
2130
  8
0
  6
CONTINUOUS
 62
     7
 10
107.05473967215789
 20
107.6971419244087
 30
0.0
 11
107.1164867326226
 21
107.69119635872759
 31
0.0
  0
LINE
  5
2131
  8
0
  6
CONTINUOUS
 62
     7
 10
104.6305153624297
 20
107.9305681758098
 30
0.0
 11
104.6806166303766
 21
107.9257439724057
 31
0.0
  0
LINE
  5
2132
  8
0
  6
CONTINUOUS
 62
     7
 10
104.6806166303766
 20
107.9257439724057
 30
0.0
 11
104.78074244019869
 21
107.9161029534779
 31
0.0
  0
LINE
  5
2133
  8
0
  6
CONTINUOUS
 62
     7
 10
104.78074244019869
 20
107.9161029534779
 30
0.0
 11
104.8807651011184
 21
107.9064718666598
 31
0.0
  0
LINE
  5
2134
  8
0
  6
CONTINUOUS
 62
     7
 10
104.8807651011184
 20
107.9064718666598
 30
0.0
 11
104.9307374331831
 21
107.90166007836901
 31
0.0
  0
LINE
  5
214B
  8
0
  6
CONTINUOUS
 62
     7
 10
99.848441350224505
 20
105.9409479934484
 30
0.0
 11
99.946889258399295
 21
106.0577941391187
 31
0.0
  0
LINE
  5
214C
  8
0
  6
CONTINUOUS
 62
     7
 10
99.946889258399295
 20
106.0577941391187
 30
0.0
 11
100.15508553866999
 21
106.28487059096859
 31
0.0
  0
LINE
  5
214D
  8
0
  6
CONTINUOUS
 62
     7
 10
100.15508553866999
 20
106.28487059096859
 30
0.0
 11
100.3770210796841
 21
106.5011790002808
 31
0.0
  0
LINE
  5
214E
  8
0
  6
CONTINUOUS
 62
     7
 10
100.3770210796841
 20
106.5011790002808
 30
0.0
 11
100.4925674428307
 21
106.6046419358301
 31
0.0
  0
LINE
  5
214F
  8
0
  6
CONTINUOUS
 62
     7
 10
100.4925674428307
 20
106.6046419358301
 30
0.0
 11
100.6108561257051
 21
106.7046995864327
 31
0.0
  0
LINE
  5
2150
  8
0
  6
CONTINUOUS
 62
     7
 10
100.6108561257051
 20
106.7046995864327
 30
0.0
 11
100.85456963608129
 21
106.8938319615192
 31
0.0
  0
LINE
  5
2151
  8
0
  6
CONTINUOUS
 62
     7
 10
100.85456963608129
 20
106.8938319615192
 30
0.0
 11
101.105742062367
 21
107.0672082427207
 31
0.0
  0
LINE
  5
2152
  8
0
  6
CONTINUOUS
 62
     7
 10
101.105742062367
 20
107.0672082427207
 30
0.0
 11
101.3617106465246
 21
107.2238381622382
 31
0.0
  0
LINE
  5
2153
  8
0
  6
CONTINUOUS
 62
     7
 10
101.3617106465246
 20
107.2238381622382
 30
0.0
 11
101.61958514649319
 21
107.3631127377393
 31
0.0
  0
LINE
  5
2154
  8
0
  6
CONTINUOUS
 62
     7
 10
101.61958514649319
 20
107.3631127377393
 30
0.0
 11
101.8784323992172
 21
107.4857678707971
 31
0.0
  0
LINE
  5
2155
  8
0
  6
CONTINUOUS
 62
     7
 10
101.8784323992172
 20
107.4857678707971
 30
0.0
 11
102.0118185698107
 21
107.5426797104985
 31
0.0
  0
LINE
  5
2156
  8
0
  6
CONTINUOUS
 62
     7
 10
102.0118185698107
 20
107.5426797104985
 30
0.0
 11
102.1481648821544
 21
107.5966280871647
 31
0.0
  0
LINE
  5
2157
  8
0
  6
CONTINUOUS
 62
     7
 10
102.1481648821544
 20
107.5966280871647
 30
0.0
 11
102.4286151966141
 21
107.6947074030243
 31
0.0
  0
LINE
  5
2158
  8
0
  6
CONTINUOUS
 62
     7
 10
102.4286151966141
 20
107.6947074030243
 30
0.0
 11
102.717479927467
 21
107.7784191320238
 31
0.0
  0
LINE
  5
2159
  8
0
  6
CONTINUOUS
 62
     7
 10
102.717479927467
 20
107.7784191320238
 30
0.0
 11
103.01235445198731
 21
107.8465939338174
 31
0.0
  0
LINE
  5
215A
  8
0
  6
CONTINUOUS
 62
     7
 10
103.01235445198731
 20
107.8465939338174
 30
0.0
 11
103.31073999379019
 21
107.8984755676119
 31
0.0
  0
LINE
  5
215B
  8
0
  6
CONTINUOUS
 62
     7
 10
103.31073999379019
 20
107.8984755676119
 30
0.0
 11
103.6102409970579
 21
107.93373811306761
 31
0.0
  0
LINE
  5
215C
  8
0
  6
CONTINUOUS
 62
     7
 10
103.6102409970579
 20
107.93373811306761
 30
0.0
 11
103.7596244301227
 21
107.9451370567935
 31
0.0
  0
LINE
  5
215D
  8
0
  6
CONTINUOUS
 62
     7
 10
103.7596244301227
 20
107.9451370567935
 30
0.0
 11
103.9083305136074
 21
107.9524300013134
 31
0.0
  0
LINE
  5
215E
  8
0
  6
CONTINUOUS
 62
     7
 10
103.9083305136074
 20
107.9524300013134
 30
0.0
 11
104.20242887784271
 21
107.95499683925451
 31
0.0
  0
LINE
  5
215F
  8
0
  6
CONTINUOUS
 62
     7
 10
104.20242887784271
 20
107.95499683925451
 30
0.0
 11
104.48998558023391
 21
107.9422834873054
 31
0.0
  0
LINE
  5
2160
  8
0
  6
CONTINUOUS
 62
     7
 10
104.48998558023391
 20
107.9422834873054
 30
0.0
 11
104.6305153624297
 21
107.9305681758098
 31
0.0
  0
LINE
  5
2177
  8
0
  6
CONTINUOUS
 62
     7
 10
84.62246610922179
 20
107.9305681758098
 30
0.0
 11
84.762995892046774
 21
107.9422834873497
 31
0.0
  0
LINE
  5
2178
  8
0
  6
CONTINUOUS
 62
     7
 10
84.762995892046774
 20
107.9422834873497
 30
0.0
 11
85.050552595748741
 21
107.95499683928951
 31
0.0
  0
LINE
  5
2179
  8
0
  6
CONTINUOUS
 62
     7
 10
85.050552595748741
 20
107.95499683928951
 30
0.0
 11
85.344650961336058
 21
107.9524300011966
 31
0.0
  0
LINE
  5
217A
  8
0
  6
CONTINUOUS
 62
     7
 10
85.344650961336058
 20
107.9524300011966
 30
0.0
 11
85.493357045501725
 21
107.9451370565447
 31
0.0
  0
LINE
  5
217B
  8
0
  6
CONTINUOUS
 62
     7
 10
85.493357045501725
 20
107.9451370565447
 30
0.0
 11
85.642740479244907
 21
107.9337381126489
 31
0.0
  0
LINE
  5
217C
  8
0
  6
CONTINUOUS
 62
     7
 10
85.642740479244907
 20
107.9337381126489
 30
0.0
 11
85.942241483844498
 21
107.8984755667405
 31
0.0
  0
LINE
  5
217D
  8
0
  6
CONTINUOUS
 62
     7
 10
85.942241483844498
 20
107.8984755667405
 30
0.0
 11
86.24062702692143
 21
107.8465939323486
 31
0.0
  0
LINE
  5
217E
  8
0
  6
CONTINUOUS
 62
     7
 10
86.24062702692143
 20
107.8465939323486
 30
0.0
 11
86.535501552624254
 21
107.7784191298263
 31
0.0
  0
LINE
  5
217F
  8
0
  6
CONTINUOUS
 62
     7
 10
86.535501552624254
 20
107.7784191298263
 30
0.0
 11
86.824366284535188
 21
107.694707399988
 31
0.0
  0
LINE
  5
2180
  8
0
  6
CONTINUOUS
 62
     7
 10
86.824366284535188
 20
107.694707399988
 30
0.0
 11
87.104816599900204
 21
107.596628083208
 31
0.0
  0
LINE
  5
2181
  8
0
  6
CONTINUOUS
 62
     7
 10
87.104816599900204
 20
107.596628083208
 30
0.0
 11
87.241162912630486
 21
107.542679706062
 31
0.0
  0
LINE
  5
2182
  8
0
  6
CONTINUOUS
 62
     7
 10
87.241162912630486
 20
107.542679706062
 30
0.0
 11
87.374549083562314
 21
107.48576786587461
 31
0.0
  0
LINE
  5
2183
  8
0
  6
CONTINUOUS
 62
     7
 10
87.374549083562314
 20
107.48576786587461
 30
0.0
 11
87.633396337186014
 21
107.3631127316515
 31
0.0
  0
LINE
  5
2184
  8
0
  6
CONTINUOUS
 62
     7
 10
87.633396337186014
 20
107.3631127316515
 30
0.0
 11
87.891270838280093
 21
107.22383815467489
 31
0.0
  0
LINE
  5
2185
  8
0
  6
CONTINUOUS
 62
     7
 10
87.891270838280093
 20
107.22383815467489
 30
0.0
 11
88.14723942339279
 21
107.06720823354949
 31
0.0
  0
LINE
  5
2186
  8
0
  6
CONTINUOUS
 62
     7
 10
88.14723942339279
 20
107.06720823354949
 30
0.0
 11
88.398411850437554
 21
106.8938319506355
 31
0.0
  0
LINE
  5
2187
  8
0
  6
CONTINUOUS
 62
     7
 10
88.398411850437554
 20
106.8938319506355
 30
0.0
 11
88.642125361353266
 21
106.70469957376829
 31
0.0
  0
LINE
  5
2188
  8
0
  6
CONTINUOUS
 62
     7
 10
88.642125361353266
 20
106.70469957376829
 30
0.0
 11
88.760414044409956
 21
106.6046419222623
 31
0.0
  0
LINE
  5
2189
  8
0
  6
CONTINUOUS
 62
     7
 10
88.760414044409956
 20
106.6046419222623
 30
0.0
 11
88.875960407683067
 21
106.5011789858042
 31
0.0
  0
LINE
  5
218A
  8
0
  6
CONTINUOUS
 62
     7
 10
88.875960407683067
 20
106.5011789858042
 30
0.0
 11
89.097895948769164
 21
106.2848705746889
 31
0.0
  0
LINE
  5
218B
  8
0
  6
CONTINUOUS
 62
     7
 10
89.097895948769164
 20
106.2848705746889
 30
0.0
 11
89.306092228863832
 21
106.0577941211034
 31
0.0
  0
LINE
  5
218C
  8
0
  6
CONTINUOUS
 62
     7
 10
89.306092228863832
 20
106.0577941211034
 30
0.0
 11
89.404540136859268
 21
105.940947974607
 31
0.0
  0
LINE
  5
218D
  8
0
  6
CONTINUOUS
 62
     7
 10
89.404540136859268
 20
105.940947974607
 30
0.0
 11
89.439324543725135
 21
105.8988283795034
 31
0.0
  0
LINE
  5
218E
  8
0
  6
CONTINUOUS
 62
     7
 10
89.439324543725135
 20
105.8988283795034
 30
0.0
 11
89.509693334096283
 21
105.8156926394233
 31
0.0
  0
LINE
  5
218F
  8
0
  6
CONTINUOUS
 62
     7
 10
89.509693334096283
 20
105.8156926394233
 30
0.0
 11
89.581083823497295
 21
105.73405261103299
 31
0.0
  0
LINE
  5
2190
  8
0
  6
CONTINUOUS
 62
     7
 10
89.581083823497295
 20
105.73405261103299
 30
0.0
 11
89.617144917805973
 21
105.6938023558718
 31
0.0
  0
LINE
  5
2191
  8
0
  6
CONTINUOUS
 62
     7
 10
89.617144917805973
 20
105.6938023558718
 30
0.0
 11
89.6534404670615
 21
105.653936495645
 31
0.0
  0
LINE
  5
2192
  8
0
  6
CONTINUOUS
 62
     7
 10
89.6534404670615
 20
105.653936495645
 30
0.0
 11
89.726705951170942
 21
105.5753710612169
 31
0.0
  0
LINE
  5
2193
  8
0
  6
CONTINUOUS
 62
     7
 10
89.726705951170942
 20
105.5753710612169
 30
0.0
 11
89.800821295865774
 21
105.4983814971251
 31
0.0
  0
LINE
  5
2194
  8
0
  6
CONTINUOUS
 62
     7
 10
89.800821295865774
 20
105.4983814971251
 30
0.0
 11
89.87576403269631
 21
105.4229535654386
 31
0.0
  0
LINE
  5
2195
  8
0
  6
CONTINUOUS
 62
     7
 10
89.87576403269631
 20
105.4229535654386
 30
0.0
 11
89.952101644466069
 21
105.34850809332799
 31
0.0
  0
LINE
  5
2196
  8
0
  6
CONTINUOUS
 62
     7
 10
89.952101644466069
 20
105.34850809332799
 30
0.0
 11
90.030025320137611
 21
105.27488753054401
 31
0.0
  0
LINE
  5
2197
  8
0
  6
CONTINUOUS
 62
     7
 10
90.030025320137611
 20
105.27488753054401
 30
0.0
 11
90.069574542014578
 21
105.2384051121573
 31
0.0
  0
LINE
  5
2198
  8
0
  6
CONTINUOUS
 62
     7
 10
90.069574542014578
 20
105.2384051121573
 30
0.0
 11
90.109511169460305
 21
105.2021509878783
 31
0.0
  0
LINE
  5
2199
  8
0
  6
CONTINUOUS
 62
     7
 10
90.109511169460305
 20
105.2021509878783
 30
0.0
 11
90.190533396654018
 21
105.1303562590013
 31
0.0
  0
LINE
  5
219A
  8
0
  6
CONTINUOUS
 62
     7
 10
90.190533396654018
 20
105.1303562590013
 30
0.0
 11
90.273064418513769
 21
105.0595596916198
 31
0.0
  0
LINE
  5
219B
  8
0
  6
CONTINUOUS
 62
     7
 10
90.273064418513769
 20
105.0595596916198
 30
0.0
 11
90.357074990403319
 21
104.9898160695528
 31
0.0
  0
LINE
  5
219C
  8
0
  6
CONTINUOUS
 62
     7
 10
90.357074990403319
 20
104.9898160695528
 30
0.0
 11
90.44253434059317
 21
104.92117850523761
 31
0.0
  0
LINE
  5
219D
  8
0
  6
CONTINUOUS
 62
     7
 10
90.44253434059317
 20
104.92117850523761
 30
0.0
 11
90.529410313403375
 21
104.8536983423282
 31
0.0
  0
LINE
  5
219E
  8
0
  6
CONTINUOUS
 62
     7
 10
90.529410313403375
 20
104.8536983423282
 30
0.0
 11
90.573369143526236
 21
104.820407825907
 31
0.0
  0
LINE
  5
219F
  8
0
  6
CONTINUOUS
 62
     7
 10
90.573369143526236
 20
104.820407825907
 30
0.0
 11
90.617669521609827
 21
104.78742506820031
 31
0.0
  0
LINE
  5
21A0
  8
0
  6
CONTINUOUS
 62
     7
 10
90.617669521609827
 20
104.78742506820031
 30
0.0
 11
90.707277508558889
 21
104.7224062363172
 31
0.0
  0
LINE
  5
21A1
  8
0
  6
CONTINUOUS
 62
     7
 10
90.707277508558889
 20
104.7224062363172
 30
0.0
 11
90.798198920410755
 21
104.6586873985547
 31
0.0
  0
LINE
  5
21A2
  8
0
  6
CONTINUOUS
 62
     7
 10
90.798198920410755
 20
104.6586873985547
 30
0.0
 11
90.844140912029388
 21
104.6273291507603
 31
0.0
  0
LINE
  5
21A3
  8
0
  6
CONTINUOUS
 62
     7
 10
90.844140912029388
 20
104.6273291507603
 30
0.0
 11
90.890397687679297
 21
104.5963120485257
 31
0.0
  0
LINE
  5
21A4
  8
0
  6
CONTINUOUS
 62
     7
 10
90.890397687679297
 20
104.5963120485257
 30
0.0
 11
90.983837005623414
 21
104.53532171117661
 31
0.0
  0
LINE
  5
21A5
  8
0
  6
CONTINUOUS
 62
     7
 10
90.983837005623414
 20
104.53532171117661
 30
0.0
 11
91.078478657734408
 21
104.4757564265969
 31
0.0
  0
LINE
  5
21A6
  8
0
  6
CONTINUOUS
 62
     7
 10
91.078478657734408
 20
104.4757564265969
 30
0.0
 11
91.126237963059594
 21
104.44652032181691
 31
0.0
  0
LINE
  5
21A7
  8
0
  6
CONTINUOUS
 62
     7
 10
91.126237963059594
 20
104.44652032181691
 30
0.0
 11
91.174282780643836
 21
104.41765487080021
 31
0.0
  0
LINE
  5
21A8
  8
0
  6
CONTINUOUS
 62
     7
 10
91.174282780643836
 20
104.41765487080021
 30
0.0
 11
91.271207981499359
 21
104.3610542397048
 31
0.0
  0
LINE
  5
21A9
  8
0
  6
CONTINUOUS
 62
     7
 10
91.271207981499359
 20
104.3610542397048
 30
0.0
 11
91.369211469720256
 21
104.3059901386741
 31
0.0
  0
LINE
  5
21AA
  8
0
  6
CONTINUOUS
 62
     7
 10
91.369211469720256
 20
104.3059901386741
 30
0.0
 11
91.468249195004688
 21
104.25249648312931
 31
0.0
  0
LINE
  5
21AB
  8
0
  6
CONTINUOUS
 62
     7
 10
91.468249195004688
 20
104.25249648312931
 30
0.0
 11
91.568275991924224
 21
104.2006054100349
 31
0.0
  0
LINE
  5
21AC
  8
0
  6
CONTINUOUS
 62
     7
 10
91.568275991924224
 20
104.2006054100349
 30
0.0
 11
91.669245731458815
 21
104.15034720015289
 31
0.0
  0
LINE
  5
21AD
  8
0
  6
CONTINUOUS
 62
     7
 10
91.669245731458815
 20
104.15034720015289
 30
0.0
 11
91.720069564839875
 21
104.1258393573935
 31
0.0
  0
LINE
  5
21AE
  8
0
  6
CONTINUOUS
 62
     7
 10
91.720069564839875
 20
104.1258393573935
 30
0.0
 11
91.771111479837373
 21
104.1017502110607
 31
0.0
  0
LINE
  5
21AF
  8
0
  6
CONTINUOUS
 62
     7
 10
91.771111479837373
 20
104.1017502110607
 30
0.0
 11
91.873825665048031
 21
104.0548408210265
 31
0.0
  0
LINE
  5
21B0
  8
0
  6
CONTINUOUS
 62
     7
 10
91.873825665048031
 20
104.0548408210265
 30
0.0
 11
91.977340251374301
 21
104.0096433839296
 31
0.0
  0
LINE
  5
21B1
  8
0
  6
CONTINUOUS
 62
     7
 10
91.977340251374301
 20
104.0096433839296
 30
0.0
 11
92.081609176403163
 21
103.9661792779612
 31
0.0
  0
LINE
  5
21B2
  8
0
  6
CONTINUOUS
 62
     7
 10
92.081609176403163
 20
103.9661792779612
 30
0.0
 11
92.186605035215379
 21
103.9244607081482
 31
0.0
  0
LINE
  5
21B3
  8
0
  6
CONTINUOUS
 62
     7
 10
92.186605035215379
 20
103.9244607081482
 30
0.0
 11
92.29228368100047
 21
103.8845056040539
 31
0.0
  0
LINE
  5
21B4
  8
0
  6
CONTINUOUS
 62
     7
 10
92.29228368100047
 20
103.8845056040539
 30
0.0
 11
92.345363266840195
 21
103.8651952029346
 31
0.0
  0
LINE
  5
21B5
  8
0
  6
CONTINUOUS
 62
     7
 10
92.345363266840195
 20
103.8651952029346
 30
0.0
 11
92.398594451278754
 21
103.8463324785283
 31
0.0
  0
LINE
  5
21B6
  8
0
  6
CONTINUOUS
 62
     7
 10
92.398594451278754
 20
103.8463324785283
 30
0.0
 11
92.505485453102665
 21
103.80995812242379
 31
0.0
  0
LINE
  5
21B7
  8
0
  6
CONTINUOUS
 62
     7
 10
92.505485453102665
 20
103.80995812242379
 30
0.0
 11
92.612903718016625
 21
103.77539750352049
 31
0.0
  0
LINE
  5
21B8
  8
0
  6
CONTINUOUS
 62
     7
 10
92.612903718016625
 20
103.77539750352049
 30
0.0
 11
92.720795361960967
 21
103.74266367838101
 31
0.0
  0
LINE
  5
21B9
  8
0
  6
CONTINUOUS
 62
     7
 10
92.720795361960967
 20
103.74266367838101
 30
0.0
 11
92.829105750272902
 21
103.7117677170572
 31
0.0
  0
LINE
  5
21BA
  8
0
  6
CONTINUOUS
 62
     7
 10
92.829105750272902
 20
103.7117677170572
 30
0.0
 11
92.937779667982284
 21
103.68271864063961
 31
0.0
  0
LINE
  5
21BB
  8
0
  6
CONTINUOUS
 62
     7
 10
92.937779667982284
 20
103.68271864063961
 30
0.0
 11
92.992235580157384
 21
103.66888893063729
 31
0.0
  0
LINE
  5
21BC
  8
0
  6
CONTINUOUS
 62
     7
 10
92.992235580157384
 20
103.66888893063729
 30
0.0
 11
93.046761495638506
 21
103.65552337170359
 31
0.0
  0
LINE
  5
21BD
  8
0
  6
CONTINUOUS
 62
     7
 10
93.046761495638506
 20
103.65552337170359
 30
0.0
 11
93.155995390933555
 21
103.63018669777991
 31
0.0
  0
LINE
  5
21BE
  8
0
  6
CONTINUOUS
 62
     7
 10
93.155995390933555
 20
103.63018669777991
 30
0.0
 11
93.265425476411735
 21
103.6067112480489
 31
0.0
  0
LINE
  5
21BF
  8
0
  6
CONTINUOUS
 62
     7
 10
93.265425476411735
 20
103.6067112480489
 30
0.0
 11
93.374996031918243
 21
103.5850974838465
 31
0.0
  0
LINE
  5
21C0
  8
0
  6
CONTINUOUS
 62
     7
 10
93.374996031918243
 20
103.5850974838465
 30
0.0
 11
93.484651414160894
 21
103.5653437508409
 31
0.0
  0
LINE
  5
21C1
  8
0
  6
CONTINUOUS
 62
     7
 10
93.484651414160894
 20
103.5653437508409
 30
0.0
 11
93.594335161313126
 21
103.5474464441542
 31
0.0
  0
LINE
  5
21C2
  8
0
  6
CONTINUOUS
 62
     7
 10
93.594335161313126
 20
103.5474464441542
 30
0.0
 11
93.649169725969045
 21
103.5391922891579
 31
0.0
  0
LINE
  5
21C3
  8
0
  6
CONTINUOUS
 62
     7
 10
93.649169725969045
 20
103.5391922891579
 30
0.0
 11
93.703989726495365
 21
103.53139999207011
 31
0.0
  0
LINE
  5
21C4
  8
0
  6
CONTINUOUS
 62
     7
 10
93.703989726495365
 20
103.53139999207011
 30
0.0
 11
93.8135566558704
 21
103.5171967565669
 31
0.0
  0
LINE
  5
21C5
  8
0
  6
CONTINUOUS
 62
     7
 10
93.8135566558704
 20
103.5171967565669
 30
0.0
 11
93.922976777762756
 21
103.5048269482444
 31
0.0
  0
LINE
  5
21C6
  8
0
  6
CONTINUOUS
 62
     7
 10
93.922976777762756
 20
103.5048269482444
 30
0.0
 11
94.032190392894904
 21
103.49427855734351
 31
0.0
  0
LINE
  5
21C7
  8
0
  6
CONTINUOUS
 62
     7
 10
94.032190392894904
 20
103.49427855734351
 30
0.0
 11
94.141137465708994
 21
103.4855373005859
 31
0.0
  0
LINE
  5
21C8
  8
0
  6
CONTINUOUS
 62
     7
 10
94.141137465708994
 20
103.4855373005859
 30
0.0
 11
94.249757816857681
 21
103.4785865836179
 31
0.0
  0
LINE
  5
21C9
  8
0
  6
CONTINUOUS
 62
     7
 10
94.249757816857681
 20
103.4785865836179
 30
0.0
 11
94.303926674117918
 21
103.475776854128
 31
0.0
  0
LINE
  5
21CA
  8
0
  6
CONTINUOUS
 62
     7
 10
94.303926674117918
 20
103.475776854128
 30
0.0
 11
94.357991317058577
 21
103.47340747889901
 31
0.0
  0
LINE
  5
21CB
  8
0
  6
CONTINUOUS
 62
     7
 10
94.357991317058577
 20
103.47340747889901
 30
0.0
 11
94.4657780826129
 21
103.4699787189569
 31
0.0
  0
LINE
  5
21CC
  8
0
  6
CONTINUOUS
 62
     7
 10
94.4657780826129
 20
103.4699787189569
 30
0.0
 11
94.573058672994435
 21
103.4682767050079
 31
0.0
  0
LINE
  5
21CD
  8
0
  6
CONTINUOUS
 62
     7
 10
94.573058672994435
 20
103.4682767050079
 30
0.0
 11
94.626490747708715
 21
103.4680652212994
 31
0.0
  0
LINE
  5
21CE
  8
0
  6
CONTINUOUS
 62
     7
 10
94.626490747708715
 20
103.4680652212994
 30
0.0
 11
94.679922822487541
 21
103.4682767051965
 31
0.0
  0
LINE
  5
21CF
  8
0
  6
CONTINUOUS
 62
     7
 10
94.679922822487541
 20
103.4682767051965
 30
0.0
 11
94.787203412988376
 21
103.4699787195273
 31
0.0
  0
LINE
  5
21D0
  8
0
  6
CONTINUOUS
 62
     7
 10
94.787203412988376
 20
103.4699787195273
 30
0.0
 11
94.894990178648811
 21
103.4734074798567
 31
0.0
  0
LINE
  5
21D1
  8
0
  6
CONTINUOUS
 62
     7
 10
94.894990178648811
 20
103.4734074798567
 30
0.0
 11
94.949054821637574
 21
103.4757768552812
 31
0.0
  0
LINE
  5
21D2
  8
0
  6
CONTINUOUS
 62
     7
 10
94.949054821637574
 20
103.4757768552812
 30
0.0
 11
95.003223678942547
 21
103.4785865849678
 31
0.0
  0
LINE
  5
21D3
  8
0
  6
CONTINUOUS
 62
     7
 10
95.003223678942547
 20
103.4785865849678
 30
0.0
 11
95.111844030170701
 21
103.4855373023326
 31
0.0
  0
LINE
  5
21D4
  8
0
  6
CONTINUOUS
 62
     7
 10
95.111844030170701
 20
103.4855373023326
 30
0.0
 11
95.220791103050828
 21
103.49427855949079
 31
0.0
  0
LINE
  5
21D5
  8
0
  6
CONTINUOUS
 62
     7
 10
95.220791103050828
 20
103.49427855949079
 30
0.0
 11
95.330004718235656
 21
103.5048269507959
 31
0.0
  0
LINE
  5
21D6
  8
0
  6
CONTINUOUS
 62
     7
 10
95.330004718235656
 20
103.5048269507959
 30
0.0
 11
95.439424840167334
 21
103.5171967595254
 31
0.0
  0
LINE
  5
21D7
  8
0
  6
CONTINUOUS
 62
     7
 10
95.439424840167334
 20
103.5171967595254
 30
0.0
 11
95.54899176956846
 21
103.53139999543809
 31
0.0
  0
LINE
  5
21D8
  8
0
  6
CONTINUOUS
 62
     7
 10
95.54899176956846
 20
103.53139999543809
 30
0.0
 11
95.603811770102894
 21
103.5391922927314
 31
0.0
  0
LINE
  5
21D9
  8
0
  6
CONTINUOUS
 62
     7
 10
95.603811770102894
 20
103.5391922927314
 30
0.0
 11
95.658646334763688
 21
103.54744644793359
 31
0.0
  0
LINE
  5
21DA
  8
0
  6
CONTINUOUS
 62
     7
 10
95.658646334763688
 20
103.54744644793359
 30
0.0
 11
95.768330081915948
 21
103.5653437550332
 31
0.0
  0
LINE
  5
21DB
  8
0
  6
CONTINUOUS
 62
     7
 10
95.768330081915948
 20
103.5653437550332
 30
0.0
 11
95.877985464145979
 21
103.5850974884527
 31
0.0
  0
LINE
  5
21DC
  8
0
  6
CONTINUOUS
 62
     7
 10
95.877985464145979
 20
103.5850974884527
 30
0.0
 11
95.987556019627377
 21
103.60671125306951
 31
0.0
  0
LINE
  5
21DD
  8
0
  6
CONTINUOUS
 62
     7
 10
95.987556019627377
 20
103.60671125306951
 30
0.0
 11
96.096986105068083
 21
103.6301867032151
 31
0.0
  0
LINE
  5
21DE
  8
0
  6
CONTINUOUS
 62
     7
 10
96.096986105068083
 20
103.6301867032151
 30
0.0
 11
96.206220000313195
 21
103.6555233775531
 31
0.0
  0
LINE
  5
21DF
  8
0
  6
CONTINUOUS
 62
     7
 10
96.206220000313195
 20
103.6555233775531
 30
0.0
 11
96.260745915764744
 21
103.6688889366937
 31
0.0
  0
LINE
  5
21E0
  8
0
  6
CONTINUOUS
 62
     7
 10
96.260745915764744
 20
103.6688889366937
 30
0.0
 11
96.315201827907075
 21
103.6827186469025
 31
0.0
  0
LINE
  5
21E1
  8
0
  6
CONTINUOUS
 62
     7
 10
96.315201827907075
 20
103.6827186469025
 30
0.0
 11
96.423875745541693
 21
103.71176772373229
 31
0.0
  0
LINE
  5
21E2
  8
0
  6
CONTINUOUS
 62
     7
 10
96.423875745541693
 20
103.71176772373229
 30
0.0
 11
96.532186133766487
 21
103.7426636854665
 31
0.0
  0
LINE
  5
21E3
  8
0
  6
CONTINUOUS
 62
     7
 10
96.532186133766487
 20
103.7426636854665
 30
0.0
 11
96.640077777611495
 21
103.77539751101421
 31
0.0
  0
LINE
  5
21E4
  8
0
  6
CONTINUOUS
 62
     7
 10
96.640077777611495
 20
103.77539751101421
 30
0.0
 11
96.747496042413999
 21
103.8099581303228
 31
0.0
  0
LINE
  5
21E5
  8
0
  6
CONTINUOUS
 62
     7
 10
96.747496042413999
 20
103.8099581303228
 30
0.0
 11
96.854387044114532
 21
103.8463324868297
 31
0.0
  0
LINE
  5
21E6
  8
0
  6
CONTINUOUS
 62
     7
 10
96.854387044114532
 20
103.8463324868297
 30
0.0
 11
96.907618228487024
 21
103.8651952114358
 31
0.0
  0
LINE
  5
21E7
  8
0
  6
CONTINUOUS
 62
     7
 10
96.907618228487024
 20
103.8651952114358
 30
0.0
 11
96.960697814257799
 21
103.884505612754
 31
0.0
  0
LINE
  5
21E8
  8
0
  6
CONTINUOUS
 62
     7
 10
96.960697814257799
 20
103.884505612754
 30
0.0
 11
97.066376459896404
 21
103.92446071724331
 31
0.0
  0
LINE
  5
21E9
  8
0
  6
CONTINUOUS
 62
     7
 10
97.066376459896404
 20
103.92446071724331
 30
0.0
 11
97.17137231855105
 21
103.96617928744671
 31
0.0
  0
LINE
  5
21EA
  8
0
  6
CONTINUOUS
 62
     7
 10
97.17137231855105
 20
103.96617928744671
 30
0.0
 11
97.275641243415279
 21
104.0096433938027
 31
0.0
  0
LINE
  5
21EB
  8
0
  6
CONTINUOUS
 62
     7
 10
97.275641243415279
 20
104.0096433938027
 30
0.0
 11
97.379155829568674
 21
104.0548408312834
 31
0.0
  0
LINE
  5
21EC
  8
0
  6
CONTINUOUS
 62
     7
 10
97.379155829568674
 20
104.0548408312834
 30
0.0
 11
97.481870014595714
 21
104.10175022169619
 31
0.0
  0
LINE
  5
21ED
  8
0
  6
CONTINUOUS
 62
     7
 10
97.481870014595714
 20
104.10175022169619
 30
0.0
 11
97.532911929497374
 21
104.12583936821621
 31
0.0
  0
LINE
  5
21EE
  8
0
  6
CONTINUOUS
 62
     7
 10
97.532911929497374
 20
104.12583936821621
 30
0.0
 11
97.583735762779995
 21
104.1503472111613
 31
0.0
  0
LINE
  5
21EF
  8
0
  6
CONTINUOUS
 62
     7
 10
97.583735762779995
 20
104.1503472111613
 30
0.0
 11
97.684705502109807
 21
104.2006054214103
 31
0.0
  0
LINE
  5
21F0
  8
0
  6
CONTINUOUS
 62
     7
 10
97.684705502109807
 20
104.2006054214103
 30
0.0
 11
97.784732298814177
 21
104.252496494865
 31
0.0
  0
LINE
  5
21F1
  8
0
  6
CONTINUOUS
 62
     7
 10
97.784732298814177
 20
104.252496494865
 30
0.0
 11
97.883770023873282
 21
104.30599015076319
 31
0.0
  0
LINE
  5
21F2
  8
0
  6
CONTINUOUS
 62
     7
 10
97.883770023873282
 20
104.30599015076319
 30
0.0
 11
97.981773511858904
 21
104.36105425213989
 31
0.0
  0
LINE
  5
21F3
  8
0
  6
CONTINUOUS
 62
     7
 10
97.981773511858904
 20
104.36105425213989
 30
0.0
 11
98.078698712469475
 21
104.4176548835735
 31
0.0
  0
LINE
  5
21F4
  8
0
  6
CONTINUOUS
 62
     7
 10
98.078698712469475
 20
104.4176548835735
 30
0.0
 11
98.126743529927722
 21
104.4465203347564
 31
0.0
  0
LINE
  5
21F5
  8
0
  6
CONTINUOUS
 62
     7
 10
98.126743529927722
 20
104.4465203347564
 30
0.0
 11
98.174502835124571
 21
104.4757564397004
 31
0.0
  0
LINE
  5
21F6
  8
0
  6
CONTINUOUS
 62
     7
 10
98.174502835124571
 20
104.4757564397004
 30
0.0
 11
98.269144486972195
 21
104.5353217246019
 31
0.0
  0
LINE
  5
21F7
  8
0
  6
CONTINUOUS
 62
     7
 10
98.269144486972195
 20
104.5353217246019
 30
0.0
 11
98.362583804644245
 21
104.59631206226391
 31
0.0
  0
LINE
  5
21F8
  8
0
  6
CONTINUOUS
 62
     7
 10
98.362583804644245
 20
104.59631206226391
 30
0.0
 11
98.408840580154987
 21
104.6273291646516
 31
0.0
  0
LINE
  5
21F9
  8
0
  6
CONTINUOUS
 62
     7
 10
98.408840580154987
 20
104.6273291646516
 30
0.0
 11
98.454782571632393
 21
104.65868741259671
 31
0.0
  0
LINE
  5
21FA
  8
0
  6
CONTINUOUS
 62
     7
 10
98.454782571632393
 20
104.65868741259671
 30
0.0
 11
98.54570398319575
 21
104.72240625065361
 31
0.0
  0
LINE
  5
21FB
  8
0
  6
CONTINUOUS
 62
     7
 10
98.54570398319575
 20
104.72240625065361
 30
0.0
 11
98.635311969848331
 21
104.7874250828213
 31
0.0
  0
LINE
  5
21FC
  8
0
  6
CONTINUOUS
 62
     7
 10
98.635311969848331
 20
104.7874250828213
 30
0.0
 11
98.679612347780775
 21
104.82040784066631
 31
0.0
  0
LINE
  5
21FD
  8
0
  6
CONTINUOUS
 62
     7
 10
98.679612347780775
 20
104.82040784066631
 30
0.0
 11
98.723571177750543
 21
104.85369835722339
 31
0.0
  0
LINE
  5
21FE
  8
0
  6
CONTINUOUS
 62
     7
 10
98.723571177750543
 20
104.85369835722339
 30
0.0
 11
98.810447150248947
 21
104.9211785203961
 31
0.0
  0
LINE
  5
21FF
  8
0
  6
CONTINUOUS
 62
     7
 10
98.810447150248947
 20
104.9211785203961
 30
0.0
 11
98.895906500119665
 21
104.98981608496339
 31
0.0
  0
LINE
  5
2200
  8
0
  6
CONTINUOUS
 62
     7
 10
98.895906500119665
 20
104.98981608496339
 30
0.0
 11
98.979917071683118
 21
105.05955970727079
 31
0.0
  0
LINE
  5
2201
  8
0
  6
CONTINUOUS
 62
     7
 10
98.979917071683118
 20
105.05955970727079
 30
0.0
 11
99.062448093210065
 21
105.1303562748808
 31
0.0
  0
LINE
  5
2202
  8
0
  6
CONTINUOUS
 62
     7
 10
99.062448093210065
 20
105.1303562748808
 30
0.0
 11
99.143470320064665
 21
105.2021510039738
 31
0.0
  0
LINE
  5
2203
  8
0
  6
CONTINUOUS
 62
     7
 10
99.143470320064665
 20
105.2021510039738
 30
0.0
 11
99.183406947338554
 21
105.23840512835621
 31
0.0
  0
LINE
  5
2204
  8
0
  6
CONTINUOUS
 62
     7
 10
99.183406947338554
 20
105.23840512835621
 30
0.0
 11
99.222956169042249
 21
105.2748875468429
 31
0.0
  0
LINE
  5
2205
  8
0
  6
CONTINUOUS
 62
     7
 10
99.222956169042249
 20
105.2748875468429
 30
0.0
 11
99.300879844363166
 21
105.3485081098173
 31
0.0
  0
LINE
  5
2206
  8
0
  6
CONTINUOUS
 62
     7
 10
99.300879844363166
 20
105.3485081098173
 30
0.0
 11
99.377217455777185
 21
105.4229535821048
 31
0.0
  0
LINE
  5
2207
  8
0
  6
CONTINUOUS
 62
     7
 10
99.377217455777185
 20
105.4229535821048
 30
0.0
 11
99.452160192381285
 21
105.4983815140933
 31
0.0
  0
LINE
  5
2208
  8
0
  6
CONTINUOUS
 62
     7
 10
99.452160192381285
 20
105.4983815140933
 30
0.0
 11
99.52627553689355
 21
105.57537107853869
 31
0.0
  0
LINE
  5
2209
  8
0
  6
CONTINUOUS
 62
     7
 10
99.52627553689355
 20
105.57537107853869
 30
0.0
 11
99.599541020807152
 21
105.6539365133151
 31
0.0
  0
LINE
  5
220A
  8
0
  6
CONTINUOUS
 62
     7
 10
99.599541020807152
 20
105.6539365133151
 30
0.0
 11
99.635836569959878
 21
105.69380237371389
 31
0.0
  0
LINE
  5
220B
  8
0
  6
CONTINUOUS
 62
     7
 10
99.635836569959878
 20
105.69380237371389
 30
0.0
 11
99.671897664162586
 21
105.73405262904561
 31
0.0
  0
LINE
  5
220C
  8
0
  6
CONTINUOUS
 62
     7
 10
99.671897664162586
 20
105.73405262904561
 30
0.0
 11
99.743288153342235
 21
105.8156926577723
 31
0.0
  0
LINE
  5
220D
  8
0
  6
CONTINUOUS
 62
     7
 10
99.743288153342235
 20
105.8156926577723
 30
0.0
 11
99.813656943479856
 21
105.8988283981823
 31
0.0
  0
LINE
  5
220E
  8
0
  6
CONTINUOUS
 62
     7
 10
99.813656943479856
 20
105.8988283981823
 30
0.0
 11
99.848441350224505
 21
105.9409479934484
 31
0.0
  0
LINE
  5
220F
  8
0
  6
CONTINUOUS
 62
     7
 10
99.848441282906478
 20
114.4951825313394
 30
0.0
 11
99.813656876342066
 21
114.5373021250454
 31
0.0
  0
LINE
  5
2210
  8
0
  6
CONTINUOUS
 62
     7
 10
99.813656876342066
 20
114.5373021250454
 30
0.0
 11
99.743288086635715
 21
114.6204378623584
 31
0.0
  0
LINE
  5
2211
  8
0
  6
CONTINUOUS
 62
     7
 10
99.743288086635715
 20
114.6204378623584
 30
0.0
 11
99.671897597980276
 21
114.70207788802151
 31
0.0
  0
LINE
  5
2212
  8
0
  6
CONTINUOUS
 62
     7
 10
99.671897597980276
 20
114.70207788802151
 30
0.0
 11
99.635836504074007
 21
114.742328141835
 31
0.0
  0
LINE
  5
2213
  8
0
  6
CONTINUOUS
 62
     7
 10
99.635836504074007
 20
114.742328141835
 30
0.0
 11
99.599540955240244
 21
114.7821940007251
 31
0.0
  0
LINE
  5
2214
  8
0
  6
CONTINUOUS
 62
     7
 10
99.599540955240244
 20
114.7821940007251
 30
0.0
 11
99.526275472031287
 21
114.8607594325143
 31
0.0
  0
LINE
  5
2215
  8
0
  6
CONTINUOUS
 62
     7
 10
99.526275472031287
 20
114.8607594325143
 30
0.0
 11
99.452160128310624
 21
114.937748994015
 31
0.0
  0
LINE
  5
2216
  8
0
  6
CONTINUOUS
 62
     7
 10
99.452160128310624
 20
114.937748994015
 30
0.0
 11
99.377217392365935
 21
115.0131769233184
 31
0.0
  0
LINE
  5
2217
  8
0
  6
CONTINUOUS
 62
     7
 10
99.377217392365935
 20
115.0131769233184
 30
0.0
 11
99.300879781177116
 21
115.0876223934353
 31
0.0
  0
LINE
  5
2218
  8
0
  6
CONTINUOUS
 62
     7
 10
99.300879781177116
 20
115.0876223934353
 30
0.0
 11
99.222956106164531
 21
115.1612429542235
 31
0.0
  0
LINE
  5
2219
  8
0
  6
CONTINUOUS
 62
     7
 10
99.222956106164531
 20
115.1612429542235
 30
0.0
 11
99.183406884646246
 21
115.1977253716128
 31
0.0
  0
LINE
  5
221A
  8
0
  6
CONTINUOUS
 62
     7
 10
99.183406884646246
 20
115.1977253716128
 30
0.0
 11
99.143470257578571
 21
115.23397949489561
 31
0.0
  0
LINE
  5
221B
  8
0
  6
CONTINUOUS
 62
     7
 10
99.143470257578571
 20
115.23397949489561
 30
0.0
 11
99.062448031198798
 21
115.3057742217855
 31
0.0
  0
LINE
  5
221C
  8
0
  6
CONTINUOUS
 62
     7
 10
99.062448031198798
 20
115.3057742217855
 30
0.0
 11
98.979917010229514
 21
115.3765707871907
 31
0.0
  0
LINE
  5
221D
  8
0
  6
CONTINUOUS
 62
     7
 10
98.979917010229514
 20
115.3765707871907
 30
0.0
 11
98.895906439305961
 21
115.4463144072963
 31
0.0
  0
LINE
  5
221E
  8
0
  6
CONTINUOUS
 62
     7
 10
98.895906439305961
 20
115.4463144072963
 30
0.0
 11
98.810447090156501
 21
115.5149519696692
 31
0.0
  0
LINE
  5
221F
  8
0
  6
CONTINUOUS
 62
     7
 10
98.810447090156501
 20
115.5149519696692
 30
0.0
 11
98.723571118459773
 21
115.5824321306593
 31
0.0
  0
LINE
  5
2220
  8
0
  6
CONTINUOUS
 62
     7
 10
98.723571118459773
 20
115.5824321306593
 30
0.0
 11
98.679612288920652
 21
115.61572264613081
 31
0.0
  0
LINE
  5
2221
  8
0
  6
CONTINUOUS
 62
     7
 10
98.679612288920652
 20
115.61572264613081
 30
0.0
 11
98.635311911438436
 21
115.6487054028949
 31
0.0
  0
LINE
  5
2222
  8
0
  6
CONTINUOUS
 62
     7
 10
98.635311911438436
 20
115.6487054028949
 30
0.0
 11
98.545703925744405
 21
115.7137242329165
 31
0.0
  0
LINE
  5
2223
  8
0
  6
CONTINUOUS
 62
     7
 10
98.545703925744405
 20
115.7137242329165
 30
0.0
 11
98.454782515215683
 21
115.7774430688518
 31
0.0
  0
LINE
  5
2224
  8
0
  6
CONTINUOUS
 62
     7
 10
98.454782515215683
 20
115.7774430688518
 30
0.0
 11
98.408840524283576
 21
115.80880131574651
 31
0.0
  0
LINE
  5
2225
  8
0
  6
CONTINUOUS
 62
     7
 10
98.408840524283576
 20
115.80880131574651
 30
0.0
 11
98.362583749336451
 21
115.83981841709139
 31
0.0
  0
LINE
  5
2226
  8
0
  6
CONTINUOUS
 62
     7
 10
98.362583749336451
 20
115.83981841709139
 30
0.0
 11
98.269144432845977
 21
115.9008087526921
 31
0.0
  0
LINE
  5
2227
  8
0
  6
CONTINUOUS
 62
     7
 10
98.269144432845977
 20
115.9008087526921
 30
0.0
 11
98.174502782251196
 21
115.9603740355674
 31
0.0
  0
LINE
  5
2228
  8
0
  6
CONTINUOUS
 62
     7
 10
98.174502782251196
 20
115.9603740355674
 30
0.0
 11
98.126743477707052
 21
115.98961013951261
 31
0.0
  0
LINE
  5
2229
  8
0
  6
CONTINUOUS
 62
     7
 10
98.126743477707052
 20
115.98961013951261
 30
0.0
 11
98.078698660918747
 21
116.0184755897066
 31
0.0
  0
LINE
  5
222A
  8
0
  6
CONTINUOUS
 62
     7
 10
98.078698660918747
 20
116.0184755897066
 30
0.0
 11
97.981773461698864
 21
116.075076219194
 31
0.0
  0
LINE
  5
222B
  8
0
  6
CONTINUOUS
 62
     7
 10
97.981773461698864
 20
116.075076219194
 30
0.0
 11
97.883769975170054
 21
116.13014031866889
 31
0.0
  0
LINE
  5
222C
  8
0
  6
CONTINUOUS
 62
     7
 10
97.883769975170054
 20
116.13014031866889
 30
0.0
 11
97.784732251631823
 21
116.1836339727128
 31
0.0
  0
LINE
  5
222D
  8
0
  6
CONTINUOUS
 62
     7
 10
97.784732251631823
 20
116.1836339727128
 30
0.0
 11
97.68470545651013
 21
116.2355250443634
 31
0.0
  0
LINE
  5
222E
  8
0
  6
CONTINUOUS
 62
     7
 10
97.68470545651013
 20
116.2355250443634
 30
0.0
 11
97.58373571882241
 21
116.28578325286129
 31
0.0
  0
LINE
  5
222F
  8
0
  6
CONTINUOUS
 62
     7
 10
97.58373571882241
 20
116.28578325286129
 30
0.0
 11
97.532911886382365
 21
116.31029109495169
 31
0.0
  0
LINE
  5
2230
  8
0
  6
CONTINUOUS
 62
     7
 10
97.532911886382365
 20
116.31029109495169
 30
0.0
 11
97.481869972337108
 21
116.33438024063091
 31
0.0
  0
LINE
  5
2231
  8
0
  6
CONTINUOUS
 62
     7
 10
97.481869972337108
 20
116.33438024063091
 30
0.0
 11
97.379155789063233
 21
116.3812896294064
 31
0.0
  0
LINE
  5
2232
  8
0
  6
CONTINUOUS
 62
     7
 10
97.379155789063233
 20
116.3812896294064
 30
0.0
 11
97.275641204714475
 21
116.42648706531
 31
0.0
  0
LINE
  5
2233
  8
0
  6
CONTINUOUS
 62
     7
 10
97.275641204714475
 20
116.42648706531
 30
0.0
 11
97.171372281699419
 21
116.4699511701529
 31
0.0
  0
LINE
  5
2234
  8
0
  6
CONTINUOUS
 62
     7
 10
97.171372281699419
 20
116.4699511701529
 30
0.0
 11
97.066376424934475
 21
116.5116697389096
 31
0.0
  0
LINE
  5
2235
  8
0
  6
CONTINUOUS
 62
     7
 10
97.066376424934475
 20
116.5116697389096
 30
0.0
 11
96.960697781229854
 21
116.5516248420172
 31
0.0
  0
LINE
  5
2236
  8
0
  6
CONTINUOUS
 62
     7
 10
96.960697781229854
 20
116.5516248420172
 30
0.0
 11
96.907618196441874
 21
116.57093524266951
 31
0.0
  0
LINE
  5
2237
  8
0
  6
CONTINUOUS
 62
     7
 10
96.907618196441874
 20
116.57093524266951
 30
0.0
 11
96.854387013062237
 21
116.5897979666267
 31
0.0
  0
LINE
  5
2238
  8
0
  6
CONTINUOUS
 62
     7
 10
96.854387013062237
 20
116.5897979666267
 30
0.0
 11
96.747496013376164
 21
116.6261723218872
 31
0.0
  0
LINE
  5
2239
  8
0
  6
CONTINUOUS
 62
     7
 10
96.747496013376164
 20
116.6261723218872
 30
0.0
 11
96.64007775062403
 21
116.6607329400194
 31
0.0
  0
LINE
  5
223A
  8
0
  6
CONTINUOUS
 62
     7
 10
96.64007775062403
 20
116.6607329400194
 30
0.0
 11
96.532186108862234
 21
116.6934667644617
 31
0.0
  0
LINE
  5
223B
  8
0
  6
CONTINUOUS
 62
     7
 10
96.532186108862234
 20
116.6934667644617
 30
0.0
 11
96.423875722750296
 21
116.72436272516281
 31
0.0
  0
LINE
  5
223C
  8
0
  6
CONTINUOUS
 62
     7
 10
96.423875722750296
 20
116.72436272516281
 30
0.0
 11
96.315201807254951
 21
116.7534118010328
 31
0.0
  0
LINE
  5
223D
  8
0
  6
CONTINUOUS
 62
     7
 10
96.315201807254951
 20
116.7534118010328
 30
0.0
 11
96.260745896191111
 21
116.7672415107896
 31
0.0
  0
LINE
  5
223E
  8
0
  6
CONTINUOUS
 62
     7
 10
96.260745896191111
 20
116.7672415107896
 30
0.0
 11
96.206219981823423
 21
116.7806070694967
 31
0.0
  0
LINE
  5
223F
  8
0
  6
CONTINUOUS
 62
     7
 10
96.206219981823423
 20
116.7806070694967
 30
0.0
 11
96.096986088760374
 21
116.8059437430239
 31
0.0
  0
LINE
  5
2240
  8
0
  6
CONTINUOUS
 62
     7
 10
96.096986088760374
 20
116.8059437430239
 30
0.0
 11
95.987556005518002
 21
116.8294191924341
 31
0.0
  0
LINE
  5
2241
  8
0
  6
CONTINUOUS
 62
     7
 10
95.987556005518002
 20
116.8294191924341
 30
0.0
 11
95.877985452247827
 21
116.85103295639119
 31
0.0
  0
LINE
  5
2242
  8
0
  6
CONTINUOUS
 62
     7
 10
95.877985452247827
 20
116.85103295639119
 30
0.0
 11
95.768330072238527
 21
116.8707866892267
 31
0.0
  0
LINE
  5
2243
  8
0
  6
CONTINUOUS
 62
     7
 10
95.768330072238527
 20
116.8707866892267
 30
0.0
 11
95.658646327313164
 21
116.8886839958181
 31
0.0
  0
LINE
  5
2244
  8
0
  6
CONTINUOUS
 62
     7
 10
95.658646327313164
 20
116.8886839958181
 30
0.0
 11
95.603811763767084
 21
116.8969381507946
 31
0.0
  0
LINE
  5
2245
  8
0
  6
CONTINUOUS
 62
     7
 10
95.603811763767084
 20
116.8969381507946
 30
0.0
 11
95.548991764347605
 21
116.90473044788109
 31
0.0
  0
LINE
  5
2246
  8
0
  6
CONTINUOUS
 62
     7
 10
95.548991764347605
 20
116.90473044788109
 30
0.0
 11
95.439424837175395
 21
116.91893368343651
 31
0.0
  0
LINE
  5
2247
  8
0
  6
CONTINUOUS
 62
     7
 10
95.439424837175395
 20
116.91893368343651
 30
0.0
 11
95.33000471746827
 21
116.9313034918834
 31
0.0
  0
LINE
  5
2248
  8
0
  6
CONTINUOUS
 62
     7
 10
95.33000471746827
 20
116.9313034918834
 30
0.0
 11
95.220791104500066
 21
116.94185188298
 31
0.0
  0
LINE
  5
2249
  8
0
  6
CONTINUOUS
 62
     7
 10
95.220791104500066
 20
116.94185188298
 30
0.0
 11
95.111844033824894
 21
116.95059314000289
 31
0.0
  0
LINE
  5
224A
  8
0
  6
CONTINUOUS
 62
     7
 10
95.111844033824894
 20
116.95059314000289
 30
0.0
 11
95.003223684786406
 21
116.9575438573044
 31
0.0
  0
LINE
  5
224B
  8
0
  6
CONTINUOUS
 62
     7
 10
95.003223684786406
 20
116.9575438573044
 30
0.0
 11
94.94905482856943
 21
116.960353586986
 31
0.0
  0
LINE
  5
224C
  8
0
  6
CONTINUOUS
 62
     7
 10
94.94905482856943
 20
116.960353586986
 30
0.0
 11
94.894990186663435
 21
116.9627229624231
 31
0.0
  0
LINE
  5
224D
  8
0
  6
CONTINUOUS
 62
     7
 10
94.894990186663435
 20
116.9627229624231
 30
0.0
 11
94.787203423151169
 21
116.96615172282949
 31
0.0
  0
LINE
  5
224E
  8
0
  6
CONTINUOUS
 62
     7
 10
94.787203423151169
 20
116.96615172282949
 30
0.0
 11
94.679922834772356
 21
116.96785373730511
 31
0.0
  0
LINE
  5
224F
  8
0
  6
CONTINUOUS
 62
     7
 10
94.679922834772356
 20
116.96785373730511
 30
0.0
 11
94.626490761043684
 21
116.9680652212994
 31
0.0
  0
LINE
  5
2250
  8
0
  6
CONTINUOUS
 62
     7
 10
94.626490761043684
 20
116.9680652212994
 30
0.0
 11
94.573058687451919
 21
116.9678537377055
 31
0.0
  0
LINE
  5
2251
  8
0
  6
CONTINUOUS
 62
     7
 10
94.573058687451919
 20
116.9678537377055
 30
0.0
 11
94.4657780993263
 21
116.96615172404
 31
0.0
  0
LINE
  5
2252
  8
0
  6
CONTINUOUS
 62
     7
 10
94.4657780993263
 20
116.96615172404
 30
0.0
 11
94.357991336039248
 21
116.96272296445549
 31
0.0
  0
LINE
  5
2253
  8
0
  6
CONTINUOUS
 62
     7
 10
94.357991336039248
 20
116.96272296445549
 30
0.0
 11
94.303926694235315
 21
116.9603535894333
 31
0.0
  0
LINE
  5
2254
  8
0
  6
CONTINUOUS
 62
     7
 10
94.303926694235315
 20
116.9603535894333
 30
0.0
 11
94.249757838113283
 21
116.9575438601692
 31
0.0
  0
LINE
  5
2255
  8
0
  6
CONTINUOUS
 62
     7
 10
94.249757838113283
 20
116.9575438601692
 30
0.0
 11
94.141137489243448
 21
116.9505931437096
 31
0.0
  0
LINE
  5
2256
  8
0
  6
CONTINUOUS
 62
     7
 10
94.141137489243448
 20
116.9505931437096
 30
0.0
 11
94.032190418708467
 21
116.941851887537
 31
0.0
  0
LINE
  5
2257
  8
0
  6
CONTINUOUS
 62
     7
 10
94.032190418708467
 20
116.941851887537
 30
0.0
 11
93.922976805852016
 21
116.9313034972981
 31
0.0
  0
LINE
  5
2258
  8
0
  6
CONTINUOUS
 62
     7
 10
93.922976805852016
 20
116.9313034972981
 30
0.0
 11
93.813556686228367
 21
116.9189336897149
 31
0.0
  0
LINE
  5
2259
  8
0
  6
CONTINUOUS
 62
     7
 10
93.813556686228367
 20
116.9189336897149
 30
0.0
 11
93.703989759111494
 21
116.9047304550285
 31
0.0
  0
LINE
  5
225A
  8
0
  6
CONTINUOUS
 62
     7
 10
93.703989759111494
 20
116.9047304550285
 30
0.0
 11
93.649169759709224
 21
116.89693815837821
 31
0.0
  0
LINE
  5
225B
  8
0
  6
CONTINUOUS
 62
     7
 10
93.649169759709224
 20
116.89693815837821
 30
0.0
 11
93.594335196173446
 21
116.8886840038387
 31
0.0
  0
LINE
  5
225C
  8
0
  6
CONTINUOUS
 62
     7
 10
93.594335196173446
 20
116.8886840038387
 30
0.0
 11
93.484651451248226
 21
116.8707866981234
 31
0.0
  0
LINE
  5
225D
  8
0
  6
CONTINUOUS
 62
     7
 10
93.484651451248226
 20
116.8707866981234
 30
0.0
 11
93.374996071212067
 21
116.8510329661663
 31
0.0
  0
LINE
  5
225E
  8
0
  6
CONTINUOUS
 62
     7
 10
93.374996071212067
 20
116.8510329661663
 30
0.0
 11
93.265425517888644
 21
116.8294192030888
 31
0.0
  0
LINE
  5
225F
  8
0
  6
CONTINUOUS
 62
     7
 10
93.265425517888644
 20
116.8294192030888
 30
0.0
 11
93.155995434566748
 21
116.8059437545585
 31
0.0
  0
LINE
  5
2260
  8
0
  6
CONTINUOUS
 62
     7
 10
93.155995434566748
 20
116.8059437545585
 30
0.0
 11
93.046761541397785
 21
116.7806070819105
 31
0.0
  0
LINE
  5
2261
  8
0
  6
CONTINUOUS
 62
     7
 10
93.046761541397785
 20
116.7806070819105
 30
0.0
 11
92.992235626967215
 21
116.7672415236423
 31
0.0
  0
LINE
  5
2262
  8
0
  6
CONTINUOUS
 62
     7
 10
92.992235626967215
 20
116.7672415236423
 30
0.0
 11
92.937779715833926
 21
116.753411814324
 31
0.0
  0
LINE
  5
2263
  8
0
  6
CONTINUOUS
 62
     7
 10
92.937779715833926
 20
116.753411814324
 30
0.0
 11
92.829105800179875
 21
116.7243627393287
 31
0.0
  0
LINE
  5
2264
  8
0
  6
CONTINUOUS
 62
     7
 10
92.829105800179875
 20
116.7243627393287
 30
0.0
 11
92.720795413883053
 21
116.69346677949839
 31
0.0
  0
LINE
  5
2265
  8
0
  6
CONTINUOUS
 62
     7
 10
92.720795413883053
 20
116.69346677949839
 30
0.0
 11
92.612903771910354
 21
116.6607329559223
 31
0.0
  0
LINE
  5
2266
  8
0
  6
CONTINUOUS
 62
     7
 10
92.612903771910354
 20
116.6607329559223
 30
0.0
 11
92.505485508921737
 21
116.6261723386506
 31
0.0
  0
LINE
  5
2267
  8
0
  6
CONTINUOUS
 62
     7
 10
92.505485508921737
 20
116.6261723386506
 30
0.0
 11
92.398594508973886
 21
116.5897979842439
 31
0.0
  0
LINE
  5
2268
  8
0
  6
CONTINUOUS
 62
     7
 10
92.398594508973886
 20
116.5897979842439
 30
0.0
 11
92.345363325454031
 21
116.5709352607108
 31
0.0
  0
LINE
  5
2269
  8
0
  6
CONTINUOUS
 62
     7
 10
92.345363325454031
 20
116.5709352607108
 30
0.0
 11
92.292283740519679
 21
116.5516248604806
 31
0.0
  0
LINE
  5
226A
  8
0
  6
CONTINUOUS
 62
     7
 10
92.292283740519679
 20
116.5516248604806
 30
0.0
 11
92.186605096504238
 21
116.5116697582109
 31
0.0
  0
LINE
  5
226B
  8
0
  6
CONTINUOUS
 62
     7
 10
92.186605096504238
 20
116.5116697582109
 30
0.0
 11
92.081609239404827
 21
116.4699511902831
 31
0.0
  0
LINE
  5
226C
  8
0
  6
CONTINUOUS
 62
     7
 10
92.081609239404827
 20
116.4699511902831
 30
0.0
 11
91.977340316040426
 21
116.4264870862625
 31
0.0
  0
LINE
  5
226D
  8
0
  6
CONTINUOUS
 62
     7
 10
91.977340316040426
 20
116.4264870862625
 30
0.0
 11
91.873825731324786
 21
116.3812896511734
 31
0.0
  0
LINE
  5
226E
  8
0
  6
CONTINUOUS
 62
     7
 10
91.873825731324786
 20
116.3812896511734
 30
0.0
 11
91.771111547661263
 21
116.3343802632015
 31
0.0
  0
LINE
  5
226F
  8
0
  6
CONTINUOUS
 62
     7
 10
91.771111547661263
 20
116.3343802632015
 30
0.0
 11
91.720069633412734
 21
116.3102911179195
 31
0.0
  0
LINE
  5
2270
  8
0
  6
CONTINUOUS
 62
     7
 10
91.720069633412734
 20
116.3102911179195
 30
0.0
 11
91.66924580076369
 21
116.2857832762234
 31
0.0
  0
LINE
  5
2271
  8
0
  6
CONTINUOUS
 62
     7
 10
91.66924580076369
 20
116.2857832762234
 30
0.0
 11
91.568276062641345
 21
116.235525068504
 31
0.0
  0
LINE
  5
2272
  8
0
  6
CONTINUOUS
 62
     7
 10
91.568276062641345
 20
116.235525068504
 30
0.0
 11
91.468249267063058
 21
116.1836339976181
 31
0.0
  0
LINE
  5
2273
  8
0
  6
CONTINUOUS
 62
     7
 10
91.468249267063058
 20
116.1836339976181
 30
0.0
 11
91.369211543046646
 21
116.1301403443242
 31
0.0
  0
LINE
  5
2274
  8
0
  6
CONTINUOUS
 62
     7
 10
91.369211543046646
 20
116.1301403443242
 30
0.0
 11
91.271208056018565
 21
116.0750762455836
 31
0.0
  0
LINE
  5
2275
  8
0
  6
CONTINUOUS
 62
     7
 10
91.271208056018565
 20
116.0750762455836
 30
0.0
 11
91.174282856278836
 21
116.0184756168141
 31
0.0
  0
LINE
  5
2276
  8
0
  6
CONTINUOUS
 62
     7
 10
91.174282856278836
 20
116.0184756168141
 30
0.0
 11
91.126238039223097
 21
115.9896101669726
 31
0.0
  0
LINE
  5
2277
  8
0
  6
CONTINUOUS
 62
     7
 10
91.126238039223097
 20
115.9896101669726
 30
0.0
 11
91.078478734406644
 21
115.9603740633756
 31
0.0
  0
LINE
  5
2278
  8
0
  6
CONTINUOUS
 62
     7
 10
91.078478734406644
 20
115.9603740633756
 30
0.0
 11
90.983837083252908
 21
115.900808781183
 31
0.0
  0
LINE
  5
2279
  8
0
  6
CONTINUOUS
 62
     7
 10
90.983837083252908
 20
115.900808781183
 30
0.0
 11
90.89039776618506
 21
115.8398184462464
 31
0.0
  0
LINE
  5
227A
  8
0
  6
CONTINUOUS
 62
     7
 10
90.89039776618506
 20
115.8398184462464
 30
0.0
 11
90.844140990942577
 21
115.8088013452264
 31
0.0
  0
LINE
  5
227B
  8
0
  6
CONTINUOUS
 62
     7
 10
90.844140990942577
 20
115.8088013452264
 30
0.0
 11
90.798198999710749
 21
115.7774430986517
 31
0.0
  0
LINE
  5
227C
  8
0
  6
CONTINUOUS
 62
     7
 10
90.798198999710749
 20
115.7774430986517
 30
0.0
 11
90.707277588569781
 21
115.71372426334121
 31
0.0
  0
LINE
  5
227D
  8
0
  6
CONTINUOUS
 62
     7
 10
90.707277588569781
 20
115.71372426334121
 30
0.0
 11
90.617669602246593
 21
115.6487054339235
 31
0.0
  0
LINE
  5
227E
  8
0
  6
CONTINUOUS
 62
     7
 10
90.617669602246593
 20
115.6487054339235
 30
0.0
 11
90.573369224443582
 21
115.61572267745311
 31
0.0
  0
LINE
  5
227F
  8
0
  6
CONTINUOUS
 62
     7
 10
90.573369224443582
 20
115.61572267745311
 30
0.0
 11
90.529410394579571
 21
115.5824321622696
 31
0.0
  0
LINE
  5
2280
  8
0
  6
CONTINUOUS
 62
     7
 10
90.529410394579571
 20
115.5824321622696
 30
0.0
 11
90.442534422221144
 21
115.5149520018384
 31
0.0
  0
LINE
  5
2281
  8
0
  6
CONTINUOUS
 62
     7
 10
90.442534422221144
 20
115.5149520018384
 30
0.0
 11
90.357075072394494
 21
115.44631444000051
 31
0.0
  0
LINE
  5
2282
  8
0
  6
CONTINUOUS
 62
     7
 10
90.357075072394494
 20
115.44631444000051
 30
0.0
 11
90.273064500778844
 21
115.37657082040521
 31
0.0
  0
LINE
  5
2283
  8
0
  6
CONTINUOUS
 62
     7
 10
90.273064500778844
 20
115.37657082040521
 30
0.0
 11
90.190533479103266
 21
115.30577425548481
 31
0.0
  0
LINE
  5
2284
  8
0
  6
CONTINUOUS
 62
     7
 10
90.190533479103266
 20
115.30577425548481
 30
0.0
 11
90.109511252003756
 21
115.2339795290534
 31
0.0
  0
LINE
  5
2285
  8
0
  6
CONTINUOUS
 62
     7
 10
90.109511252003756
 20
115.2339795290534
 30
0.0
 11
90.069574624571459
 21
115.1977254059899
 31
0.0
  0
LINE
  5
2286
  8
0
  6
CONTINUOUS
 62
     7
 10
90.069574624571459
 20
115.1977254059899
 30
0.0
 11
90.030025402685439
 21
115.1612429888129
 31
0.0
  0
LINE
  5
2287
  8
0
  6
CONTINUOUS
 62
     7
 10
90.030025402685439
 20
115.1612429888129
 30
0.0
 11
89.952101726928774
 21
115.0876224284286
 31
0.0
  0
LINE
  5
2288
  8
0
  6
CONTINUOUS
 62
     7
 10
89.952101726928774
 20
115.0876224284286
 30
0.0
 11
89.875764114985074
 21
115.0131769586874
 31
0.0
  0
LINE
  5
2289
  8
0
  6
CONTINUOUS
 62
     7
 10
89.875764114985074
 20
115.0131769586874
 30
0.0
 11
89.80082137855976
 21
114.9377490300248
 31
0.0
  0
LINE
  5
228A
  8
0
  6
CONTINUOUS
 62
     7
 10
89.80082137855976
 20
114.9377490300248
 30
0.0
 11
89.726706034451695
 21
114.8607594692745
 31
0.0
  0
LINE
  5
228B
  8
0
  6
CONTINUOUS
 62
     7
 10
89.726706034451695
 20
114.8607594692745
 30
0.0
 11
89.653440550827128
 21
114.7821940382244
 31
0.0
  0
LINE
  5
228C
  8
0
  6
CONTINUOUS
 62
     7
 10
89.653440550827128
 20
114.7821940382244
 30
0.0
 11
89.617145001775214
 21
114.7423281796994
 31
0.0
  0
LINE
  5
228D
  8
0
  6
CONTINUOUS
 62
     7
 10
89.617145001775214
 20
114.7423281796994
 30
0.0
 11
89.581083907644029
 21
114.7020779262477
 31
0.0
  0
LINE
  5
228E
  8
0
  6
CONTINUOUS
 62
     7
 10
89.581083907644029
 20
114.7020779262477
 30
0.0
 11
89.509693418518864
 21
114.6204379012984
 31
0.0
  0
LINE
  5
228F
  8
0
  6
CONTINUOUS
 62
     7
 10
89.509693418518864
 20
114.6204379012984
 30
0.0
 11
89.439324628316911
 21
114.5373021646856
 31
0.0
  0
LINE
  5
2290
  8
0
  6
CONTINUOUS
 62
     7
 10
89.439324628316911
 20
114.5373021646856
 30
0.0
 11
89.404540221495225
 21
114.49518257132419
 31
0.0
  0
LINE
  5
24AB
  8
0
  6
CONTINUOUS
 62
     7
 10
84.322244038468398
 20
78.873643598521809
 30
0.0
 11
84.372216370533067
 21
78.857262595267684
 31
0.0
  0
LINE
  5
24AC
  8
0
  6
CONTINUOUS
 62
     7
 10
84.372216370533067
 20
78.857262595267684
 30
0.0
 11
84.472239031452801
 21
78.824739599747602
 31
0.0
  0
LINE
  5
24AD
  8
0
  6
CONTINUOUS
 62
     7
 10
84.472239031452801
 20
78.824739599747602
 30
0.0
 11
84.572364841274819
 21
78.792535560520335
 31
0.0
  0
LINE
  5
24AE
  8
0
  6
CONTINUOUS
 62
     7
 10
84.572364841274819
 20
78.792535560520335
 30
0.0
 11
84.62246610922179
 21
78.776553251872869
 31
0.0
  0
LINE
  5
24AF
  8
0
  6
CONTINUOUS
 62
     7
 10
82.136494739028947
 20
79.223643598521804
 30
0.0
 11
82.198241799493616
 21
79.223371257547115
 31
0.0
  0
LINE
  5
24B0
  8
0
  6
CONTINUOUS
 62
     7
 10
82.198241799493616
 20
79.223371257547115
 30
0.0
 11
82.321716702220016
 21
79.221192656895852
 31
0.0
  0
LINE
  5
24B1
  8
0
  6
CONTINUOUS
 62
     7
 10
82.321716702220016
 20
79.221192656895852
 30
0.0
 11
82.445133956319324
 21
79.216836133662696
 31
0.0
  0
LINE
  5
24B2
  8
0
  6
CONTINUOUS
 62
     7
 10
82.445133956319324
 20
79.216836133662696
 30
0.0
 11
82.506808960205447
 21
79.213841548336561
 31
0.0
  0
LINE
  5
24B3
  8
0
  6
CONTINUOUS
 62
     7
 10
82.506808960205447
 20
79.213841548336561
 30
0.0
 11
82.568455149309898
 21
79.210303043775298
 31
0.0
  0
LINE
  5
24B4
  8
0
  6
CONTINUOUS
 62
     7
 10
82.568455149309898
 20
79.210303043775298
 30
0.0
 11
82.691641898608225
 21
79.201595420597613
 31
0.0
  0
LINE
  5
24B5
  8
0
  6
CONTINUOUS
 62
     7
 10
82.691641898608225
 20
79.201595420597613
 30
0.0
 11
82.814655863475167
 21
79.190715974297007
 31
0.0
  0
LINE
  5
24B6
  8
0
  6
CONTINUOUS
 62
     7
 10
82.814655863475167
 20
79.190715974297007
 30
0.0
 11
82.937458756949127
 21
79.177668091000754
 31
0.0
  0
LINE
  5
24B7
  8
0
  6
CONTINUOUS
 62
     7
 10
82.937458756949127
 20
79.177668091000754
 30
0.0
 11
83.060012357762588
 21
79.162455831742164
 31
0.0
  0
LINE
  5
24B8
  8
0
  6
CONTINUOUS
 62
     7
 10
83.060012357762588
 20
79.162455831742164
 30
0.0
 11
83.182278522237993
 21
79.145083931196567
 31
0.0
  0
LINE
  5
24B9
  8
0
  6
CONTINUOUS
 62
     7
 10
83.182278522237993
 20
79.145083931196567
 30
0.0
 11
83.243291920087884
 21
79.135589778867825
 31
0.0
  0
LINE
  5
24BA
  8
0
  6
CONTINUOUS
 62
     7
 10
83.243291920087884
 20
79.135589778867825
 30
0.0
 11
83.30421919615975
 21
79.12555779620773
 31
0.0
  0
LINE
  5
24BB
  8
0
  6
CONTINUOUS
 62
     7
 10
83.30421919615975
 20
79.12555779620773
 30
0.0
 11
83.425796426618163
 21
79.103883504104985
 31
0.0
  0
LINE
  5
24BC
  8
0
  6
CONTINUOUS
 62
     7
 10
83.425796426618163
 20
79.103883504104985
 30
0.0
 11
83.546972373822001
 21
79.080067800811847
 31
0.0
  0
LINE
  5
24BD
  8
0
  6
CONTINUOUS
 62
     7
 10
83.546972373822001
 20
79.080067800811847
 30
0.0
 11
83.667709322875695
 21
79.054118098746159
 31
0.0
  0
LINE
  5
24BE
  8
0
  6
CONTINUOUS
 62
     7
 10
83.667709322875695
 20
79.054118098746159
 30
0.0
 11
83.787969695517845
 21
79.026042474513275
 31
0.0
  0
LINE
  5
24BF
  8
0
  6
CONTINUOUS
 62
     7
 10
83.787969695517845
 20
79.026042474513275
 30
0.0
 11
83.907716061817041
 21
78.995849666392203
 31
0.0
  0
LINE
  5
24C0
  8
0
  6
CONTINUOUS
 62
     7
 10
83.907716061817041
 20
78.995849666392203
 30
0.0
 11
83.967384839161383
 21
78.979962229347109
 31
0.0
  0
LINE
  5
24C1
  8
0
  6
CONTINUOUS
 62
     7
 10
83.967384839161383
 20
78.979962229347109
 30
0.0
 11
84.026911151821594
 21
78.963549071615944
 31
0.0
  0
LINE
  5
24C2
  8
0
  6
CONTINUOUS
 62
     7
 10
84.026911151821594
 20
78.963549071615944
 30
0.0
 11
84.145517867159455
 21
78.929150743446542
 31
0.0
  0
LINE
  5
24C3
  8
0
  6
CONTINUOUS
 62
     7
 10
84.145517867159455
 20
78.929150743446542
 30
0.0
 11
84.263499292584896
 21
78.892665388046282
 31
0.0
  0
LINE
  5
24C4
  8
0
  6
CONTINUOUS
 62
     7
 10
84.263499292584896
 20
78.892665388046282
 30
0.0
 11
84.322244038468398
 21
78.873643598521809
 31
0.0
  0
LINE
  5
2530
  8
0
  6
CONTINUOUS
 62
     7
 10
87.241162971805892
 20
78.060669018766319
 30
0.0
 11
87.104816656957553
 21
78.092281675141066
 31
0.0
  0
LINE
  5
2531
  8
0
  6
CONTINUOUS
 62
     7
 10
87.104816656957553
 20
78.092281675141066
 30
0.0
 11
86.824366336631186
 21
78.159226328602614
 31
0.0
  0
LINE
  5
2532
  8
0
  6
CONTINUOUS
 62
     7
 10
86.824366336631186
 20
78.159226328602614
 30
0.0
 11
86.535501598920519
 21
78.23089606433085
 31
0.0
  0
LINE
  5
2533
  8
0
  6
CONTINUOUS
 62
     7
 10
86.535501598920519
 20
78.23089606433085
 30
0.0
 11
86.240627066734476
 21
78.306919290983345
 31
0.0
  0
LINE
  5
2534
  8
0
  6
CONTINUOUS
 62
     7
 10
86.240627066734476
 20
78.306919290983345
 30
0.0
 11
85.942241516671089
 21
78.386812482664624
 31
0.0
  0
LINE
  5
2551
  8
0
  6
CONTINUOUS
 62
     7
 10
104.6305153624297
 20
78.776553251872855
 30
0.0
 11
104.4899855774872
 21
78.73219286171836
 31
0.0
  0
LINE
  5
2552
  8
0
  6
CONTINUOUS
 62
     7
 10
104.4899855774872
 20
78.73219286171836
 30
0.0
 11
104.2024288693751
 21
78.643564294276317
 31
0.0
  0
LINE
  5
2553
  8
0
  6
CONTINUOUS
 62
     7
 10
104.2024288693751
 20
78.643564294276317
 30
0.0
 11
103.9083304992397
 21
78.555876853670554
 31
0.0
  0
LINE
  5
2554
  8
0
  6
CONTINUOUS
 62
     7
 10
103.9083304992397
 20
78.555876853670554
 30
0.0
 11
103.75962441278389
 21
78.512669642510744
 31
0.0
  0
LINE
  5
2555
  8
0
  6
CONTINUOUS
 62
     7
 10
103.75962441278389
 20
78.512669642510744
 30
0.0
 11
103.6102409767594
 21
78.470025984011741
 31
0.0
  0
LINE
  5
2556
  8
0
  6
CONTINUOUS
 62
     7
 10
103.6102409767594
 20
78.470025984011741
 30
0.0
 11
103.310739967682
 21
78.386812486129287
 31
0.0
  0
LINE
  5
2557
  8
0
  6
CONTINUOUS
 62
     7
 10
103.310739967682
 20
78.386812486129287
 30
0.0
 11
103.0123544203221
 21
78.306919295030923
 31
0.0
  0
LINE
  5
2558
  8
0
  6
CONTINUOUS
 62
     7
 10
103.0123544203221
 20
78.306919295030923
 30
0.0
 11
102.7174798906449
 21
78.230896068861284
 31
0.0
  0
LINE
  5
2559
  8
0
  6
CONTINUOUS
 62
     7
 10
102.7174798906449
 20
78.230896068861284
 30
0.0
 11
102.4286151551786
 21
78.159226333507661
 31
0.0
  0
LINE
  5
255A
  8
0
  6
CONTINUOUS
 62
     7
 10
102.4286151551786
 20
78.159226333507661
 30
0.0
 11
102.1481648367723
 21
78.092281680309412
 31
0.0
  0
LINE
  5
255B
  8
0
  6
CONTINUOUS
 62
     7
 10
102.1481648367723
 20
78.092281680309412
 30
0.0
 11
102.0118185227437
 21
78.060669024024236
 31
0.0
  0
LINE
  5
255C
  8
0
  6
CONTINUOUS
 62
     7
 10
102.0118185227437
 20
78.060669024024236
 30
0.0
 11
101.8784323506756
 21
78.030331516432312
 31
0.0
  0
LINE
  5
255D
  8
0
  6
CONTINUOUS
 62
     7
 10
101.8784323506756
 20
78.030331516432312
 30
0.0
 11
101.6195850940273
 21
77.973114435463259
 31
0.0
  0
LINE
  5
257D
  8
0
  6
CONTINUOUS
 62
     7
 10
104.9307374331831
 20
78.873643598521795
 30
0.0
 11
104.8807651011184
 21
78.857262595267684
 31
0.0
  0
LINE
  5
257E
  8
0
  6
CONTINUOUS
 62
     7
 10
104.8807651011184
 20
78.857262595267684
 30
0.0
 11
104.78074244019869
 21
78.824739599747588
 31
0.0
  0
LINE
  5
257F
  8
0
  6
CONTINUOUS
 62
     7
 10
104.78074244019869
 20
78.824739599747588
 30
0.0
 11
104.6806166303766
 21
78.792535560520335
 31
0.0
  0
LINE
  5
2580
  8
0
  6
CONTINUOUS
 62
     7
 10
104.6806166303766
 20
78.792535560520335
 30
0.0
 11
104.6305153624297
 21
78.776553251872855
 31
0.0
  0
LINE
  5
2581
  8
0
  6
CONTINUOUS
 62
     7
 10
107.1164867326226
 20
79.223643598521804
 30
0.0
 11
107.05473967215789
 21
79.223371257547129
 31
0.0
  0
LINE
  5
2582
  8
0
  6
CONTINUOUS
 62
     7
 10
107.05473967215789
 20
79.223371257547129
 30
0.0
 11
106.93126476943149
 21
79.22119265689588
 31
0.0
  0
LINE
  5
2583
  8
0
  6
CONTINUOUS
 62
     7
 10
106.93126476943149
 20
79.22119265689588
 30
0.0
 11
106.8078475153322
 21
79.216836133662724
 31
0.0
  0
LINE
  5
2584
  8
0
  6
CONTINUOUS
 62
     7
 10
106.8078475153322
 20
79.216836133662724
 30
0.0
 11
106.7461725114461
 21
79.213841548336575
 31
0.0
  0
LINE
  5
2585
  8
0
  6
CONTINUOUS
 62
     7
 10
106.7461725114461
 20
79.213841548336575
 30
0.0
 11
106.6845263223416
 21
79.210303043775326
 31
0.0
  0
LINE
  5
2586
  8
0
  6
CONTINUOUS
 62
     7
 10
106.6845263223416
 20
79.210303043775326
 30
0.0
 11
106.5613395730433
 21
79.201595420597627
 31
0.0
  0
LINE
  5
2587
  8
0
  6
CONTINUOUS
 62
     7
 10
106.5613395730433
 20
79.201595420597627
 30
0.0
 11
106.4383256081764
 21
79.190715974297021
 31
0.0
  0
LINE
  5
2588
  8
0
  6
CONTINUOUS
 62
     7
 10
106.4383256081764
 20
79.190715974297021
 30
0.0
 11
106.3155227147024
 21
79.177668091000768
 31
0.0
  0
LINE
  5
2589
  8
0
  6
CONTINUOUS
 62
     7
 10
106.3155227147024
 20
79.177668091000768
 30
0.0
 11
106.19296911388891
 21
79.162455831742179
 31
0.0
  0
LINE
  5
258A
  8
0
  6
CONTINUOUS
 62
     7
 10
106.19296911388891
 20
79.162455831742179
 30
0.0
 11
106.0707029494135
 21
79.145083931196581
 31
0.0
  0
LINE
  5
258B
  8
0
  6
CONTINUOUS
 62
     7
 10
106.0707029494135
 20
79.145083931196581
 30
0.0
 11
106.0096895515636
 21
79.135589778867839
 31
0.0
  0
LINE
  5
258C
  8
0
  6
CONTINUOUS
 62
     7
 10
106.0096895515636
 20
79.135589778867839
 30
0.0
 11
105.9487622754917
 21
79.125557796207744
 31
0.0
  0
LINE
  5
258D
  8
0
  6
CONTINUOUS
 62
     7
 10
105.9487622754917
 20
79.125557796207744
 30
0.0
 11
105.8271850450333
 21
79.103883504105028
 31
0.0
  0
LINE
  5
258E
  8
0
  6
CONTINUOUS
 62
     7
 10
105.8271850450333
 20
79.103883504105028
 30
0.0
 11
105.70600909782949
 21
79.080067800811861
 31
0.0
  0
LINE
  5
258F
  8
0
  6
CONTINUOUS
 62
     7
 10
105.70600909782949
 20
79.080067800811861
 30
0.0
 11
105.5852721487758
 21
79.054118098746159
 31
0.0
  0
LINE
  5
2590
  8
0
  6
CONTINUOUS
 62
     7
 10
105.5852721487758
 20
79.054118098746159
 30
0.0
 11
105.46501177613359
 21
79.026042474513275
 31
0.0
  0
LINE
  5
2591
  8
0
  6
CONTINUOUS
 62
     7
 10
105.46501177613359
 20
79.026042474513275
 30
0.0
 11
105.3452654098344
 21
78.995849666392203
 31
0.0
  0
LINE
  5
2592
  8
0
  6
CONTINUOUS
 62
     7
 10
105.3452654098344
 20
78.995849666392203
 30
0.0
 11
105.2855966324901
 21
78.979962229347109
 31
0.0
  0
LINE
  5
2593
  8
0
  6
CONTINUOUS
 62
     7
 10
105.2855966324901
 20
78.979962229347109
 30
0.0
 11
105.2260703198299
 21
78.963549071615944
 31
0.0
  0
LINE
  5
2594
  8
0
  6
CONTINUOUS
 62
     7
 10
105.2260703198299
 20
78.963549071615944
 30
0.0
 11
105.107463604492
 21
78.929150743446542
 31
0.0
  0
LINE
  5
2595
  8
0
  6
CONTINUOUS
 62
     7
 10
105.107463604492
 20
78.929150743446542
 30
0.0
 11
104.9894821790666
 21
78.892665388046282
 31
0.0
  0
LINE
  5
2596
  8
0
  6
CONTINUOUS
 62
     7
 10
104.9894821790666
 20
78.892665388046282
 30
0.0
 11
104.9307374331831
 21
78.873643598521809
 31
0.0
  0
LINE
  5
25F7
  8
0
  6
CONTINUOUS
 62
     7
 10
104.9307374331831
 20
78.873643598521795
 30
0.0
 11
104.9894821790666
 21
78.892665388046282
 31
0.0
  0
LINE
  5
25F8
  8
0
  6
CONTINUOUS
 62
     7
 10
104.9894821790666
 20
78.892665388046282
 30
0.0
 11
105.107463604492
 21
78.929150743446542
 31
0.0
  0
LINE
  5
25F9
  8
0
  6
CONTINUOUS
 62
     7
 10
105.107463604492
 20
78.929150743446542
 30
0.0
 11
105.2260703198299
 21
78.963549071615944
 31
0.0
  0
LINE
  5
25FA
  8
0
  6
CONTINUOUS
 62
     7
 10
105.2260703198299
 20
78.963549071615944
 30
0.0
 11
105.2855966324901
 21
78.979962229347109
 31
0.0
  0
LINE
  5
25FB
  8
0
  6
CONTINUOUS
 62
     7
 10
105.2855966324901
 20
78.979962229347109
 30
0.0
 11
105.3452654098344
 21
78.995849666392203
 31
0.0
  0
LINE
  5
25FC
  8
0
  6
CONTINUOUS
 62
     7
 10
105.3452654098344
 20
78.995849666392203
 30
0.0
 11
105.46501177613359
 21
79.026042474513275
 31
0.0
  0
LINE
  5
25FD
  8
0
  6
CONTINUOUS
 62
     7
 10
105.46501177613359
 20
79.026042474513275
 30
0.0
 11
105.5852721487758
 21
79.054118098746159
 31
0.0
  0
LINE
  5
25FE
  8
0
  6
CONTINUOUS
 62
     7
 10
105.5852721487758
 20
79.054118098746159
 30
0.0
 11
105.70600909782949
 21
79.080067800811861
 31
0.0
  0
LINE
  5
25FF
  8
0
  6
CONTINUOUS
 62
     7
 10
105.70600909782949
 20
79.080067800811861
 30
0.0
 11
105.8271850450333
 21
79.103883504105028
 31
0.0
  0
LINE
  5
2600
  8
0
  6
CONTINUOUS
 62
     7
 10
105.8271850450333
 20
79.103883504105028
 30
0.0
 11
105.9487622754917
 21
79.125557796207744
 31
0.0
  0
LINE
  5
2601
  8
0
  6
CONTINUOUS
 62
     7
 10
105.9487622754917
 20
79.125557796207744
 30
0.0
 11
106.0096895515636
 21
79.135589778867839
 31
0.0
  0
LINE
  5
2602
  8
0
  6
CONTINUOUS
 62
     7
 10
106.0096895515636
 20
79.135589778867839
 30
0.0
 11
106.0707029494135
 21
79.145083931196581
 31
0.0
  0
LINE
  5
2603
  8
0
  6
CONTINUOUS
 62
     7
 10
106.0707029494135
 20
79.145083931196581
 30
0.0
 11
106.19296911388891
 21
79.162455831742179
 31
0.0
  0
LINE
  5
2604
  8
0
  6
CONTINUOUS
 62
     7
 10
106.19296911388891
 20
79.162455831742179
 30
0.0
 11
106.3155227147024
 21
79.177668091000768
 31
0.0
  0
LINE
  5
2605
  8
0
  6
CONTINUOUS
 62
     7
 10
106.3155227147024
 20
79.177668091000768
 30
0.0
 11
106.4383256081764
 21
79.190715974297021
 31
0.0
  0
LINE
  5
2606
  8
0
  6
CONTINUOUS
 62
     7
 10
106.4383256081764
 20
79.190715974297021
 30
0.0
 11
106.5613395730433
 21
79.201595420597627
 31
0.0
  0
LINE
  5
2607
  8
0
  6
CONTINUOUS
 62
     7
 10
106.5613395730433
 20
79.201595420597627
 30
0.0
 11
106.6845263223416
 21
79.210303043775326
 31
0.0
  0
LINE
  5
2608
  8
0
  6
CONTINUOUS
 62
     7
 10
106.6845263223416
 20
79.210303043775326
 30
0.0
 11
106.7461725114461
 21
79.213841548336575
 31
0.0
  0
LINE
  5
2609
  8
0
  6
CONTINUOUS
 62
     7
 10
106.7461725114461
 20
79.213841548336575
 30
0.0
 11
106.8078475153322
 21
79.216836133662724
 31
0.0
  0
LINE
  5
260A
  8
0
  6
CONTINUOUS
 62
     7
 10
106.8078475153322
 20
79.216836133662724
 30
0.0
 11
106.93126476943149
 21
79.22119265689588
 31
0.0
  0
LINE
  5
260B
  8
0
  6
CONTINUOUS
 62
     7
 10
106.93126476943149
 20
79.22119265689588
 30
0.0
 11
107.05473967215789
 21
79.223371257547129
 31
0.0
  0
LINE
  5
260C
  8
0
  6
CONTINUOUS
 62
     7
 10
107.05473967215789
 20
79.223371257547129
 30
0.0
 11
107.1164867326226
 21
79.223643598521804
 31
0.0
  0
LINE
  5
260D
  8
0
  6
CONTINUOUS
 62
     7
 10
104.6305153624297
 20
78.776553251872855
 30
0.0
 11
104.6806166303766
 21
78.792535560520335
 31
0.0
  0
LINE
  5
260E
  8
0
  6
CONTINUOUS
 62
     7
 10
104.6806166303766
 20
78.792535560520335
 30
0.0
 11
104.78074244019859
 21
78.824739599747588
 31
0.0
  0
LINE
  5
260F
  8
0
  6
CONTINUOUS
 62
     7
 10
104.78074244019859
 20
78.824739599747588
 30
0.0
 11
104.8807651011184
 21
78.857262595267684
 31
0.0
  0
LINE
  5
2610
  8
0
  6
CONTINUOUS
 62
     7
 10
104.8807651011184
 20
78.857262595267684
 30
0.0
 11
104.9307374331831
 21
78.873643598521809
 31
0.0
  0
LINE
  5
2627
  8
0
  6
CONTINUOUS
 62
     7
 10
99.848441350224491
 20
77.639426072535684
 30
0.0
 11
99.946889258399267
 21
77.655355962218337
 31
0.0
  0
LINE
  5
2628
  8
0
  6
CONTINUOUS
 62
     7
 10
99.946889258399267
 20
77.655355962218337
 30
0.0
 11
100.15508553866999
 21
77.690051120807894
 31
0.0
  0
LINE
  5
2629
  8
0
  6
CONTINUOUS
 62
     7
 10
100.15508553866999
 20
77.690051120807894
 30
0.0
 11
100.3770210796841
 21
77.728545494894476
 31
0.0
  0
LINE
  5
262A
  8
0
  6
CONTINUOUS
 62
     7
 10
100.3770210796841
 20
77.728545494894476
 30
0.0
 11
100.4925674428307
 21
77.749205280553412
 31
0.0
  0
LINE
  5
262B
  8
0
  6
CONTINUOUS
 62
     7
 10
100.4925674428307
 20
77.749205280553412
 30
0.0
 11
100.6108561257051
 21
77.770795173762323
 31
0.0
  0
LINE
  5
262C
  8
0
  6
CONTINUOUS
 62
     7
 10
100.6108561257051
 20
77.770795173762323
 30
0.0
 11
100.85456963608129
 21
77.816683956923313
 31
0.0
  0
LINE
  5
262D
  8
0
  6
CONTINUOUS
 62
     7
 10
100.85456963608129
 20
77.816683956923313
 30
0.0
 11
101.105742062367
 21
77.865965958624443
 31
0.0
  0
LINE
  5
262E
  8
0
  6
CONTINUOUS
 62
     7
 10
101.105742062367
 20
77.865965958624443
 30
0.0
 11
101.3617106465246
 21
77.918275426118555
 31
0.0
  0
LINE
  5
262F
  8
0
  6
CONTINUOUS
 62
     7
 10
101.3617106465246
 20
77.918275426118555
 30
0.0
 11
101.61958514649319
 21
77.973114446839801
 31
0.0
  0
LINE
  5
2630
  8
0
  6
CONTINUOUS
 62
     7
 10
101.61958514649319
 20
77.973114446839801
 30
0.0
 11
101.8784323992172
 21
78.030331527366926
 31
0.0
  0
LINE
  5
2631
  8
0
  6
CONTINUOUS
 62
     7
 10
101.8784323992172
 20
78.030331527366926
 30
0.0
 11
102.0118185698107
 21
78.060669034831847
 31
0.0
  0
LINE
  5
2632
  8
0
  6
CONTINUOUS
 62
     7
 10
102.0118185698107
 20
78.060669034831847
 30
0.0
 11
102.1481648821544
 21
78.092281690932964
 31
0.0
  0
LINE
  5
2633
  8
0
  6
CONTINUOUS
 62
     7
 10
102.1481648821544
 20
78.092281690932964
 30
0.0
 11
102.4286151966141
 21
78.159226343590007
 31
0.0
  0
LINE
  5
2634
  8
0
  6
CONTINUOUS
 62
     7
 10
102.4286151966141
 20
78.159226343590007
 30
0.0
 11
102.717479927467
 21
78.230896078173629
 31
0.0
  0
LINE
  5
2635
  8
0
  6
CONTINUOUS
 62
     7
 10
102.717479927467
 20
78.230896078173629
 30
0.0
 11
103.01235445198731
 21
78.30691930335071
 31
0.0
  0
LINE
  5
2636
  8
0
  6
CONTINUOUS
 62
     7
 10
103.01235445198731
 20
78.30691930335071
 30
0.0
 11
103.31073999379009
 21
78.386812493250901
 31
0.0
  0
LINE
  5
2637
  8
0
  6
CONTINUOUS
 62
     7
 10
103.31073999379009
 20
78.386812493250901
 30
0.0
 11
103.6102409970579
 21
78.470025989754603
 31
0.0
  0
LINE
  5
2638
  8
0
  6
CONTINUOUS
 62
     7
 10
103.6102409970579
 20
78.470025989754603
 30
0.0
 11
103.7596244301227
 21
78.512669647504495
 31
0.0
  0
LINE
  5
2639
  8
0
  6
CONTINUOUS
 62
     7
 10
103.7596244301227
 20
78.512669647504495
 30
0.0
 11
103.9083305136074
 21
78.555876857881714
 31
0.0
  0
LINE
  5
263A
  8
0
  6
CONTINUOUS
 62
     7
 10
103.9083305136074
 20
78.555876857881714
 30
0.0
 11
104.20242887784261
 21
78.643564296843891
 31
0.0
  0
LINE
  5
263B
  8
0
  6
CONTINUOUS
 62
     7
 10
104.20242887784261
 20
78.643564296843891
 30
0.0
 11
104.48998558023391
 21
78.732192862578671
 31
0.0
  0
LINE
  5
263C
  8
0
  6
CONTINUOUS
 62
     7
 10
104.48998558023391
 20
78.732192862578671
 30
0.0
 11
104.6305153624297
 21
78.776553251872855
 31
0.0
  0
LINE
  5
2653
  8
0
  6
CONTINUOUS
 62
     7
 10
84.62246610922179
 20
78.776553251872855
 30
0.0
 11
84.762995892046774
 21
78.732192862381595
 31
0.0
  0
LINE
  5
2654
  8
0
  6
CONTINUOUS
 62
     7
 10
84.762995892046774
 20
78.732192862381595
 30
0.0
 11
85.050552595748727
 21
78.643564296255661
 31
0.0
  0
LINE
  5
2655
  8
0
  6
CONTINUOUS
 62
     7
 10
85.050552595748727
 20
78.643564296255661
 30
0.0
 11
85.344650961336058
 21
78.555876856916839
 31
0.0
  0
LINE
  5
2656
  8
0
  6
CONTINUOUS
 62
     7
 10
85.344650961336058
 20
78.555876856916839
 30
0.0
 11
85.493357045501725
 21
78.512669646360251
 31
0.0
  0
LINE
  5
2657
  8
0
  6
CONTINUOUS
 62
     7
 10
85.493357045501725
 20
78.512669646360251
 30
0.0
 11
85.642740479244907
 21
78.470025988438636
 31
0.0
  0
LINE
  5
2658
  8
0
  6
CONTINUOUS
 62
     7
 10
85.642740479244907
 20
78.470025988438636
 30
0.0
 11
85.942241483844498
 21
78.386812491618855
 31
0.0
  0
LINE
  5
2659
  8
0
  6
CONTINUOUS
 62
     7
 10
85.942241483844498
 20
78.386812491618855
 30
0.0
 11
86.240627026921416
 21
78.306919301443941
 31
0.0
  0
LINE
  5
265A
  8
0
  6
CONTINUOUS
 62
     7
 10
86.240627026921416
 20
78.306919301443941
 30
0.0
 11
86.535501552624225
 21
78.230896076039215
 31
0.0
  0
LINE
  5
265B
  8
0
  6
CONTINUOUS
 62
     7
 10
86.535501552624225
 20
78.230896076039215
 30
0.0
 11
86.824366284535145
 21
78.159226341278952
 31
0.0
  0
LINE
  5
265C
  8
0
  6
CONTINUOUS
 62
     7
 10
86.824366284535145
 20
78.159226341278952
 30
0.0
 11
87.104816599900204
 21
78.092281688497692
 31
0.0
  0
LINE
  5
265D
  8
0
  6
CONTINUOUS
 62
     7
 10
87.104816599900204
 20
78.092281688497692
 30
0.0
 11
87.241162912630472
 21
78.060669032354284
 31
0.0
  0
LINE
  5
265E
  8
0
  6
CONTINUOUS
 62
     7
 10
87.241162912630472
 20
78.060669032354284
 30
0.0
 11
87.374549083562314
 21
78.030331524860202
 31
0.0
  0
LINE
  5
265F
  8
0
  6
CONTINUOUS
 62
     7
 10
87.374549083562314
 20
78.030331524860202
 30
0.0
 11
87.633396337185985
 21
77.97311444423174
 31
0.0
  0
LINE
  5
2660
  8
0
  6
CONTINUOUS
 62
     7
 10
87.633396337185985
 20
77.97311444423174
 30
0.0
 11
87.891270838280064
 21
77.918275423376286
 31
0.0
  0
LINE
  5
2661
  8
0
  6
CONTINUOUS
 62
     7
 10
87.891270838280064
 20
77.918275423376286
 30
0.0
 11
88.147239423392747
 21
77.865965955799425
 31
0.0
  0
LINE
  5
2662
  8
0
  6
CONTINUOUS
 62
     7
 10
88.147239423392747
 20
77.865965955799425
 30
0.0
 11
88.398411850437526
 21
77.816683954066093
 31
0.0
  0
LINE
  5
2663
  8
0
  6
CONTINUOUS
 62
     7
 10
88.398411850437526
 20
77.816683954066093
 30
0.0
 11
88.642125361353237
 21
77.770795170921275
 31
0.0
  0
LINE
  5
2664
  8
0
  6
CONTINUOUS
 62
     7
 10
88.642125361353237
 20
77.770795170921275
 30
0.0
 11
88.760414044409913
 21
77.749205277737445
 31
0.0
  0
LINE
  5
2665
  8
0
  6
CONTINUOUS
 62
     7
 10
88.760414044409913
 20
77.749205277737445
 30
0.0
 11
88.875960407683067
 21
77.728545492113341
 31
0.0
  0
LINE
  5
2666
  8
0
  6
CONTINUOUS
 62
     7
 10
88.875960407683067
 20
77.728545492113341
 30
0.0
 11
89.097895948769164
 21
77.690051118125012
 31
0.0
  0
LINE
  5
2667
  8
0
  6
CONTINUOUS
 62
     7
 10
89.097895948769164
 20
77.690051118125012
 30
0.0
 11
89.306092228863804
 21
77.655355959668
 31
0.0
  0
LINE
  5
2668
  8
0
  6
CONTINUOUS
 62
     7
 10
89.306092228863804
 20
77.655355959668
 30
0.0
 11
89.404540136859254
 21
77.639426070062513
 31
0.0
  0
LINE
  5
2669
  8
0
  6
CONTINUOUS
 62
     7
 10
89.404540136859254
 20
77.639426070062513
 30
0.0
 11
89.439324543725135
 21
77.633870557036403
 31
0.0
  0
LINE
  5
266A
  8
0
  6
CONTINUOUS
 62
     7
 10
89.439324543725135
 20
77.633870557036403
 30
0.0
 11
89.509693334096283
 21
77.622748145334413
 31
0.0
  0
LINE
  5
266B
  8
0
  6
CONTINUOUS
 62
     7
 10
89.509693334096283
 20
77.622748145334413
 30
0.0
 11
89.581083823497266
 21
77.611623282555058
 31
0.0
  0
LINE
  5
266C
  8
0
  6
CONTINUOUS
 62
     7
 10
89.581083823497266
 20
77.611623282555058
 30
0.0
 11
89.617144917805945
 21
77.606064680467696
 31
0.0
  0
LINE
  5
266D
  8
0
  6
CONTINUOUS
 62
     7
 10
89.617144917805945
 20
77.606064680467696
 30
0.0
 11
89.6534404670615
 21
77.600511145853432
 31
0.0
  0
LINE
  5
266E
  8
0
  6
CONTINUOUS
 62
     7
 10
89.6534404670615
 20
77.600511145853432
 30
0.0
 11
89.726705951170914
 21
77.589426753865254
 31
0.0
  0
LINE
  5
266F
  8
0
  6
CONTINUOUS
 62
     7
 10
89.726705951170914
 20
77.589426753865254
 30
0.0
 11
89.800821295865745
 21
77.578384915885565
 31
0.0
  0
LINE
  5
2670
  8
0
  6
CONTINUOUS
 62
     7
 10
89.800821295865745
 20
77.578384915885565
 30
0.0
 11
89.87576403269631
 21
77.567394643809124
 31
0.0
  0
LINE
  5
2671
  8
0
  6
CONTINUOUS
 62
     7
 10
89.87576403269631
 20
77.567394643809124
 30
0.0
 11
89.95210164446604
 21
77.556380373351288
 31
0.0
  0
LINE
  5
2672
  8
0
  6
CONTINUOUS
 62
     7
 10
89.95210164446604
 20
77.556380373351288
 30
0.0
 11
90.030025320137568
 21
77.54532501138543
 31
0.0
  0
LINE
  5
2673
  8
0
  6
CONTINUOUS
 62
     7
 10
90.030025320137568
 20
77.54532501138543
 30
0.0
 11
90.069574542014536
 21
77.539786500520336
 31
0.0
  0
LINE
  5
2674
  8
0
  6
CONTINUOUS
 62
     7
 10
90.069574542014536
 20
77.539786500520336
 30
0.0
 11
90.109511169460262
 21
77.534243243100207
 31
0.0
  0
LINE
  5
2675
  8
0
  6
CONTINUOUS
 62
     7
 10
90.109511169460262
 20
77.534243243100207
 30
0.0
 11
90.190533396654018
 21
77.523149986268052
 31
0.0
  0
LINE
  5
2676
  8
0
  6
CONTINUOUS
 62
     7
 10
90.190533396654018
 20
77.523149986268052
 30
0.0
 11
90.273064418513769
 21
77.512060339686172
 31
0.0
  0
LINE
  5
2677
  8
0
  6
CONTINUOUS
 62
     7
 10
90.273064418513769
 20
77.512060339686172
 30
0.0
 11
90.357074990403305
 21
77.500989531457819
 31
0.0
  0
LINE
  5
2678
  8
0
  6
CONTINUOUS
 62
     7
 10
90.357074990403305
 20
77.500989531457819
 30
0.0
 11
90.44253434059317
 21
77.489952867368487
 31
0.0
  0
LINE
  5
2679
  8
0
  6
CONTINUOUS
 62
     7
 10
90.44253434059317
 20
77.489952867368487
 30
0.0
 11
90.529410313403375
 21
77.478965679626285
 31
0.0
  0
LINE
  5
267A
  8
0
  6
CONTINUOUS
 62
     7
 10
90.529410313403375
 20
77.478965679626285
 30
0.0
 11
90.573369143526207
 21
77.473495425451873
 31
0.0
  0
LINE
  5
267B
  8
0
  6
CONTINUOUS
 62
     7
 10
90.573369143526207
 20
77.473495425451873
 30
0.0
 11
90.617669521609827
 21
77.468043276249404
 31
0.0
  0
LINE
  5
267C
  8
0
  6
CONTINUOUS
 62
     7
 10
90.617669521609827
 20
77.468043276249404
 30
0.0
 11
90.707277508558889
 21
77.457200891398145
 31
0.0
  0
LINE
  5
267D
  8
0
  6
CONTINUOUS
 62
     7
 10
90.707277508558889
 20
77.457200891398145
 30
0.0
 11
90.798198920410726
 21
77.446453636964293
 31
0.0
  0
LINE
  5
267E
  8
0
  6
CONTINUOUS
 62
     7
 10
90.798198920410726
 20
77.446453636964293
 30
0.0
 11
90.844140912029346
 21
77.441120361125513
 31
0.0
  0
LINE
  5
267F
  8
0
  6
CONTINUOUS
 62
     7
 10
90.844140912029346
 20
77.441120361125513
 30
0.0
 11
90.890397687679297
 21
77.435816455882545
 31
0.0
  0
LINE
  5
2680
  8
0
  6
CONTINUOUS
 62
     7
 10
90.890397687679297
 20
77.435816455882545
 30
0.0
 11
90.9838370056234
 21
77.425304100891097
 31
0.0
  0
LINE
  5
2681
  8
0
  6
CONTINUOUS
 62
     7
 10
90.9838370056234
 20
77.425304100891097
 30
0.0
 11
91.078478657734408
 21
77.414931184077403
 31
0.0
  0
LINE
  5
2682
  8
0
  6
CONTINUOUS
 62
     7
 10
91.078478657734408
 20
77.414931184077403
 30
0.0
 11
91.126237963059566
 21
77.40980154175034
 31
0.0
  0
LINE
  5
2683
  8
0
  6
CONTINUOUS
 62
     7
 10
91.126237963059566
 20
77.40980154175034
 30
0.0
 11
91.174282780643836
 21
77.404712168108375
 31
0.0
  0
LINE
  5
2684
  8
0
  6
CONTINUOUS
 62
     7
 10
91.174282780643836
 20
77.404712168108375
 30
0.0
 11
91.271207981499359
 21
77.39466131702973
 31
0.0
  0
LINE
  5
2685
  8
0
  6
CONTINUOUS
 62
     7
 10
91.271207981499359
 20
77.39466131702973
 30
0.0
 11
91.369211469720256
 21
77.384792647512583
 31
0.0
  0
LINE
  5
2686
  8
0
  6
CONTINUOUS
 62
     7
 10
91.369211469720256
 20
77.384792647512583
 30
0.0
 11
91.468249195004688
 21
77.375119881772633
 31
0.0
  0
LINE
  5
2687
  8
0
  6
CONTINUOUS
 62
     7
 10
91.468249195004688
 20
77.375119881772633
 30
0.0
 11
91.568275991924224
 21
77.365656402404881
 31
0.0
  0
LINE
  5
2688
  8
0
  6
CONTINUOUS
 62
     7
 10
91.568275991924224
 20
77.365656402404881
 30
0.0
 11
91.669245731458815
 21
77.3564152093779
 31
0.0
  0
LINE
  5
2689
  8
0
  6
CONTINUOUS
 62
     7
 10
91.669245731458815
 20
77.3564152093779
 30
0.0
 11
91.720069564839875
 21
77.351881918063526
 31
0.0
  0
LINE
  5
268A
  8
0
  6
CONTINUOUS
 62
     7
 10
91.720069564839875
 20
77.351881918063526
 30
0.0
 11
91.771111479837373
 21
77.347408879435264
 31
0.0
  0
LINE
  5
268B
  8
0
  6
CONTINUOUS
 62
     7
 10
91.771111479837373
 20
77.347408879435264
 30
0.0
 11
91.873825665048031
 21
77.338649528154079
 31
0.0
  0
LINE
  5
268C
  8
0
  6
CONTINUOUS
 62
     7
 10
91.873825665048031
 20
77.338649528154079
 30
0.0
 11
91.977340251374258
 21
77.330148774913738
 31
0.0
  0
LINE
  5
268D
  8
0
  6
CONTINUOUS
 62
     7
 10
91.977340251374258
 20
77.330148774913738
 30
0.0
 11
92.081609176403134
 21
77.321917536679535
 31
0.0
  0
LINE
  5
268E
  8
0
  6
CONTINUOUS
 62
     7
 10
92.081609176403134
 20
77.321917536679535
 30
0.0
 11
92.186605035215379
 21
77.313964812973666
 31
0.0
  0
LINE
  5
268F
  8
0
  6
CONTINUOUS
 62
     7
 10
92.186605035215379
 20
77.313964812973666
 30
0.0
 11
92.292283681000427
 21
77.306300488465013
 31
0.0
  0
LINE
  5
2690
  8
0
  6
CONTINUOUS
 62
     7
 10
92.292283681000427
 20
77.306300488465013
 30
0.0
 11
92.345363266840195
 21
77.302579559365356
 31
0.0
  0
LINE
  5
2691
  8
0
  6
CONTINUOUS
 62
     7
 10
92.345363266840195
 20
77.302579559365356
 30
0.0
 11
92.398594451278754
 21
77.298934364493604
 31
0.0
  0
LINE
  5
2692
  8
0
  6
CONTINUOUS
 62
     7
 10
92.398594451278754
 20
77.298934364493604
 30
0.0
 11
92.505485453102636
 21
77.291875705032382
 31
0.0
  0
LINE
  5
2693
  8
0
  6
CONTINUOUS
 62
     7
 10
92.505485453102636
 20
77.291875705032382
 30
0.0
 11
92.612903718016582
 21
77.285133199268614
 31
0.0
  0
LINE
  5
2694
  8
0
  6
CONTINUOUS
 62
     7
 10
92.612903718016582
 20
77.285133199268614
 30
0.0
 11
92.720795361960967
 21
77.278714927449656
 31
0.0
  0
LINE
  5
2695
  8
0
  6
CONTINUOUS
 62
     7
 10
92.720795361960967
 20
77.278714927449656
 30
0.0
 11
92.829105750272873
 21
77.272628330191921
 31
0.0
  0
LINE
  5
2696
  8
0
  6
CONTINUOUS
 62
     7
 10
92.829105750272873
 20
77.272628330191921
 30
0.0
 11
92.937779667982284
 21
77.266880181442417
 31
0.0
  0
LINE
  5
2697
  8
0
  6
CONTINUOUS
 62
     7
 10
92.937779667982284
 20
77.266880181442417
 30
0.0
 11
92.992235580157342
 21
77.264134954032414
 31
0.0
  0
LINE
  5
2698
  8
0
  6
CONTINUOUS
 62
     7
 10
92.992235580157342
 20
77.264134954032414
 30
0.0
 11
93.046761495638506
 21
77.261476565274464
 31
0.0
  0
LINE
  5
2699
  8
0
  6
CONTINUOUS
 62
     7
 10
93.046761495638506
 20
77.261476565274464
 30
0.0
 11
93.155995390933526
 21
77.256422856690222
 31
0.0
  0
LINE
  5
269A
  8
0
  6
CONTINUOUS
 62
     7
 10
93.155995390933526
 20
77.256422856690222
 30
0.0
 11
93.265425476411707
 21
77.251723706595314
 31
0.0
  0
LINE
  5
269B
  8
0
  6
CONTINUOUS
 62
     7
 10
93.265425476411707
 20
77.251723706595314
 30
0.0
 11
93.374996031918215
 21
77.247383031166819
 31
0.0
  0
LINE
  5
269C
  8
0
  6
CONTINUOUS
 62
     7
 10
93.374996031918215
 20
77.247383031166819
 30
0.0
 11
93.484651414160879
 21
77.243404015348673
 31
0.0
  0
LINE
  5
269D
  8
0
  6
CONTINUOUS
 62
     7
 10
93.484651414160879
 20
77.243404015348673
 30
0.0
 11
93.594335161313083
 21
77.239789141075477
 31
0.0
  0
LINE
  5
269E
  8
0
  6
CONTINUOUS
 62
     7
 10
93.594335161313083
 20
77.239789141075477
 30
0.0
 11
93.649169725969017
 21
77.238118839262725
 31
0.0
  0
LINE
  5
269F
  8
0
  6
CONTINUOUS
 62
     7
 10
93.649169725969017
 20
77.238118839262725
 30
0.0
 11
93.703989726495365
 21
77.236540180855911
 31
0.0
  0
LINE
  5
26A0
  8
0
  6
CONTINUOUS
 62
     7
 10
93.703989726495365
 20
77.236540180855911
 30
0.0
 11
93.8135566558704
 21
77.233658175947767
 31
0.0
  0
LINE
  5
26A1
  8
0
  6
CONTINUOUS
 62
     7
 10
93.8135566558704
 20
77.233658175947767
 30
0.0
 11
93.922976777762756
 21
77.231143418771694
 31
0.0
  0
LINE
  5
26A2
  8
0
  6
CONTINUOUS
 62
     7
 10
93.922976777762756
 20
77.231143418771694
 30
0.0
 11
94.032190392894904
 21
77.228995440034168
 31
0.0
  0
LINE
  5
26A3
  8
0
  6
CONTINUOUS
 62
     7
 10
94.032190392894904
 20
77.228995440034168
 30
0.0
 11
94.141137465708965
 21
77.227213000604294
 31
0.0
  0
LINE
  5
26A4
  8
0
  6
CONTINUOUS
 62
     7
 10
94.141137465708965
 20
77.227213000604294
 30
0.0
 11
94.249757816857681
 21
77.225794088170886
 31
0.0
  0
LINE
  5
26A5
  8
0
  6
CONTINUOUS
 62
     7
 10
94.249757816857681
 20
77.225794088170886
 30
0.0
 11
94.303926674117889
 21
77.225220114571925
 31
0.0
  0
LINE
  5
26A6
  8
0
  6
CONTINUOUS
 62
     7
 10
94.303926674117889
 20
77.225220114571925
 30
0.0
 11
94.357991317058577
 21
77.224735918689106
 31
0.0
  0
LINE
  5
26A7
  8
0
  6
CONTINUOUS
 62
     7
 10
94.357991317058577
 20
77.224735918689106
 30
0.0
 11
94.465778082612886
 21
77.224034942613514
 31
0.0
  0
LINE
  5
26A8
  8
0
  6
CONTINUOUS
 62
     7
 10
94.465778082612886
 20
77.224034942613514
 30
0.0
 11
94.573058672994421
 21
77.223686855903765
 31
0.0
  0
LINE
  5
26A9
  8
0
  6
CONTINUOUS
 62
     7
 10
94.573058672994421
 20
77.223686855903765
 30
0.0
 11
94.626490747708715
 21
77.223643598521804
 31
0.0
  0
LINE
  5
26AA
  8
0
  6
CONTINUOUS
 62
     7
 10
94.626490747708715
 20
77.223643598521804
 30
0.0
 11
94.679922822487526
 21
77.223686855942361
 31
0.0
  0
LINE
  5
26AB
  8
0
  6
CONTINUOUS
 62
     7
 10
94.679922822487526
 20
77.223686855942361
 30
0.0
 11
94.787203412988376
 21
77.224034942730157
 31
0.0
  0
LINE
  5
26AC
  8
0
  6
CONTINUOUS
 62
     7
 10
94.787203412988376
 20
77.224034942730157
 30
0.0
 11
94.894990178648797
 21
77.224735918884832
 31
0.0
  0
LINE
  5
26AD
  8
0
  6
CONTINUOUS
 62
     7
 10
94.894990178648797
 20
77.224735918884832
 30
0.0
 11
94.949054821637574
 21
77.225220114807541
 31
0.0
  0
LINE
  5
26AE
  8
0
  6
CONTINUOUS
 62
     7
 10
94.949054821637574
 20
77.225220114807541
 30
0.0
 11
95.003223678942547
 21
77.225794088446605
 31
0.0
  0
LINE
  5
26AF
  8
0
  6
CONTINUOUS
 62
     7
 10
95.003223678942547
 20
77.225794088446605
 30
0.0
 11
95.111844030170687
 21
77.227213000960674
 31
0.0
  0
LINE
  5
26B0
  8
0
  6
CONTINUOUS
 62
     7
 10
95.111844030170687
 20
77.227213000960674
 30
0.0
 11
95.220791103050828
 21
77.228995440471749
 31
0.0
  0
LINE
  5
26B1
  8
0
  6
CONTINUOUS
 62
     7
 10
95.220791103050828
 20
77.228995440471749
 30
0.0
 11
95.330004718235642
 21
77.231143419290859
 31
0.0
  0
LINE
  5
26B2
  8
0
  6
CONTINUOUS
 62
     7
 10
95.330004718235642
 20
77.231143419290859
 30
0.0
 11
95.439424840167305
 21
77.233658176548687
 31
0.0
  0
LINE
  5
26B3
  8
0
  6
CONTINUOUS
 62
     7
 10
95.439424840167305
 20
77.233658176548687
 30
0.0
 11
95.548991769568445
 21
77.236540181538629
 31
0.0
  0
LINE
  5
26B4
  8
0
  6
CONTINUOUS
 62
     7
 10
95.548991769568445
 20
77.236540181538629
 30
0.0
 11
95.60381177010288
 21
77.238118839986285
 31
0.0
  0
LINE
  5
26B5
  8
0
  6
CONTINUOUS
 62
     7
 10
95.60381177010288
 20
77.238118839986285
 30
0.0
 11
95.658646334763674
 21
77.239789141839793
 31
0.0
  0
LINE
  5
26B6
  8
0
  6
CONTINUOUS
 62
     7
 10
95.658646334763674
 20
77.239789141839793
 30
0.0
 11
95.768330081915934
 21
77.243404016194319
 31
0.0
  0
LINE
  5
26B7
  8
0
  6
CONTINUOUS
 62
     7
 10
95.768330081915934
 20
77.243404016194319
 30
0.0
 11
95.877985464145965
 21
77.24738303209331
 31
0.0
  0
LINE
  5
26B8
  8
0
  6
CONTINUOUS
 62
     7
 10
95.877985464145965
 20
77.24738303209331
 30
0.0
 11
95.987556019627363
 21
77.251723707602039
 31
0.0
  0
LINE
  5
26B9
  8
0
  6
CONTINUOUS
 62
     7
 10
95.987556019627363
 20
77.251723707602039
 30
0.0
 11
96.096986105068069
 21
77.256422857776343
 31
0.0
  0
LINE
  5
26BA
  8
0
  6
CONTINUOUS
 62
     7
 10
96.096986105068069
 20
77.256422857776343
 30
0.0
 11
96.206220000313181
 21
77.261476566439072
 31
0.0
  0
LINE
  5
26BB
  8
0
  6
CONTINUOUS
 62
     7
 10
96.206220000313181
 20
77.261476566439072
 30
0.0
 11
96.260745915764744
 21
77.264134955235832
 31
0.0
  0
LINE
  5
26BC
  8
0
  6
CONTINUOUS
 62
     7
 10
96.260745915764744
 20
77.264134955235832
 30
0.0
 11
96.315201827907075
 21
77.266880182684361
 31
0.0
  0
LINE
  5
26BD
  8
0
  6
CONTINUOUS
 62
     7
 10
96.315201827907075
 20
77.266880182684361
 30
0.0
 11
96.423875745541693
 21
77.272628331509935
 31
0.0
  0
LINE
  5
26BE
  8
0
  6
CONTINUOUS
 62
     7
 10
96.423875745541693
 20
77.272628331509935
 30
0.0
 11
96.532186133766487
 21
77.278714928842348
 31
0.0
  0
LINE
  5
26BF
  8
0
  6
CONTINUOUS
 62
     7
 10
96.532186133766487
 20
77.278714928842348
 30
0.0
 11
96.640077777611495
 21
77.28513320073435
 31
0.0
  0
LINE
  5
26C0
  8
0
  6
CONTINUOUS
 62
     7
 10
96.640077777611495
 20
77.28513320073435
 30
0.0
 11
96.747496042413985
 21
77.291875706569442
 31
0.0
  0
LINE
  5
26C1
  8
0
  6
CONTINUOUS
 62
     7
 10
96.747496042413985
 20
77.291875706569442
 30
0.0
 11
96.854387044114532
 21
77.298934366100113
 31
0.0
  0
LINE
  5
26C2
  8
0
  6
CONTINUOUS
 62
     7
 10
96.854387044114532
 20
77.298934366100113
 30
0.0
 11
96.90761822848701
 21
77.302579561005871
 31
0.0
  0
LINE
  5
26C3
  8
0
  6
CONTINUOUS
 62
     7
 10
96.90761822848701
 20
77.302579561005871
 30
0.0
 11
96.960697814257784
 21
77.306300490138995
 31
0.0
  0
LINE
  5
26C4
  8
0
  6
CONTINUOUS
 62
     7
 10
96.960697814257784
 20
77.306300490138995
 30
0.0
 11
97.066376459896389
 21
77.313964814712989
 31
0.0
  0
LINE
  5
26C5
  8
0
  6
CONTINUOUS
 62
     7
 10
97.066376459896389
 20
77.313964814712989
 30
0.0
 11
97.17137231855105
 21
77.321917538481955
 31
0.0
  0
LINE
  5
26C6
  8
0
  6
CONTINUOUS
 62
     7
 10
97.17137231855105
 20
77.321917538481955
 30
0.0
 11
97.275641243415265
 21
77.330148776777207
 31
0.0
  0
LINE
  5
26C7
  8
0
  6
CONTINUOUS
 62
     7
 10
97.275641243415265
 20
77.330148776777207
 30
0.0
 11
97.379155829568646
 21
77.338649530076395
 31
0.0
  0
LINE
  5
26C8
  8
0
  6
CONTINUOUS
 62
     7
 10
97.379155829568646
 20
77.338649530076395
 30
0.0
 11
97.481870014595685
 21
77.347408881413884
 31
0.0
  0
LINE
  5
26C9
  8
0
  6
CONTINUOUS
 62
     7
 10
97.481870014595685
 20
77.347408881413884
 30
0.0
 11
97.532911929497374
 21
77.351881920069331
 31
0.0
  0
LINE
  5
26CA
  8
0
  6
CONTINUOUS
 62
     7
 10
97.532911929497374
 20
77.351881920069331
 30
0.0
 11
97.58373576277998
 21
77.356415211410194
 31
0.0
  0
LINE
  5
26CB
  8
0
  6
CONTINUOUS
 62
     7
 10
97.58373576277998
 20
77.356415211410194
 30
0.0
 11
97.684705502109793
 21
77.365656404488107
 31
0.0
  0
LINE
  5
26CC
  8
0
  6
CONTINUOUS
 62
     7
 10
97.684705502109793
 20
77.365656404488107
 30
0.0
 11
97.784732298814163
 21
77.375119883903935
 31
0.0
  0
LINE
  5
26CD
  8
0
  6
CONTINUOUS
 62
     7
 10
97.784732298814163
 20
77.375119883903935
 30
0.0
 11
97.883770023873282
 21
77.384792649689004
 31
0.0
  0
LINE
  5
26CE
  8
0
  6
CONTINUOUS
 62
     7
 10
97.883770023873282
 20
77.384792649689004
 30
0.0
 11
97.981773511858876
 21
77.394661319248272
 31
0.0
  0
LINE
  5
26CF
  8
0
  6
CONTINUOUS
 62
     7
 10
97.981773511858876
 20
77.394661319248272
 30
0.0
 11
98.07869871246946
 21
77.404712170365926
 31
0.0
  0
LINE
  5
26D0
  8
0
  6
CONTINUOUS
 62
     7
 10
98.07869871246946
 20
77.404712170365926
 30
0.0
 11
98.126743529927722
 21
77.409801544026237
 31
0.0
  0
LINE
  5
26D1
  8
0
  6
CONTINUOUS
 62
     7
 10
98.126743529927722
 20
77.409801544026237
 30
0.0
 11
98.174502835124571
 21
77.414931186370836
 31
0.0
  0
LINE
  5
26D2
  8
0
  6
CONTINUOUS
 62
     7
 10
98.174502835124571
 20
77.414931186370836
 30
0.0
 11
98.269144486972195
 21
77.425304103217186
 31
0.0
  0
LINE
  5
26D3
  8
0
  6
CONTINUOUS
 62
     7
 10
98.269144486972195
 20
77.425304103217186
 30
0.0
 11
98.362583804644231
 21
77.435816458238065
 31
0.0
  0
LINE
  5
26D4
  8
0
  6
CONTINUOUS
 62
     7
 10
98.362583804644231
 20
77.435816458238065
 30
0.0
 11
98.408840580154973
 21
77.441120363494534
 31
0.0
  0
LINE
  5
26D5
  8
0
  6
CONTINUOUS
 62
     7
 10
98.408840580154973
 20
77.441120363494534
 30
0.0
 11
98.454782571632379
 21
77.446453639345975
 31
0.0
  0
LINE
  5
26D6
  8
0
  6
CONTINUOUS
 62
     7
 10
98.454782571632379
 20
77.446453639345975
 30
0.0
 11
98.545703983195736
 21
77.457200893802693
 31
0.0
  0
LINE
  5
26D7
  8
0
  6
CONTINUOUS
 62
     7
 10
98.545703983195736
 20
77.457200893802693
 30
0.0
 11
98.635311969848317
 21
77.468043278673434
 31
0.0
  0
LINE
  5
26D8
  8
0
  6
CONTINUOUS
 62
     7
 10
98.635311969848317
 20
77.468043278673434
 30
0.0
 11
98.679612347780775
 21
77.473495427884416
 31
0.0
  0
LINE
  5
26D9
  8
0
  6
CONTINUOUS
 62
     7
 10
98.679612347780775
 20
77.473495427884416
 30
0.0
 11
98.723571177750514
 21
77.478965682066473
 31
0.0
  0
LINE
  5
26DA
  8
0
  6
CONTINUOUS
 62
     7
 10
98.723571177750514
 20
77.478965682066473
 30
0.0
 11
98.810447150248933
 21
77.489952869821394
 31
0.0
  0
LINE
  5
26DB
  8
0
  6
CONTINUOUS
 62
     7
 10
98.810447150248933
 20
77.489952869821394
 30
0.0
 11
98.895906500119665
 21
77.500989533920034
 31
0.0
  0
LINE
  5
26DC
  8
0
  6
CONTINUOUS
 62
     7
 10
98.895906500119665
 20
77.500989533920034
 30
0.0
 11
98.979917071683104
 21
77.512060342154285
 31
0.0
  0
LINE
  5
26DD
  8
0
  6
CONTINUOUS
 62
     7
 10
98.979917071683104
 20
77.512060342154285
 30
0.0
 11
99.062448093210051
 21
77.523149988738652
 31
0.0
  0
LINE
  5
26DE
  8
0
  6
CONTINUOUS
 62
     7
 10
99.062448093210051
 20
77.523149988738652
 30
0.0
 11
99.143470320064637
 21
77.53424324556994
 31
0.0
  0
LINE
  5
26DF
  8
0
  6
CONTINUOUS
 62
     7
 10
99.143470320064637
 20
77.53424324556994
 30
0.0
 11
99.183406947338526
 21
77.539786502988349
 31
0.0
  0
LINE
  5
26E0
  8
0
  6
CONTINUOUS
 62
     7
 10
99.183406947338526
 20
77.539786502988349
 30
0.0
 11
99.222956169042234
 21
77.545325013850913
 31
0.0
  0
LINE
  5
26E1
  8
0
  6
CONTINUOUS
 62
     7
 10
99.222956169042234
 20
77.545325013850913
 30
0.0
 11
99.300879844363152
 21
77.556380375809269
 31
0.0
  0
LINE
  5
26E2
  8
0
  6
CONTINUOUS
 62
     7
 10
99.300879844363152
 20
77.556380375809269
 30
0.0
 11
99.377217455777185
 21
77.567394646256332
 31
0.0
  0
LINE
  5
26E3
  8
0
  6
CONTINUOUS
 62
     7
 10
99.377217455777185
 20
77.567394646256332
 30
0.0
 11
99.452160192381271
 21
77.578384918338742
 31
0.0
  0
LINE
  5
26E4
  8
0
  6
CONTINUOUS
 62
     7
 10
99.452160192381271
 20
77.578384918338742
 30
0.0
 11
99.526275536893536
 21
77.589426756329544
 31
0.0
  0
LINE
  5
26E5
  8
0
  6
CONTINUOUS
 62
     7
 10
99.526275536893536
 20
77.589426756329544
 30
0.0
 11
99.599541020807123
 21
77.600511148325566
 31
0.0
  0
LINE
  5
26E6
  8
0
  6
CONTINUOUS
 62
     7
 10
99.599541020807123
 20
77.600511148325566
 30
0.0
 11
99.635836569959878
 21
77.606064682942502
 31
0.0
  0
LINE
  5
26E7
  8
0
  6
CONTINUOUS
 62
     7
 10
99.635836569959878
 20
77.606064682942502
 30
0.0
 11
99.671897664162572
 21
77.611623285031698
 31
0.0
  0
LINE
  5
26E8
  8
0
  6
CONTINUOUS
 62
     7
 10
99.671897664162572
 20
77.611623285031698
 30
0.0
 11
99.743288153342235
 21
77.622748147812231
 31
0.0
  0
LINE
  5
26E9
  8
0
  6
CONTINUOUS
 62
     7
 10
99.743288153342235
 20
77.622748147812231
 30
0.0
 11
99.813656943479828
 21
77.633870559511976
 31
0.0
  0
LINE
  5
26EA
  8
0
  6
CONTINUOUS
 62
     7
 10
99.813656943479828
 20
77.633870559511976
 30
0.0
 11
99.848441350224491
 21
77.639426072535684
 31
0.0
  0
LINE
  5
27F9
  8
0
  6
CONTINUOUS
 62
     7
 10
30.387278322264851
 20
69.337204087078533
 30
0.0
 11
30.387401409123839
 21
69.306965446916493
 31
0.0
  0
LINE
  5
27FA
  8
0
  6
CONTINUOUS
 62
     7
 10
30.387401409123839
 20
69.306965446916493
 30
0.0
 11
30.388402890936678
 21
69.246704816499516
 31
0.0
  0
LINE
  5
27FB
  8
0
  6
CONTINUOUS
 62
     7
 10
30.388402890936678
 20
69.246704816499516
 30
0.0
 11
30.390450511752309
 21
69.186728243860472
 31
0.0
  0
LINE
  5
27FC
  8
0
  6
CONTINUOUS
 62
     7
 10
30.390450511752309
 20
69.186728243860472
 30
0.0
 11
30.391882123897659
 21
69.156844864470969
 31
0.0
  0
LINE
  5
27FD
  8
0
  6
CONTINUOUS
 62
     7
 10
30.387278322264851
 20
75.510083110060165
 30
0.0
 11
30.387374500598838
 21
75.48310491635705
 31
0.0
  0
LINE
  5
27FE
  8
0
  6
CONTINUOUS
 62
     7
 10
30.387374500598838
 20
75.48310491635705
 30
0.0
 11
30.388131994165722
 21
75.429012901203123
 31
0.0
  0
LINE
  5
27FF
  8
0
  6
CONTINUOUS
 62
     7
 10
30.388131994165722
 20
75.429012901203123
 30
0.0
 11
30.389618093859159
 21
75.374717922438421
 31
0.0
  0
LINE
  5
2800
  8
0
  6
CONTINUOUS
 62
     7
 10
30.389618093859159
 20
75.374717922438421
 30
0.0
 11
30.390627392793281
 21
75.347443908418995
 31
0.0
  0
LINE
  5
2801
  8
0
  6
CONTINUOUS
 62
     7
 10
30.390627392793281
 20
75.347443908418995
 30
0.0
 11
30.39181059977264
 21
75.320080865230437
 31
0.0
  0
LINE
  5
2802
  8
0
  6
CONTINUOUS
 62
     7
 10
30.39181059977264
 20
75.320080865230437
 30
0.0
 11
30.39468796054328
 21
75.265087078242047
 31
0.0
  0
LINE
  5
2803
  8
0
  6
CONTINUOUS
 62
     7
 10
30.39468796054328
 20
75.265087078242047
 30
0.0
 11
30.39822902112272
 21
75.209735316198064
 31
0.0
  0
LINE
  5
2804
  8
0
  6
CONTINUOUS
 62
     7
 10
30.39822902112272
 20
75.209735316198064
 30
0.0
 11
30.402413184369891
 21
75.154024316627812
 31
0.0
  0
LINE
  5
2805
  8
0
  6
CONTINUOUS
 62
     7
 10
30.402413184369891
 20
75.154024316627812
 30
0.0
 11
30.407220298895989
 21
75.097952812834833
 31
0.0
  0
LINE
  5
2806
  8
0
  6
CONTINUOUS
 62
     7
 10
30.407220298895989
 20
75.097952812834833
 30
0.0
 11
30.41263055182753
 21
75.041519539541056
 31
0.0
  0
LINE
  5
2807
  8
0
  6
CONTINUOUS
 62
     7
 10
30.41263055182753
 20
75.041519539541056
 30
0.0
 11
30.415555730763909
 21
75.01316684423864
 31
0.0
  0
LINE
  5
2808
  8
0
  6
CONTINUOUS
 62
     7
 10
30.415555730763909
 20
75.01316684423864
 30
0.0
 11
30.41862436557599
 21
74.984723232070721
 31
0.0
  0
LINE
  5
2809
  8
0
  6
CONTINUOUS
 62
     7
 10
30.41862436557599
 20
74.984723232070721
 30
0.0
 11
30.42518229765912
 21
74.927562619854655
 31
0.0
  0
LINE
  5
280A
  8
0
  6
CONTINUOUS
 62
     7
 10
30.42518229765912
 20
74.927562619854655
 30
0.0
 11
30.432284942571961
 21
74.87003641495474
 31
0.0
  0
LINE
  5
280B
  8
0
  6
CONTINUOUS
 62
     7
 10
30.432284942571961
 20
74.87003641495474
 30
0.0
 11
30.4611510902742
 21
74.665796042236721
 31
0.0
  0
LINE
  5
280C
  8
0
  6
CONTINUOUS
 62
     7
 10
30.4611510902742
 20
74.665796042236721
 30
0.0
 11
30.49036164518574
 21
74.487106411687222
 31
0.0
  0
LINE
  5
280D
  8
0
  6
CONTINUOUS
 62
     7
 10
30.49036164518574
 20
74.487106411687222
 30
0.0
 11
30.52307966031421
 21
74.305013848239696
 31
0.0
  0
LINE
  5
280E
  8
0
  6
CONTINUOUS
 62
     7
 10
30.52307966031421
 20
74.305013848239696
 30
0.0
 11
30.595287121543208
 21
73.935298179261608
 31
0.0
  0
LINE
  5
280F
  8
0
  6
CONTINUOUS
 62
     7
 10
30.595287121543208
 20
73.935298179261608
 30
0.0
 11
30.667410439603941
 21
73.574048049566201
 31
0.0
  0
LINE
  5
2810
  8
0
  6
CONTINUOUS
 62
     7
 10
30.667410439603941
 20
73.574048049566201
 30
0.0
 11
30.731101922603731
 21
73.22349616165981
 31
0.0
  0
LINE
  5
2811
  8
0
  6
CONTINUOUS
 62
     7
 10
30.731101922603731
 20
73.22349616165981
 30
0.0
 11
30.761246309812659
 21
73.023120065409955
 31
0.0
  0
LINE
  5
2812
  8
0
  6
CONTINUOUS
 62
     7
 10
30.761246309812659
 20
73.023120065409955
 30
0.0
 11
30.768706970977149
 21
72.965673557064221
 31
0.0
  0
LINE
  5
2813
  8
0
  6
CONTINUOUS
 62
     7
 10
30.768706970977149
 20
72.965673557064221
 30
0.0
 11
30.77557871751662
 21
72.908081530707605
 31
0.0
  0
LINE
  5
2814
  8
0
  6
CONTINUOUS
 62
     7
 10
30.77557871751662
 20
72.908081530707605
 30
0.0
 11
30.778779436195379
 21
72.879228852142845
 31
0.0
  0
LINE
  5
2815
  8
0
  6
CONTINUOUS
 62
     7
 10
30.778779436195379
 20
72.879228852142845
 30
0.0
 11
30.781815871054111
 21
72.850337293689847
 31
0.0
  0
LINE
  5
2816
  8
0
  6
CONTINUOUS
 62
     7
 10
30.781815871054111
 20
72.850337293689847
 30
0.0
 11
30.787373916296868
 21
72.792434281087424
 31
0.0
  0
LINE
  5
2817
  8
0
  6
CONTINUOUS
 62
     7
 10
30.787373916296868
 20
72.792434281087424
 30
0.0
 11
30.792209861239741
 21
72.734371033042407
 31
0.0
  0
LINE
  5
2818
  8
0
  6
CONTINUOUS
 62
     7
 10
30.792209861239741
 20
72.734371033042407
 30
0.0
 11
30.796276873705722
 21
72.676254195118901
 31
0.0
  0
LINE
  5
2819
  8
0
  6
CONTINUOUS
 62
     7
 10
30.796276873705722
 20
72.676254195118901
 30
0.0
 11
30.799543288483989
 21
72.618083519292043
 31
0.0
  0
LINE
  5
281A
  8
0
  6
CONTINUOUS
 62
     7
 10
30.799543288483989
 20
72.618083519292043
 30
0.0
 11
30.80198453789794
 21
72.559798079468663
 31
0.0
  0
LINE
  5
281B
  8
0
  6
CONTINUOUS
 62
     7
 10
30.80198453789794
 20
72.559798079468663
 30
0.0
 11
30.802887799167621
 21
72.530622874411506
 31
0.0
  0
LINE
  5
281C
  8
0
  6
CONTINUOUS
 62
     7
 10
30.802887799167621
 20
72.530622874411506
 30
0.0
 11
30.80357595375423
 21
72.501446948953074
 31
0.0
  0
LINE
  5
281D
  8
0
  6
CONTINUOUS
 62
     7
 10
30.80357595375423
 20
72.501446948953074
 30
0.0
 11
30.80430205906524
 21
72.443060263031313
 31
0.0
  0
LINE
  5
281E
  8
0
  6
CONTINUOUS
 62
     7
 10
30.80430205906524
 20
72.443060263031313
 30
0.0
 11
30.804155884667011
 21
72.384672747841904
 31
0.0
  0
LINE
  5
281F
  8
0
  6
CONTINUOUS
 62
     7
 10
30.804155884667011
 20
72.384672747841904
 30
0.0
 11
30.803755715340689
 21
72.355475380928041
 31
0.0
  0
LINE
  5
2820
  8
0
  6
CONTINUOUS
 62
     7
 10
30.803755715340689
 20
72.355475380928041
 30
0.0
 11
30.803138828128709
 21
72.326295615190716
 31
0.0
  0
LINE
  5
2821
  8
0
  6
CONTINUOUS
 62
     7
 10
30.803138828128709
 20
72.326295615190716
 30
0.0
 11
30.80126066806935
 21
72.267962078687788
 31
0.0
  0
LINE
  5
2822
  8
0
  6
CONTINUOUS
 62
     7
 10
30.80126066806935
 20
72.267962078687788
 30
0.0
 11
30.79853921199723
 21
72.209696307010404
 31
0.0
  0
LINE
  5
2823
  8
0
  6
CONTINUOUS
 62
     7
 10
30.79853921199723
 20
72.209696307010404
 30
0.0
 11
30.796871205511081
 21
72.180618306395303
 31
0.0
  0
LINE
  5
2824
  8
0
  6
CONTINUOUS
 62
     7
 10
30.796871205511081
 20
72.180618306395303
 30
0.0
 11
30.795002816253181
 21
72.151568039666913
 31
0.0
  0
LINE
  5
2825
  8
0
  6
CONTINUOUS
 62
     7
 10
30.795002816253181
 20
72.151568039666913
 30
0.0
 11
30.790678991135682
 21
72.093523369496324
 31
0.0
  0
LINE
  5
2826
  8
0
  6
CONTINUOUS
 62
     7
 10
30.790678991135682
 20
72.093523369496324
 30
0.0
 11
30.785597092593431
 21
72.035509639543974
 31
0.0
  0
LINE
  5
2827
  8
0
  6
CONTINUOUS
 62
     7
 10
30.785597092593431
 20
72.035509639543974
 30
0.0
 11
30.779794901952471
 21
71.97754117613357
 31
0.0
  0
LINE
  5
2828
  8
0
  6
CONTINUOUS
 62
     7
 10
30.779794901952471
 20
71.97754117613357
 30
0.0
 11
30.773315202213901
 21
71.919641215492931
 31
0.0
  0
LINE
  5
2829
  8
0
  6
CONTINUOUS
 62
     7
 10
30.773315202213901
 20
71.919641215492931
 30
0.0
 11
30.76620188860668
 21
71.861814660214051
 31
0.0
  0
LINE
  5
282A
  8
0
  6
CONTINUOUS
 62
     7
 10
30.76620188860668
 20
71.861814660214051
 30
0.0
 11
30.762421848657091
 21
71.832930339207422
 31
0.0
  0
LINE
  5
282B
  8
0
  6
CONTINUOUS
 62
     7
 10
30.762421848657091
 20
71.832930339207422
 30
0.0
 11
30.758500627667591
 21
71.804066040380178
 31
0.0
  0
LINE
  5
282C
  8
0
  6
CONTINUOUS
 62
     7
 10
30.758500627667591
 20
71.804066040380178
 30
0.0
 11
30.750258131311909
 21
71.746399547692192
 31
0.0
  0
LINE
  5
282D
  8
0
  6
CONTINUOUS
 62
     7
 10
30.750258131311909
 20
71.746399547692192
 30
0.0
 11
30.74152152344266
 21
71.688819114269904
 31
0.0
  0
LINE
  5
282E
  8
0
  6
CONTINUOUS
 62
     7
 10
30.74152152344266
 20
71.688819114269904
 30
0.0
 11
30.70772496959529
 21
71.488019811575569
 31
0.0
  0
LINE
  5
282F
  8
0
  6
CONTINUOUS
 62
     7
 10
30.70772496959529
 20
71.488019811575569
 30
0.0
 11
30.64248400708939
 21
71.146863897300477
 31
0.0
  0
LINE
  5
2830
  8
0
  6
CONTINUOUS
 62
     7
 10
30.64248400708939
 20
71.146863897300477
 30
0.0
 11
30.574889048216619
 21
70.810036223559138
 31
0.0
  0
LINE
  5
2831
  8
0
  6
CONTINUOUS
 62
     7
 10
30.574889048216619
 20
70.810036223559138
 30
0.0
 11
30.510864301556641
 21
70.47592574939388
 31
0.0
  0
LINE
  5
2832
  8
0
  6
CONTINUOUS
 62
     7
 10
30.510864301556641
 20
70.47592574939388
 30
0.0
 11
30.481835321063301
 21
70.310001055205007
 31
0.0
  0
LINE
  5
2833
  8
0
  6
CONTINUOUS
 62
     7
 10
30.481835321063301
 20
70.310001055205007
 30
0.0
 11
30.45560423319483
 21
70.144967209139622
 31
0.0
  0
LINE
  5
2834
  8
0
  6
CONTINUOUS
 62
     7
 10
30.45560423319483
 20
70.144967209139622
 30
0.0
 11
30.413870076359931
 21
69.817942680486112
 31
0.0
  0
LINE
  5
2835
  8
0
  6
CONTINUOUS
 62
     7
 10
30.413870076359931
 20
69.817942680486112
 30
0.0
 11
30.39767129980698
 21
69.629445965259634
 31
0.0
  0
LINE
  5
2836
  8
0
  6
CONTINUOUS
 62
     7
 10
30.39767129980698
 20
69.629445965259634
 30
0.0
 11
30.394328271890689
 21
69.575952137952683
 31
0.0
  0
LINE
  5
2837
  8
0
  6
CONTINUOUS
 62
     7
 10
30.394328271890689
 20
69.575952137952683
 30
0.0
 11
30.39160059369507
 21
69.522621015751753
 31
0.0
  0
LINE
  5
2838
  8
0
  6
CONTINUOUS
 62
     7
 10
30.39160059369507
 20
69.522621015751753
 30
0.0
 11
30.390475121184611
 21
69.496008415105265
 31
0.0
  0
LINE
  5
2839
  8
0
  6
CONTINUOUS
 62
     7
 10
30.390475121184611
 20
69.496008415105265
 30
0.0
 11
30.389513133276779
 21
69.469433487755353
 31
0.0
  0
LINE
  5
283A
  8
0
  6
CONTINUOUS
 62
     7
 10
30.389513133276779
 20
69.469433487755353
 30
0.0
 11
30.388093580128501
 21
69.416405864601955
 31
0.0
  0
LINE
  5
283B
  8
0
  6
CONTINUOUS
 62
     7
 10
30.388093580128501
 20
69.416405864601955
 30
0.0
 11
30.38737010816223
 21
69.363556392428023
 31
0.0
  0
LINE
  5
283C
  8
0
  6
CONTINUOUS
 62
     7
 10
30.38737010816223
 20
69.363556392428023
 30
0.0
 11
30.387278322264851
 21
69.337204087078533
 31
0.0
  0
LINE
  5
283D
  8
0
  6
CONTINUOUS
 62
     7
 10
30.391882123897659
 20
75.690442332572644
 30
0.0
 11
30.390450794102669
 21
75.660565483526341
 31
0.0
  0
LINE
  5
283E
  8
0
  6
CONTINUOUS
 62
     7
 10
30.390450794102669
 20
75.660565483526341
 30
0.0
 11
30.388403067785251
 21
75.600589390867412
 31
0.0
  0
LINE
  5
283F
  8
0
  6
CONTINUOUS
 62
     7
 10
30.388403067785251
 20
75.600589390867412
 30
0.0
 11
30.38740138630283
 21
75.540318960538798
 31
0.0
  0
LINE
  5
2840
  8
0
  6
CONTINUOUS
 62
     7
 10
30.38740138630283
 20
75.540318960538798
 30
0.0
 11
30.387278322264851
 21
75.510083110060165
 31
0.0
  0
LINE
  5
2841
  8
0
  6
CONTINUOUS
 62
     7
 10
30.38727832226482
 20
75.510083109965137
 30
0.0
 11
30.387401409123811
 21
75.540321750127106
 31
0.0
  0
LINE
  5
2842
  8
0
  6
CONTINUOUS
 62
     7
 10
30.387401409123811
 20
75.540321750127106
 30
0.0
 11
30.38840289093665
 21
75.600582380543969
 31
0.0
  0
LINE
  5
2844
  8
0
  6
CONTINUOUS
 62
     7
 10
30.390450511752281
 20
75.660558953183028
 30
0.0
 11
30.391882123897659
 21
75.690442332572644
 31
0.0
  0
LINE
  5
285A
  8
0
  6
CONTINUOUS
 62
     7
 10
30.76124630982056
 20
71.824167131692235
 30
0.0
 11
30.768706970984681
 21
71.881613640039731
 31
0.0
  0
LINE
  5
285B
  8
0
  6
CONTINUOUS
 62
     7
 10
30.768706970984681
 20
71.881613640039731
 30
0.0
 11
30.7755787175237
 21
71.939205666398124
 31
0.0
  0
LINE
  5
285C
  8
0
  6
CONTINUOUS
 62
     7
 10
30.7755787175237
 20
71.939205666398124
 30
0.0
 11
30.778779436202171
 21
71.968058344963765
 31
0.0
  0
LINE
  5
285D
  8
0
  6
CONTINUOUS
 62
     7
 10
30.778779436202171
 20
71.968058344963765
 30
0.0
 11
30.781815871060619
 21
71.996949903417644
 31
0.0
  0
LINE
  5
285E
  8
0
  6
CONTINUOUS
 62
     7
 10
30.781815871060619
 20
71.996949903417644
 30
0.0
 11
30.787373916302791
 21
72.054852916021872
 31
0.0
  0
LINE
  5
285F
  8
0
  6
CONTINUOUS
 62
     7
 10
30.787373916302791
 20
72.054852916021872
 30
0.0
 11
30.792209861244942
 21
72.112916164068665
 31
0.0
  0
LINE
  5
2860
  8
0
  6
CONTINUOUS
 62
     7
 10
30.792209861244942
 20
72.112916164068665
 30
0.0
 11
30.796276873710131
 21
72.171033001994289
 31
0.0
  0
LINE
  5
2861
  8
0
  6
CONTINUOUS
 62
     7
 10
30.796276873710131
 20
72.171033001994289
 30
0.0
 11
30.799543288487541
 21
72.229203677823733
 31
0.0
  0
LINE
  5
2862
  8
0
  6
CONTINUOUS
 62
     7
 10
30.799543288487541
 20
72.229203677823733
 30
0.0
 11
30.801984537900552
 21
72.287489117649955
 31
0.0
  0
LINE
  5
2863
  8
0
  6
CONTINUOUS
 62
     7
 10
30.801984537900552
 20
72.287489117649955
 30
0.0
 11
30.802887799169731
 21
72.31666432270822
 31
0.0
  0
LINE
  5
2864
  8
0
  6
CONTINUOUS
 62
     7
 10
30.802887799169731
 20
72.31666432270822
 30
0.0
 11
30.803575953755772
 21
72.345840248167448
 31
0.0
  0
LINE
  5
2865
  8
0
  6
CONTINUOUS
 62
     7
 10
30.803575953755772
 20
72.345840248167448
 30
0.0
 11
30.804302059065641
 21
72.404226934090389
 31
0.0
  0
LINE
  5
2866
  8
0
  6
CONTINUOUS
 62
     7
 10
30.804302059065641
 20
72.404226934090389
 30
0.0
 11
30.804155884666251
 21
72.462614449280053
 31
0.0
  0
LINE
  5
2867
  8
0
  6
CONTINUOUS
 62
     7
 10
30.804155884666251
 20
72.462614449280053
 30
0.0
 11
30.803755715339349
 21
72.491811816193234
 31
0.0
  0
LINE
  5
2868
  8
0
  6
CONTINUOUS
 62
     7
 10
30.803755715339349
 20
72.491811816193234
 30
0.0
 11
30.803138828126841
 21
72.520991581929763
 31
0.0
  0
LINE
  5
2869
  8
0
  6
CONTINUOUS
 62
     7
 10
30.803138828126841
 20
72.520991581929763
 30
0.0
 11
30.801260668066391
 21
72.579325118431086
 31
0.0
  0
LINE
  5
286A
  8
0
  6
CONTINUOUS
 62
     7
 10
30.801260668066391
 20
72.579325118431086
 30
0.0
 11
30.798539211993269
 21
72.63759089010658
 31
0.0
  0
LINE
  5
286B
  8
0
  6
CONTINUOUS
 62
     7
 10
30.798539211993269
 20
72.63759089010658
 30
0.0
 11
30.796871205506712
 21
72.666668890720771
 31
0.0
  0
LINE
  5
286C
  8
0
  6
CONTINUOUS
 62
     7
 10
30.796871205506712
 20
72.666668890720771
 30
0.0
 11
30.79500281624831
 21
72.695719157448281
 31
0.0
  0
LINE
  5
286E
  8
0
  6
CONTINUOUS
 62
     7
 10
30.79067899112999
 20
72.753763827617192
 30
0.0
 11
30.785597092587011
 21
72.81177755756795
 31
0.0
  0
LINE
  5
286F
  8
0
  6
CONTINUOUS
 62
     7
 10
30.785597092587011
 20
72.81177755756795
 30
0.0
 11
30.779794901945401
 21
72.869746020976777
 31
0.0
  0
LINE
  5
2870
  8
0
  6
CONTINUOUS
 62
     7
 10
30.779794901945401
 20
72.869746020976777
 30
0.0
 11
30.77331520220622
 21
72.927645981615839
 31
0.0
  0
LINE
  5
2872
  8
0
  6
CONTINUOUS
 62
     7
 10
30.76620188859852
 20
72.985472536893141
 30
0.0
 11
30.7624218486487
 21
73.014356857898989
 31
0.0
  0
LINE
  5
2873
  8
0
  6
CONTINUOUS
 62
     7
 10
30.7624218486487
 20
73.014356857898989
 30
0.0
 11
30.758500627659039
 21
73.043221156725451
 31
0.0
  0
LINE
  5
2874
  8
0
  6
CONTINUOUS
 62
     7
 10
30.758500627659039
 20
73.043221156725451
 30
0.0
 11
30.750258131302989
 21
73.100887649411874
 31
0.0
  0
LINE
  5
2875
  8
0
  6
CONTINUOUS
 62
     7
 10
30.750258131302989
 20
73.100887649411874
 30
0.0
 11
30.74152152343348
 21
73.158468082832599
 31
0.0
  0
LINE
  5
287E
  8
0
  6
CONTINUOUS
 62
     7
 10
30.397671299806461
 20
75.217841231791141
 30
0.0
 11
30.39432827189032
 21
75.271335059096799
 31
0.0
  0
LINE
  5
287F
  8
0
  6
CONTINUOUS
 62
     7
 10
30.39432827189032
 20
75.271335059096799
 30
0.0
 11
30.39160059369485
 21
75.32466618129645
 31
0.0
  0
LINE
  5
2880
  8
0
  6
CONTINUOUS
 62
     7
 10
30.39160059369485
 20
75.32466618129645
 30
0.0
 11
30.390475121184441
 21
75.351278781942284
 31
0.0
  0
LINE
  5
2881
  8
0
  6
CONTINUOUS
 62
     7
 10
30.390475121184441
 20
75.351278781942284
 30
0.0
 11
30.38951313327664
 21
75.377853709291543
 31
0.0
  0
LINE
  5
2889
  8
0
  6
CONTINUOUS
 62
     7
 10
36.685450036567516
 20
75.510083109965109
 30
0.0
 11
36.685326949708532
 21
75.540321750127063
 31
0.0
  0
LINE
  5
288A
  8
0
  6
CONTINUOUS
 62
     7
 10
36.685326949708532
 20
75.540321750127063
 30
0.0
 11
36.68432546789569
 21
75.600582380543955
 31
0.0
  0
LINE
  5
288B
  8
0
  6
CONTINUOUS
 62
     7
 10
36.68432546789569
 20
75.600582380543955
 30
0.0
 11
36.682277847080059
 21
75.660558953183042
 31
0.0
  0
LINE
  5
288C
  8
0
  6
CONTINUOUS
 62
     7
 10
36.682277847080059
 20
75.660558953183042
 30
0.0
 11
36.680846234934698
 21
75.690442332572644
 31
0.0
  0
LINE
  5
288D
  8
0
  6
CONTINUOUS
 62
     7
 10
36.685450036567516
 20
69.337204086983405
 30
0.0
 11
36.685353858233533
 21
69.364182280687146
 31
0.0
  0
LINE
  5
288E
  8
0
  6
CONTINUOUS
 62
     7
 10
36.685353858233533
 20
69.364182280687146
 30
0.0
 11
36.684596364666618
 21
69.418274295842309
 31
0.0
  0
LINE
  5
288F
  8
0
  6
CONTINUOUS
 62
     7
 10
36.684596364666618
 20
69.418274295842309
 30
0.0
 11
36.683110264973102
 21
69.472569274608219
 31
0.0
  0
LINE
  5
2890
  8
0
  6
CONTINUOUS
 62
     7
 10
36.683110264973102
 20
69.472569274608219
 30
0.0
 11
36.682100966038952
 21
69.499843288628242
 31
0.0
  0
LINE
  5
2891
  8
0
  6
CONTINUOUS
 62
     7
 10
36.682100966038952
 20
69.499843288628242
 30
0.0
 11
36.680917759059533
 21
69.527206331817368
 31
0.0
  0
LINE
  5
2892
  8
0
  6
CONTINUOUS
 62
     7
 10
36.680917759059533
 20
69.527206331817368
 30
0.0
 11
36.678040398288772
 21
69.582200118806853
 31
0.0
  0
LINE
  5
2893
  8
0
  6
CONTINUOUS
 62
     7
 10
36.678040398288772
 20
69.582200118806853
 30
0.0
 11
36.6744993377092
 21
69.637551880851873
 31
0.0
  0
LINE
  5
2894
  8
0
  6
CONTINUOUS
 62
     7
 10
36.6744993377092
 20
69.637551880851873
 30
0.0
 11
36.670315174461876
 21
69.693262880423106
 31
0.0
  0
LINE
  5
2895
  8
0
  6
CONTINUOUS
 62
     7
 10
36.670315174461876
 20
69.693262880423106
 30
0.0
 11
36.665508059935632
 21
69.749334384216979
 31
0.0
  0
LINE
  5
2896
  8
0
  6
CONTINUOUS
 62
     7
 10
36.665508059935632
 20
69.749334384216979
 30
0.0
 11
36.660097807003893
 21
69.805767657511623
 31
0.0
  0
LINE
  5
2897
  8
0
  6
CONTINUOUS
 62
     7
 10
36.660097807003893
 20
69.805767657511623
 30
0.0
 11
36.657172628067457
 21
69.834120352814452
 31
0.0
  0
LINE
  5
2898
  8
0
  6
CONTINUOUS
 62
     7
 10
36.657172628067457
 20
69.834120352814452
 30
0.0
 11
36.654103993255262
 21
69.862563964982741
 31
0.0
  0
LINE
  5
2899
  8
0
  6
CONTINUOUS
 62
     7
 10
36.654103993255262
 20
69.862563964982741
 30
0.0
 11
36.647546061171973
 21
69.919724577199503
 31
0.0
  0
LINE
  5
289A
  8
0
  6
CONTINUOUS
 62
     7
 10
36.647546061171973
 20
69.919724577199503
 30
0.0
 11
36.640443416258961
 21
69.977250782100057
 31
0.0
  0
LINE
  5
289B
  8
0
  6
CONTINUOUS
 62
     7
 10
36.640443416258961
 20
69.977250782100057
 30
0.0
 11
36.611577268556204
 21
70.18149115481971
 31
0.0
  0
LINE
  5
289C
  8
0
  6
CONTINUOUS
 62
     7
 10
36.611577268556204
 20
70.18149115481971
 30
0.0
 11
36.582366713644319
 21
70.360180785369764
 31
0.0
  0
LINE
  5
289D
  8
0
  6
CONTINUOUS
 62
     7
 10
36.582366713644319
 20
70.360180785369764
 30
0.0
 11
36.549648698515711
 21
70.542273348817005
 31
0.0
  0
LINE
  5
289E
  8
0
  6
CONTINUOUS
 62
     7
 10
36.549648698515711
 20
70.542273348817005
 30
0.0
 11
36.477441237285831
 21
70.911989017798433
 31
0.0
  0
LINE
  5
289F
  8
0
  6
CONTINUOUS
 62
     7
 10
36.477441237285831
 20
70.911989017798433
 30
0.0
 11
36.40531791922394
 21
71.273239147500391
 31
0.0
  0
LINE
  5
28A0
  8
0
  6
CONTINUOUS
 62
     7
 10
36.40531791922394
 20
71.273239147500391
 30
0.0
 11
36.34162643622372
 21
71.623791035413532
 31
0.0
  0
LINE
  5
28A1
  8
0
  6
CONTINUOUS
 62
     7
 10
36.34162643622372
 20
71.623791035413532
 30
0.0
 11
36.311482049015162
 21
71.824167131667295
 31
0.0
  0
LINE
  5
28A2
  8
0
  6
CONTINUOUS
 62
     7
 10
36.311482049015162
 20
71.824167131667295
 30
0.0
 11
36.304021387850867
 21
71.881613640014123
 31
0.0
  0
LINE
  5
28A3
  8
0
  6
CONTINUOUS
 62
     7
 10
36.304021387850867
 20
71.881613640014123
 30
0.0
 11
36.297149641311648
 21
71.939205666371805
 31
0.0
  0
LINE
  5
28A4
  8
0
  6
CONTINUOUS
 62
     7
 10
36.297149641311648
 20
71.939205666371805
 30
0.0
 11
36.293948922633056
 21
71.968058344937106
 31
0.0
  0
LINE
  5
28A5
  8
0
  6
CONTINUOUS
 62
     7
 10
36.293948922633056
 20
71.968058344937106
 30
0.0
 11
36.290912487774477
 21
71.996949903390629
 31
0.0
  0
LINE
  5
28A6
  8
0
  6
CONTINUOUS
 62
     7
 10
36.290912487774477
 20
71.996949903390629
 30
0.0
 11
36.285354442532082
 21
72.054852915994118
 31
0.0
  0
LINE
  5
28A7
  8
0
  6
CONTINUOUS
 62
     7
 10
36.285354442532082
 20
72.054852915994118
 30
0.0
 11
36.280518497589611
 21
72.1129161640402
 31
0.0
  0
LINE
  5
28A8
  8
0
  6
CONTINUOUS
 62
     7
 10
36.280518497589611
 20
72.1129161640402
 30
0.0
 11
36.276451485124092
 21
72.171033001964986
 31
0.0
  0
LINE
  5
28A9
  8
0
  6
CONTINUOUS
 62
     7
 10
36.276451485124092
 20
72.171033001964986
 30
0.0
 11
36.273185070346301
 21
72.229203677793421
 31
0.0
  0
LINE
  5
28AA
  8
0
  6
CONTINUOUS
 62
     7
 10
36.273185070346301
 20
72.229203677793421
 30
0.0
 11
36.270743820932893
 21
72.28748911761852
 31
0.0
  0
LINE
  5
28AB
  8
0
  6
CONTINUOUS
 62
     7
 10
36.270743820932893
 20
72.28748911761852
 30
0.0
 11
36.269840559663521
 21
72.316664322676445
 31
0.0
  0
LINE
  5
28AC
  8
0
  6
CONTINUOUS
 62
     7
 10
36.269840559663521
 20
72.316664322676445
 30
0.0
 11
36.269152405077222
 21
72.345840248135559
 31
0.0
  0
LINE
  5
28AD
  8
0
  6
CONTINUOUS
 62
     7
 10
36.269152405077222
 20
72.345840248135559
 30
0.0
 11
36.268426299766901
 21
72.404226934058585
 31
0.0
  0
LINE
  5
28AE
  8
0
  6
CONTINUOUS
 62
     7
 10
36.268426299766901
 20
72.404226934058585
 30
0.0
 11
36.268572474165808
 21
72.462614449248875
 31
0.0
  0
LINE
  5
28AF
  8
0
  6
CONTINUOUS
 62
     7
 10
36.268572474165808
 20
72.462614449248875
 30
0.0
 11
36.268972643492503
 21
72.491811816162851
 31
0.0
  0
LINE
  5
28B0
  8
0
  6
CONTINUOUS
 62
     7
 10
36.268972643492503
 20
72.491811816162851
 30
0.0
 11
36.269589530704792
 21
72.520991581900191
 31
0.0
  0
LINE
  5
28B1
  8
0
  6
CONTINUOUS
 62
     7
 10
36.269589530704792
 20
72.520991581900191
 30
0.0
 11
36.271467690764872
 21
72.579325118402636
 31
0.0
  0
LINE
  5
28B2
  8
0
  6
CONTINUOUS
 62
     7
 10
36.271467690764872
 20
72.579325118402636
 30
0.0
 11
36.274189146837578
 21
72.637590890078712
 31
0.0
  0
LINE
  5
28B3
  8
0
  6
CONTINUOUS
 62
     7
 10
36.274189146837578
 20
72.637590890078712
 30
0.0
 11
36.275857153324012
 21
72.666668890693188
 31
0.0
  0
LINE
  5
28B4
  8
0
  6
CONTINUOUS
 62
     7
 10
36.275857153324012
 20
72.666668890693188
 30
0.0
 11
36.277725542582182
 21
72.695719157420982
 31
0.0
  0
LINE
  5
28B5
  8
0
  6
CONTINUOUS
 62
     7
 10
36.277725542582182
 20
72.695719157420982
 30
0.0
 11
36.282049367700182
 21
72.753763827590433
 31
0.0
  0
LINE
  5
28B6
  8
0
  6
CONTINUOUS
 62
     7
 10
36.282049367700182
 20
72.753763827590433
 30
0.0
 11
36.287131266242881
 21
72.811777557541731
 31
0.0
  0
LINE
  5
28B7
  8
0
  6
CONTINUOUS
 62
     7
 10
36.287131266242881
 20
72.811777557541731
 30
0.0
 11
36.292933456884242
 21
72.869746020951141
 31
0.0
  0
LINE
  5
28B8
  8
0
  6
CONTINUOUS
 62
     7
 10
36.292933456884242
 20
72.869746020951141
 30
0.0
 11
36.299413156623189
 21
72.927645981590771
 31
0.0
  0
LINE
  5
28B9
  8
0
  6
CONTINUOUS
 62
     7
 10
36.299413156623189
 20
72.927645981590771
 30
0.0
 11
36.306526470230693
 21
72.985472536868613
 31
0.0
  0
LINE
  5
28BA
  8
0
  6
CONTINUOUS
 62
     7
 10
36.306526470230693
 20
72.985472536868613
 30
0.0
 11
36.310306510180432
 21
73.014356857874759
 31
0.0
  0
LINE
  5
28BB
  8
0
  6
CONTINUOUS
 62
     7
 10
36.310306510180432
 20
73.014356857874759
 30
0.0
 11
36.314227731170043
 21
73.04322115670152
 31
0.0
  0
LINE
  5
28BC
  8
0
  6
CONTINUOUS
 62
     7
 10
36.314227731170043
 20
73.04322115670152
 30
0.0
 11
36.322470227525912
 21
73.100887649388497
 31
0.0
  0
LINE
  5
28BE
  8
0
  6
CONTINUOUS
 62
     7
 10
36.331206835395342
 20
73.15846808280979
 30
0.0
 11
36.365003389242901
 21
73.359267385500729
 31
0.0
  0
LINE
  5
28BF
  8
0
  6
CONTINUOUS
 62
     7
 10
36.365003389242901
 20
73.359267385500729
 30
0.0
 11
36.430244351748371
 21
73.700423299770279
 31
0.0
  0
LINE
  5
28C0
  8
0
  6
CONTINUOUS
 62
     7
 10
36.430244351748371
 20
73.700423299770279
 30
0.0
 11
36.497839310620151
 21
74.037250973506559
 31
0.0
  0
LINE
  5
28C1
  8
0
  6
CONTINUOUS
 62
     7
 10
36.497839310620151
 20
74.037250973506559
 30
0.0
 11
36.561864057278832
 21
74.3713614476668
 31
0.0
  0
LINE
  5
28C2
  8
0
  6
CONTINUOUS
 62
     7
 10
36.561864057278832
 20
74.3713614476668
 30
0.0
 11
36.590893037771508
 21
74.537286141853144
 31
0.0
  0
LINE
  5
28C3
  8
0
  6
CONTINUOUS
 62
     7
 10
36.590893037771508
 20
74.537286141853144
 30
0.0
 11
36.617124125639322
 21
74.702319987916042
 31
0.0
  0
LINE
  5
28C4
  8
0
  6
CONTINUOUS
 62
     7
 10
36.617124125639322
 20
74.702319987916042
 30
0.0
 11
36.658858282473183
 21
75.029344516564677
 31
0.0
  0
LINE
  5
28C5
  8
0
  6
CONTINUOUS
 62
     7
 10
36.658858282473183
 20
75.029344516564677
 30
0.0
 11
36.675057059025697
 21
75.21784123178837
 31
0.0
  0
LINE
  5
28C6
  8
0
  6
CONTINUOUS
 62
     7
 10
36.675057059025697
 20
75.21784123178837
 30
0.0
 11
36.678400086941878
 21
75.271335059094554
 31
0.0
  0
LINE
  5
28C7
  8
0
  6
CONTINUOUS
 62
     7
 10
36.678400086941878
 20
75.271335059094554
 30
0.0
 11
36.681127765137433
 21
75.324666181294702
 31
0.0
  0
LINE
  5
28C8
  8
0
  6
CONTINUOUS
 62
     7
 10
36.681127765137433
 20
75.324666181294702
 30
0.0
 11
36.682253237647842
 21
75.351278781940778
 31
0.0
  0
LINE
  5
28C9
  8
0
  6
CONTINUOUS
 62
     7
 10
36.682253237647842
 20
75.351278781940778
 30
0.0
 11
36.683215225555671
 21
75.377853709290292
 31
0.0
  0
LINE
  5
28CA
  8
0
  6
CONTINUOUS
 62
     7
 10
36.683215225555671
 20
75.377853709290292
 30
0.0
 11
36.684634778703888
 21
75.43088133244288
 31
0.0
  0
LINE
  5
28CB
  8
0
  6
CONTINUOUS
 62
     7
 10
36.684634778703888
 20
75.43088133244288
 30
0.0
 11
36.685358250670163
 21
75.483730804616016
 31
0.0
  0
LINE
  5
28CC
  8
0
  6
CONTINUOUS
 62
     7
 10
36.685358250670163
 20
75.483730804616016
 30
0.0
 11
36.685450036567516
 21
75.510083109965109
 31
0.0
  0
LINE
  5
28CD
  8
0
  6
CONTINUOUS
 62
     7
 10
36.680846234934698
 20
69.156844864470955
 30
0.0
 11
36.682277564729702
 21
69.186721713517287
 31
0.0
  0
LINE
  5
28CE
  8
0
  6
CONTINUOUS
 62
     7
 10
36.682277564729702
 20
69.186721713517287
 30
0.0
 11
36.684325291047116
 21
69.246697806176215
 31
0.0
  0
LINE
  5
28CF
  8
0
  6
CONTINUOUS
 62
     7
 10
36.684325291047116
 20
69.246697806176215
 30
0.0
 11
36.685326972529538
 21
69.306968236504801
 31
0.0
  0
LINE
  5
28D0
  8
0
  6
CONTINUOUS
 62
     7
 10
36.685326972529538
 20
69.306968236504801
 30
0.0
 11
36.685450036567516
 21
69.337204086983405
 31
0.0
  0
LINE
  5
28D1
  8
0
  6
CONTINUOUS
 62
     7
 10
36.306514318431823
 20
65.946348744997664
 30
0.0
 11
36.319563745066063
 21
65.991273262883681
 31
0.0
  0
LINE
  5
28D2
  8
0
  6
CONTINUOUS
 62
     7
 10
36.319563745066063
 20
65.991273262883681
 30
0.0
 11
36.344878817697321
 21
66.087616656529903
 31
0.0
  0
LINE
  5
28D3
  8
0
  6
CONTINUOUS
 62
     7
 10
36.344878817697321
 20
66.087616656529903
 30
0.0
 11
36.36916149169565
 21
66.191875470626627
 31
0.0
  0
LINE
  5
28D4
  8
0
  6
CONTINUOUS
 62
     7
 10
36.36916149169565
 20
66.191875470626627
 30
0.0
 11
36.381339292982318
 21
66.248713771923718
 31
0.0
  0
LINE
  5
28D5
  8
0
  6
CONTINUOUS
 62
     7
 10
36.381339292982318
 20
66.248713771923718
 30
0.0
 11
36.393585898679618
 21
66.309052977400782
 31
0.0
  0
LINE
  5
28D6
  8
0
  6
CONTINUOUS
 62
     7
 10
36.393585898679618
 20
66.309052977400782
 30
0.0
 11
36.418141288817402
 21
66.440038459178794
 31
0.0
  0
LINE
  5
28D7
  8
0
  6
CONTINUOUS
 62
     7
 10
36.418141288817402
 20
66.440038459178794
 30
0.0
 11
36.442551024888928
 21
66.584225206264605
 31
0.0
  0
LINE
  5
28D8
  8
0
  6
CONTINUOUS
 62
     7
 10
36.442551024888928
 20
66.584225206264605
 30
0.0
 11
36.466556376637129
 21
66.740648356845654
 31
0.0
  0
LINE
  5
28D9
  8
0
  6
CONTINUOUS
 62
     7
 10
36.466556376637129
 20
66.740648356845654
 30
0.0
 11
36.489921499009768
 21
66.908009671215197
 31
0.0
  0
LINE
  5
28DA
  8
0
  6
CONTINUOUS
 62
     7
 10
36.489921499009768
 20
66.908009671215197
 30
0.0
 11
36.512435226066323
 21
67.084695640313299
 31
0.0
  0
LINE
  5
28DB
  8
0
  6
CONTINUOUS
 62
     7
 10
36.512435226066323
 20
67.084695640313299
 30
0.0
 11
36.52331098417352
 21
67.17592531094121
 31
0.0
  0
LINE
  5
28DC
  8
0
  6
CONTINUOUS
 62
     7
 10
36.52331098417352
 20
67.17592531094121
 30
0.0
 11
36.533902863208262
 21
67.268714659395172
 31
0.0
  0
LINE
  5
28DD
  8
0
  6
CONTINUOUS
 62
     7
 10
36.533902863208262
 20
67.268714659395172
 30
0.0
 11
36.554154810391651
 21
67.45776141024767
 31
0.0
  0
LINE
  5
28DE
  8
0
  6
CONTINUOUS
 62
     7
 10
36.554154810391651
 20
67.45776141024767
 30
0.0
 11
36.573064203712732
 21
67.64941769390677
 31
0.0
  0
LINE
  5
28DF
  8
0
  6
CONTINUOUS
 62
     7
 10
36.573064203712732
 20
67.64941769390677
 30
0.0
 11
36.591397047180287
 21
67.850967626624552
 31
0.0
  0
LINE
  5
28E0
  8
0
  6
CONTINUOUS
 62
     7
 10
36.591397047180287
 20
67.850967626624552
 30
0.0
 11
36.609416980519569
 21
68.066280490488509
 31
0.0
  0
LINE
  5
28E1
  8
0
  6
CONTINUOUS
 62
     7
 10
36.609416980519569
 20
68.066280490488509
 30
0.0
 11
36.626880968374479
 21
68.293756020641055
 31
0.0
  0
LINE
  5
28E2
  8
0
  6
CONTINUOUS
 62
     7
 10
36.626880968374479
 20
68.293756020641055
 30
0.0
 11
36.635336763893321
 21
68.411485664512981
 31
0.0
  0
LINE
  5
28E3
  8
0
  6
CONTINUOUS
 62
     7
 10
36.635336763893321
 20
68.411485664512981
 30
0.0
 11
36.643576003562771
 21
68.531538879405588
 31
0.0
  0
LINE
  5
28E4
  8
0
  6
CONTINUOUS
 62
     7
 10
36.643576003562771
 20
68.531538879405588
 30
0.0
 11
36.659320657626381
 21
68.777526915700889
 31
0.0
  0
LINE
  5
28E5
  8
0
  6
CONTINUOUS
 62
     7
 10
36.659320657626381
 20
68.777526915700889
 30
0.0
 11
36.673969966715838
 21
69.029449562053443
 31
0.0
  0
LINE
  5
28E6
  8
0
  6
CONTINUOUS
 62
     7
 10
36.673969966715838
 20
69.029449562053443
 30
0.0
 11
36.680846234934698
 21
69.156844864470955
 31
0.0
  0
LINE
  5
28E7
  8
0
  6
CONTINUOUS
 62
     7
 10
35.823861224905841
 20
64.346038649028884
 30
0.0
 11
35.890636044902408
 21
64.56695165410656
 31
0.0
  0
LINE
  5
28E8
  8
0
  6
CONTINUOUS
 62
     7
 10
35.890636044902408
 20
64.56695165410656
 30
0.0
 11
36.038773869764071
 21
65.05772556087193
 31
0.0
  0
LINE
  5
28E9
  8
0
  6
CONTINUOUS
 62
     7
 10
36.038773869764071
 20
65.05772556087193
 30
0.0
 11
36.210231890450359
 21
65.626606674970631
 31
0.0
  0
LINE
  5
28EA
  8
0
  6
CONTINUOUS
 62
     7
 10
36.210231890450359
 20
65.626606674970631
 30
0.0
 11
36.306514318431823
 21
65.946348744997664
 31
0.0
  0
LINE
  5
2905
  8
0
  6
CONTINUOUS
 62
     7
 10
36.680846234934698
 20
75.690442332572644
 30
0.0
 11
36.671099131643437
 21
75.869191171061459
 31
0.0
  0
LINE
  5
2906
  8
0
  6
CONTINUOUS
 62
     7
 10
36.671099131643437
 20
75.869191171061459
 30
0.0
 11
36.649881516538642
 21
76.219998417675342
 31
0.0
  0
LINE
  5
2907
  8
0
  6
CONTINUOUS
 62
     7
 10
36.649881516538642
 20
76.219998417675342
 30
0.0
 11
36.626673612693878
 21
76.556352476218592
 31
0.0
  0
LINE
  5
2908
  8
0
  6
CONTINUOUS
 62
     7
 10
36.626673612693878
 20
76.556352476218592
 30
0.0
 11
36.614468863227501
 21
76.717235249203441
 31
0.0
  0
LINE
  5
2909
  8
0
  6
CONTINUOUS
 62
     7
 10
36.614468863227501
 20
76.717235249203441
 30
0.0
 11
36.601957714422241
 21
76.87235922098202
 31
0.0
  0
LINE
  5
290A
  8
0
  6
CONTINUOUS
 62
     7
 10
36.601957714422241
 20
76.87235922098202
 30
0.0
 11
36.576342223060863
 21
77.163025187811215
 31
0.0
  0
LINE
  5
290B
  8
0
  6
CONTINUOUS
 62
     7
 10
36.576342223060863
 20
77.163025187811215
 30
0.0
 11
36.54967917786243
 21
77.432683116611287
 31
0.0
  0
LINE
  5
290C
  8
0
  6
CONTINUOUS
 62
     7
 10
36.54967917786243
 20
77.432683116611287
 30
0.0
 11
36.520477394432561
 21
77.695517383497474
 31
0.0
  0
LINE
  5
290D
  8
0
  6
CONTINUOUS
 62
     7
 10
36.520477394432561
 20
77.695517383497474
 30
0.0
 11
36.489086033663973
 21
77.945533987603866
 31
0.0
  0
LINE
  5
290E
  8
0
  6
CONTINUOUS
 62
     7
 10
36.489086033663973
 20
77.945533987603866
 30
0.0
 11
36.456031193890198
 21
78.177082389926113
 31
0.0
  0
LINE
  5
290F
  8
0
  6
CONTINUOUS
 62
     7
 10
36.456031193890198
 20
78.177082389926113
 30
0.0
 11
36.439064538339842
 21
78.284547699742063
 31
0.0
  0
LINE
  5
2910
  8
0
  6
CONTINUOUS
 62
     7
 10
36.439064538339842
 20
78.284547699742063
 30
0.0
 11
36.421915754603504
 21
78.3858885922984
 31
0.0
  0
LINE
  5
2911
  8
0
  6
CONTINUOUS
 62
     7
 10
36.421915754603504
 20
78.3858885922984
 30
0.0
 11
36.387434778880618
 21
78.56894520520585
 31
0.0
  0
LINE
  5
2912
  8
0
  6
CONTINUOUS
 62
     7
 10
36.387434778880618
 20
78.56894520520585
 30
0.0
 11
36.353320207060108
 21
78.724771122533696
 31
0.0
  0
LINE
  5
2913
  8
0
  6
CONTINUOUS
 62
     7
 10
36.353320207060108
 20
78.724771122533696
 30
0.0
 11
36.317995805485992
 21
78.861579595576714
 31
0.0
  0
LINE
  5
2914
  8
0
  6
CONTINUOUS
 62
     7
 10
36.317995805485992
 20
78.861579595576714
 30
0.0
 11
36.280714637185362
 21
78.980592292252339
 31
0.0
  0
LINE
  5
2915
  8
0
  6
CONTINUOUS
 62
     7
 10
36.280714637185362
 20
78.980592292252339
 30
0.0
 11
36.242140423314169
 21
79.077771562634652
 31
0.0
  0
LINE
  5
2916
  8
0
  6
CONTINUOUS
 62
     7
 10
36.242140423314169
 20
79.077771562634652
 30
0.0
 11
36.222586444496962
 21
79.117326587156285
 31
0.0
  0
LINE
  5
2917
  8
0
  6
CONTINUOUS
 62
     7
 10
36.222586444496962
 20
79.117326587156285
 30
0.0
 11
36.202970978769059
 21
79.150606555810484
 31
0.0
  0
LINE
  5
2918
  8
0
  6
CONTINUOUS
 62
     7
 10
36.202970978769059
 20
79.150606555810484
 30
0.0
 11
36.163927900769487
 21
79.198136606710563
 31
0.0
  0
LINE
  5
2919
  8
0
  6
CONTINUOUS
 62
     7
 10
36.163927900769487
 20
79.198136606710563
 30
0.0
 11
36.125767480857952
 21
79.220927981062886
 31
0.0
  0
LINE
  5
291A
  8
0
  6
CONTINUOUS
 62
     7
 10
36.125767480857952
 20
79.220927981062886
 30
0.0
 11
36.107258690031159
 21
79.223643598521804
 31
0.0
  0
LINE
  5
291B
  8
0
  6
CONTINUOUS
 62
     7
 10
30.965469668801209
 20
79.223643598521804
 30
0.0
 11
30.946960877974419
 21
79.220927981062886
 31
0.0
  0
LINE
  5
291C
  8
0
  6
CONTINUOUS
 62
     7
 10
30.946960877974419
 20
79.220927981062886
 30
0.0
 11
30.908800458062871
 21
79.198136606710563
 31
0.0
  0
LINE
  5
291D
  8
0
  6
CONTINUOUS
 62
     7
 10
30.908800458062871
 20
79.198136606710563
 30
0.0
 11
30.869757380063302
 21
79.150606555810484
 31
0.0
  0
LINE
  5
291E
  8
0
  6
CONTINUOUS
 62
     7
 10
30.869757380063302
 20
79.150606555810484
 30
0.0
 11
30.85014191433541
 21
79.117326587156285
 31
0.0
  0
LINE
  5
291F
  8
0
  6
CONTINUOUS
 62
     7
 10
30.85014191433541
 20
79.117326587156285
 30
0.0
 11
30.830587935518199
 21
79.077771562634652
 31
0.0
  0
LINE
  5
2920
  8
0
  6
CONTINUOUS
 62
     7
 10
30.830587935518199
 20
79.077771562634652
 30
0.0
 11
30.79201372164701
 21
78.980592292252339
 31
0.0
  0
LINE
  5
2921
  8
0
  6
CONTINUOUS
 62
     7
 10
30.79201372164701
 20
78.980592292252339
 30
0.0
 11
30.754732553346379
 21
78.8615795955767
 31
0.0
  0
LINE
  5
2922
  8
0
  6
CONTINUOUS
 62
     7
 10
30.754732553346379
 20
78.8615795955767
 30
0.0
 11
30.71940815177226
 21
78.724771122533696
 31
0.0
  0
LINE
  5
2923
  8
0
  6
CONTINUOUS
 62
     7
 10
30.71940815177226
 20
78.724771122533696
 30
0.0
 11
30.68529357995175
 21
78.56894520520585
 31
0.0
  0
LINE
  5
2924
  8
0
  6
CONTINUOUS
 62
     7
 10
30.68529357995175
 20
78.56894520520585
 30
0.0
 11
30.650812604228861
 21
78.3858885922984
 31
0.0
  0
LINE
  5
2925
  8
0
  6
CONTINUOUS
 62
     7
 10
30.650812604228861
 20
78.3858885922984
 30
0.0
 11
30.633663820492529
 21
78.284547699742063
 31
0.0
  0
LINE
  5
2926
  8
0
  6
CONTINUOUS
 62
     7
 10
30.633663820492529
 20
78.284547699742063
 30
0.0
 11
30.61669716494217
 21
78.177082389926113
 31
0.0
  0
LINE
  5
2927
  8
0
  6
CONTINUOUS
 62
     7
 10
30.61669716494217
 20
78.177082389926113
 30
0.0
 11
30.583642325168402
 21
77.945533987603866
 31
0.0
  0
LINE
  5
2928
  8
0
  6
CONTINUOUS
 62
     7
 10
30.583642325168402
 20
77.945533987603866
 30
0.0
 11
30.552250964399828
 21
77.69551738349746
 31
0.0
  0
LINE
  5
2929
  8
0
  6
CONTINUOUS
 62
     7
 10
30.552250964399828
 20
77.69551738349746
 30
0.0
 11
30.523049180969931
 21
77.432683116611273
 31
0.0
  0
LINE
  5
292A
  8
0
  6
CONTINUOUS
 62
     7
 10
30.523049180969931
 20
77.432683116611273
 30
0.0
 11
30.496386135771498
 21
77.163025187811215
 31
0.0
  0
LINE
  5
292B
  8
0
  6
CONTINUOUS
 62
     7
 10
30.496386135771498
 20
77.163025187811215
 30
0.0
 11
30.47077064441012
 21
76.87235922098202
 31
0.0
  0
LINE
  5
292C
  8
0
  6
CONTINUOUS
 62
     7
 10
30.47077064441012
 20
76.87235922098202
 30
0.0
 11
30.45825949560486
 21
76.717235249203441
 31
0.0
  0
LINE
  5
292D
  8
0
  6
CONTINUOUS
 62
     7
 10
30.45825949560486
 20
76.717235249203441
 30
0.0
 11
30.44605474613849
 21
76.556352476218592
 31
0.0
  0
LINE
  5
292E
  8
0
  6
CONTINUOUS
 62
     7
 10
30.44605474613849
 20
76.556352476218592
 30
0.0
 11
30.422846842293719
 21
76.219998417675313
 31
0.0
  0
LINE
  5
292F
  8
0
  6
CONTINUOUS
 62
     7
 10
30.422846842293719
 20
76.219998417675313
 30
0.0
 11
30.40162922718892
 21
75.869191171061459
 31
0.0
  0
LINE
  5
2930
  8
0
  6
CONTINUOUS
 62
     7
 10
30.40162922718892
 20
75.869191171061459
 30
0.0
 11
30.391882123897659
 21
75.690442332572644
 31
0.0
  0
LINE
  5
294B
  8
0
  6
CONTINUOUS
 62
     7
 10
30.766214040400541
 20
65.946348744997664
 30
0.0
 11
30.86249646838198
 21
65.626606674970731
 31
0.0
  0
LINE
  5
294C
  8
0
  6
CONTINUOUS
 62
     7
 10
30.86249646838198
 20
65.626606674970731
 30
0.0
 11
31.03395448906824
 21
65.057725560872072
 31
0.0
  0
LINE
  5
294D
  8
0
  6
CONTINUOUS
 62
     7
 10
31.03395448906824
 20
65.057725560872072
 30
0.0
 11
31.18209231392996
 21
64.566951654106632
 31
0.0
  0
LINE
  5
294E
  8
0
  6
CONTINUOUS
 62
     7
 10
31.18209231392996
 20
64.566951654106632
 30
0.0
 11
31.248867133926531
 21
64.346038649028884
 31
0.0
  0
LINE
  5
294F
  8
0
  6
CONTINUOUS
 62
     7
 10
30.391882123897659
 20
69.156844864470969
 30
0.0
 11
30.39875839211652
 21
69.029449562053443
 31
0.0
  0
LINE
  5
2950
  8
0
  6
CONTINUOUS
 62
     7
 10
30.39875839211652
 20
69.029449562053443
 30
0.0
 11
30.41340770120598
 21
68.777526915700889
 31
0.0
  0
LINE
  5
2951
  8
0
  6
CONTINUOUS
 62
     7
 10
30.41340770120598
 20
68.777526915700889
 30
0.0
 11
30.42915235526959
 21
68.531538879405588
 31
0.0
  0
LINE
  5
2952
  8
0
  6
CONTINUOUS
 62
     7
 10
30.42915235526959
 20
68.531538879405588
 30
0.0
 11
30.437391594939051
 21
68.411485664512995
 31
0.0
  0
LINE
  5
2953
  8
0
  6
CONTINUOUS
 62
     7
 10
30.437391594939051
 20
68.411485664512995
 30
0.0
 11
30.445847390457882
 21
68.293756020641069
 31
0.0
  0
LINE
  5
2954
  8
0
  6
CONTINUOUS
 62
     7
 10
30.445847390457882
 20
68.293756020641069
 30
0.0
 11
30.463311378312799
 21
68.066280490488509
 31
0.0
  0
LINE
  5
2955
  8
0
  6
CONTINUOUS
 62
     7
 10
30.463311378312799
 20
68.066280490488509
 30
0.0
 11
30.48133131165207
 21
67.850967626624566
 31
0.0
  0
LINE
  5
2956
  8
0
  6
CONTINUOUS
 62
     7
 10
30.48133131165207
 20
67.850967626624566
 30
0.0
 11
30.499664155119628
 21
67.64941769390677
 31
0.0
  0
LINE
  5
2957
  8
0
  6
CONTINUOUS
 62
     7
 10
30.499664155119628
 20
67.64941769390677
 30
0.0
 11
30.51857354844071
 21
67.457761410247684
 31
0.0
  0
LINE
  5
2958
  8
0
  6
CONTINUOUS
 62
     7
 10
30.51857354844071
 20
67.457761410247684
 30
0.0
 11
30.53882549562411
 21
67.268714659395187
 31
0.0
  0
LINE
  5
2959
  8
0
  6
CONTINUOUS
 62
     7
 10
30.53882549562411
 20
67.268714659395187
 30
0.0
 11
30.549417374658852
 21
67.17592531094121
 31
0.0
  0
LINE
  5
295A
  8
0
  6
CONTINUOUS
 62
     7
 10
30.549417374658852
 20
67.17592531094121
 30
0.0
 11
30.560293132766081
 21
67.084695640313299
 31
0.0
  0
LINE
  5
295B
  8
0
  6
CONTINUOUS
 62
     7
 10
30.560293132766081
 20
67.084695640313299
 30
0.0
 11
30.5828068598226
 21
66.908009671215197
 31
0.0
  0
LINE
  5
295C
  8
0
  6
CONTINUOUS
 62
     7
 10
30.5828068598226
 20
66.908009671215197
 30
0.0
 11
30.606171982195239
 21
66.740648356845654
 31
0.0
  0
LINE
  5
295D
  8
0
  6
CONTINUOUS
 62
     7
 10
30.606171982195239
 20
66.740648356845654
 30
0.0
 11
30.63017733394344
 21
66.58422520626462
 31
0.0
  0
LINE
  5
295E
  8
0
  6
CONTINUOUS
 62
     7
 10
30.63017733394344
 20
66.58422520626462
 30
0.0
 11
30.654587070014969
 21
66.440038459178794
 31
0.0
  0
LINE
  5
295F
  8
0
  6
CONTINUOUS
 62
     7
 10
30.654587070014969
 20
66.440038459178794
 30
0.0
 11
30.67914246015275
 21
66.309052977400796
 31
0.0
  0
LINE
  5
2960
  8
0
  6
CONTINUOUS
 62
     7
 10
30.67914246015275
 20
66.309052977400796
 30
0.0
 11
30.69138906585005
 21
66.248713771923718
 31
0.0
  0
LINE
  5
2961
  8
0
  6
CONTINUOUS
 62
     7
 10
30.69138906585005
 20
66.248713771923718
 30
0.0
 11
30.703566867136718
 21
66.191875470626627
 31
0.0
  0
LINE
  5
2962
  8
0
  6
CONTINUOUS
 62
     7
 10
30.703566867136718
 20
66.191875470626627
 30
0.0
 11
30.727849541135051
 21
66.087616656529889
 31
0.0
  0
LINE
  5
2963
  8
0
  6
CONTINUOUS
 62
     7
 10
30.727849541135051
 20
66.087616656529889
 30
0.0
 11
30.753164613766302
 21
65.991273262883681
 31
0.0
  0
LINE
  5
2964
  8
0
  6
CONTINUOUS
 62
     7
 10
30.753164613766302
 20
65.991273262883681
 30
0.0
 11
30.766214040400541
 21
65.946348744997664
 31
0.0
  0
LINE
  5
297F
  8
0
  6
CONTINUOUS
 62
     7
 10
29.259246829391369
 20
77.639426056498735
 30
0.0
 11
29.303513479031121
 21
77.645319982497284
 31
0.0
  0
LINE
  5
2980
  8
0
  6
CONTINUOUS
 62
     7
 10
29.303513479031121
 20
77.645319982497284
 30
0.0
 11
29.391217146286579
 21
77.657507623790053
 31
0.0
  0
LINE
  5
2981
  8
0
  6
CONTINUOUS
 62
     7
 10
29.391217146286579
 20
77.657507623790053
 30
0.0
 11
29.47770206653334
 21
77.670231799885585
 31
0.0
  0
LINE
  5
2982
  8
0
  6
CONTINUOUS
 62
     7
 10
29.47770206653334
 20
77.670231799885585
 30
0.0
 11
29.520446428639389
 21
77.676796036498743
 31
0.0
  0
LINE
  5
2983
  8
0
  6
CONTINUOUS
 62
     7
 10
29.520446428639389
 20
77.676796036498743
 30
0.0
 11
29.562837462196001
 21
77.683495341978343
 31
0.0
  0
LINE
  5
2984
  8
0
  6
CONTINUOUS
 62
     7
 10
29.562837462196001
 20
77.683495341978343
 30
0.0
 11
29.646497928438212
 21
77.697299448520425
 31
0.0
  0
LINE
  5
2985
  8
0
  6
CONTINUOUS
 62
     7
 10
29.646497928438212
 20
77.697299448520425
 30
0.0
 11
29.728564240901878
 21
77.711643646851741
 31
0.0
  0
LINE
  5
2986
  8
0
  6
CONTINUOUS
 62
     7
 10
29.728564240901878
 20
77.711643646851741
 30
0.0
 11
29.808924076618581
 21
77.726525771621326
 31
0.0
  0
LINE
  5
2987
  8
0
  6
CONTINUOUS
 62
     7
 10
29.808924076618581
 20
77.726525771621326
 30
0.0
 11
29.88747266484933
 21
77.741941965542281
 31
0.0
  0
LINE
  5
2988
  8
0
  6
CONTINUOUS
 62
     7
 10
29.88747266484933
 20
77.741941965542281
 30
0.0
 11
29.964121597972909
 21
77.757888469038022
 31
0.0
  0
LINE
  5
2989
  8
0
  6
CONTINUOUS
 62
     7
 10
29.964121597972909
 20
77.757888469038022
 30
0.0
 11
30.001709618440799
 21
77.766059349531062
 31
0.0
  0
LINE
  5
298A
  8
0
  6
CONTINUOUS
 62
     7
 10
30.001709618440799
 20
77.766059349531062
 30
0.0
 11
30.03879212651773
 21
77.774360570539244
 31
0.0
  0
LINE
  5
298B
  8
0
  6
CONTINUOUS
 62
     7
 10
30.03879212651773
 20
77.774360570539244
 30
0.0
 11
30.1113991929777
 21
77.791348883541488
 31
0.0
  0
LINE
  5
298C
  8
0
  6
CONTINUOUS
 62
     7
 10
30.1113991929777
 20
77.791348883541488
 30
0.0
 11
30.181864211400551
 21
77.808841605263126
 31
0.0
  0
LINE
  5
298D
  8
0
  6
CONTINUOUS
 62
     7
 10
30.181864211400551
 20
77.808841605263126
 30
0.0
 11
30.25011583785491
 21
77.826824533397968
 31
0.0
  0
LINE
  5
298E
  8
0
  6
CONTINUOUS
 62
     7
 10
30.25011583785491
 20
77.826824533397968
 30
0.0
 11
30.316090554491751
 21
77.845281089462844
 31
0.0
  0
LINE
  5
298F
  8
0
  6
CONTINUOUS
 62
     7
 10
30.316090554491751
 20
77.845281089462844
 30
0.0
 11
30.379733163028419
 21
77.864192370343432
 31
0.0
  0
LINE
  5
2990
  8
0
  6
CONTINUOUS
 62
     7
 10
30.379733163028419
 20
77.864192370343432
 30
0.0
 11
30.410665038145648
 21
77.87381200446481
 31
0.0
  0
LINE
  5
2991
  8
0
  6
CONTINUOUS
 62
     7
 10
30.410665038145648
 20
77.87381200446481
 30
0.0
 11
30.44099701445376
 21
77.883537173754775
 31
0.0
  0
LINE
  5
2992
  8
0
  6
CONTINUOUS
 62
     7
 10
30.44099701445376
 20
77.883537173754775
 30
0.0
 11
30.49984295311058
 21
77.903291620733967
 31
0.0
  0
LINE
  5
2993
  8
0
  6
CONTINUOUS
 62
     7
 10
30.49984295311058
 20
77.903291620733967
 30
0.0
 11
30.556238748983219
 21
77.923428839544755
 31
0.0
  0
LINE
  5
2994
  8
0
  6
CONTINUOUS
 62
     7
 10
30.556238748983219
 20
77.923428839544755
 30
0.0
 11
30.583509794292301
 21
77.933631779227099
 31
0.0
  0
LINE
  5
2995
  8
0
  6
CONTINUOUS
 62
     7
 10
31.274188042907038
 20
64.180153592049379
 30
0.0
 11
31.272528667850992
 21
64.138302796534944
 31
0.0
  0
LINE
  5
2996
  8
0
  6
CONTINUOUS
 62
     7
 10
31.272528667850992
 20
64.138302796534944
 30
0.0
 11
31.25920929685552
 21
64.055380463724688
 31
0.0
  0
LINE
  5
2997
  8
0
  6
CONTINUOUS
 62
     7
 10
31.25920929685552
 20
64.055380463724688
 30
0.0
 11
31.232572643105811
 21
63.97401594521898
 31
0.0
  0
LINE
  5
2998
  8
0
  6
CONTINUOUS
 62
     7
 10
31.232572643105811
 20
63.97401594521898
 30
0.0
 11
31.21432233270767
 21
63.934120530073827
 31
0.0
  0
LINE
  5
2999
  8
0
  6
CONTINUOUS
 62
     7
 10
31.21432233270767
 20
63.934120530073827
 30
0.0
 11
31.192848464210069
 21
63.894860064426481
 31
0.0
  0
LINE
  5
299A
  8
0
  6
CONTINUOUS
 62
     7
 10
31.192848464210069
 20
63.894860064426481
 30
0.0
 11
31.140515546355459
 21
63.818568404878881
 31
0.0
  0
LINE
  5
299B
  8
0
  6
CONTINUOUS
 62
     7
 10
31.140515546355459
 20
63.818568404878881
 30
0.0
 11
31.076295601675099
 21
63.745771235195939
 31
0.0
  0
LINE
  5
299C
  8
0
  6
CONTINUOUS
 62
     7
 10
31.076295601675099
 20
63.745771235195939
 30
0.0
 11
31.001159692649431
 21
63.677068930558072
 31
0.0
  0
LINE
  5
299D
  8
0
  6
CONTINUOUS
 62
     7
 10
31.001159692649431
 20
63.677068930558072
 30
0.0
 11
30.9158793547399
 21
63.612701644820248
 31
0.0
  0
LINE
  5
299E
  8
0
  6
CONTINUOUS
 62
     7
 10
30.9158793547399
 20
63.612701644820248
 30
0.0
 11
30.817281693594708
 21
63.550608933196273
 31
0.0
  0
LINE
  5
299F
  8
0
  6
CONTINUOUS
 62
     7
 10
30.817281693594708
 20
63.550608933196273
 30
0.0
 11
30.762617498514459
 21
63.520510906400617
 31
0.0
  0
LINE
  5
29A0
  8
0
  6
CONTINUOUS
 62
     7
 10
30.762617498514459
 20
63.520510906400617
 30
0.0
 11
30.70438251668136
 21
63.491231891066448
 31
0.0
  0
LINE
  5
29A1
  8
0
  6
CONTINUOUS
 62
     7
 10
30.70438251668136
 20
63.491231891066448
 30
0.0
 11
30.57732052334492
 21
63.435671621935121
 31
0.0
  0
LINE
  5
29A2
  8
0
  6
CONTINUOUS
 62
     7
 10
30.57732052334492
 20
63.435671621935121
 30
0.0
 11
30.43651063262379
 21
63.384966787932299
 31
0.0
  0
LINE
  5
29A3
  8
0
  6
CONTINUOUS
 62
     7
 10
30.43651063262379
 20
63.384966787932299
 30
0.0
 11
30.282661910832282
 21
63.340069153188587
 31
0.0
  0
LINE
  5
29A4
  8
0
  6
CONTINUOUS
 62
     7
 10
30.282661910832282
 20
63.340069153188587
 30
0.0
 11
30.11670114637289
 21
63.301786906333
 31
0.0
  0
LINE
  5
29A5
  8
0
  6
CONTINUOUS
 62
     7
 10
30.11670114637289
 20
63.301786906333
 30
0.0
 11
29.93981470493145
 21
63.27076691170636
 31
0.0
  0
LINE
  5
29A6
  8
0
  6
CONTINUOUS
 62
     7
 10
29.93981470493145
 20
63.27076691170636
 30
0.0
 11
29.847746031284458
 21
63.258132406901282
 31
0.0
  0
LINE
  5
29A7
  8
0
  6
CONTINUOUS
 62
     7
 10
29.847746031284458
 20
63.258132406901282
 30
0.0
 11
29.753544386599479
 21
63.247465538626088
 31
0.0
  0
LINE
  5
29A8
  8
0
  6
CONTINUOUS
 62
     7
 10
29.753544386599479
 20
63.247465538626088
 30
0.0
 11
29.559683375643768
 21
63.232086609977891
 31
0.0
  0
LINE
  5
29A9
  8
0
  6
CONTINUOUS
 62
     7
 10
29.559683375643768
 20
63.232086609977891
 30
0.0
 11
29.360296196487329
 21
63.224560999337299
 31
0.0
  0
LINE
  5
29AA
  8
0
  6
CONTINUOUS
 62
     7
 10
29.360296196487329
 20
63.224560999337299
 30
0.0
 11
29.259246829391369
 21
63.223643598521797
 31
0.0
  0
LINE
  5
29AB
  8
0
  6
CONTINUOUS
 62
     7
 10
31.248867133926531
 20
64.346038649028884
 30
0.0
 11
31.25653470367212
 21
64.318441826468415
 31
0.0
  0
LINE
  5
29AC
  8
0
  6
CONTINUOUS
 62
     7
 10
31.25653470367212
 20
64.318441826468415
 30
0.0
 11
31.267789423064421
 21
64.263118417472469
 31
0.0
  0
LINE
  5
29AD
  8
0
  6
CONTINUOUS
 62
     7
 10
31.267789423064421
 20
64.263118417472469
 30
0.0
 11
31.273473237721731
 21
64.207774809948873
 31
0.0
  0
LINE
  5
29AE
  8
0
  6
CONTINUOUS
 62
     7
 10
31.273473237721731
 20
64.207774809948873
 30
0.0
 11
31.274188042907038
 21
64.180153592049379
 31
0.0
  0
LINE
  5
2A13
  8
0
  6
CONTINUOUS
 62
     7
 10
30.391882123897659
 20
75.690442332572644
 30
0.0
 11
30.398243647405941
 21
75.808519575137481
 31
0.0
  0
LINE
  5
2A14
  8
0
  6
CONTINUOUS
 62
     7
 10
30.398243647405941
 20
75.808519575137481
 30
0.0
 11
30.411740211622149
 21
76.042293892582634
 31
0.0
  0
LINE
  5
2A43
  8
0
  6
CONTINUOUS
 62
     7
 10
36.685450036567516
 20
69.337204087078533
 30
0.0
 11
36.685326949708532
 21
69.306965446916522
 31
0.0
  0
LINE
  5
2A44
  8
0
  6
CONTINUOUS
 62
     7
 10
36.685326949708532
 20
69.306965446916522
 30
0.0
 11
36.68432546789569
 21
69.246704816499573
 31
0.0
  0
LINE
  5
2A45
  8
0
  6
CONTINUOUS
 62
     7
 10
36.68432546789569
 20
69.246704816499573
 30
0.0
 11
36.682277847080059
 21
69.1867282438605
 31
0.0
  0
LINE
  5
2A46
  8
0
  6
CONTINUOUS
 62
     7
 10
36.682277847080059
 20
69.1867282438605
 30
0.0
 11
36.680846234934677
 21
69.156844864470955
 31
0.0
  0
LINE
  5
2A47
  8
0
  6
CONTINUOUS
 62
     7
 10
36.685450036567516
 20
75.510083110060165
 30
0.0
 11
36.685353858233533
 21
75.483104916356154
 31
0.0
  0
LINE
  5
2A48
  8
0
  6
CONTINUOUS
 62
     7
 10
36.685353858233533
 20
75.483104916356154
 30
0.0
 11
36.684596364666589
 21
75.429012901200423
 31
0.0
  0
LINE
  5
2A49
  8
0
  6
CONTINUOUS
 62
     7
 10
36.684596364666589
 20
75.429012901200423
 30
0.0
 11
36.683110264973038
 21
75.374717922433945
 31
0.0
  0
LINE
  5
2A4A
  8
0
  6
CONTINUOUS
 62
     7
 10
36.683110264973038
 20
75.374717922433945
 30
0.0
 11
36.682100966038888
 21
75.347443908413638
 31
0.0
  0
LINE
  5
2A4B
  8
0
  6
CONTINUOUS
 62
     7
 10
36.682100966038888
 20
75.347443908413638
 30
0.0
 11
36.68091775905944
 21
75.320080865224227
 31
0.0
  0
LINE
  5
2A4C
  8
0
  6
CONTINUOUS
 62
     7
 10
36.68091775905944
 20
75.320080865224227
 30
0.0
 11
36.67804039828863
 21
75.265087078234174
 31
0.0
  0
LINE
  5
2A4D
  8
0
  6
CONTINUOUS
 62
     7
 10
36.67804039828863
 20
75.265087078234174
 30
0.0
 11
36.674499337708973
 21
75.209735316188571
 31
0.0
  0
LINE
  5
2A4E
  8
0
  6
CONTINUOUS
 62
     7
 10
36.674499337708973
 20
75.209735316188571
 30
0.0
 11
36.670315174461571
 21
75.154024316616756
 31
0.0
  0
LINE
  5
2A4F
  8
0
  6
CONTINUOUS
 62
     7
 10
36.670315174461571
 20
75.154024316616756
 30
0.0
 11
36.665508059935227
 21
75.097952812822285
 31
0.0
  0
LINE
  5
2A50
  8
0
  6
CONTINUOUS
 62
     7
 10
36.665508059935227
 20
75.097952812822285
 30
0.0
 11
36.66009780700341
 21
75.041519539527059
 31
0.0
  0
LINE
  5
2A51
  8
0
  6
CONTINUOUS
 62
     7
 10
36.66009780700341
 20
75.041519539527059
 30
0.0
 11
36.657172628066888
 21
75.013166844223932
 31
0.0
  0
LINE
  5
2A52
  8
0
  6
CONTINUOUS
 62
     7
 10
36.657172628066888
 20
75.013166844223932
 30
0.0
 11
36.654103993254658
 21
74.98472323205533
 31
0.0
  0
LINE
  5
2A53
  8
0
  6
CONTINUOUS
 62
     7
 10
36.654103993254658
 20
74.98472323205533
 30
0.0
 11
36.647546061171226
 21
74.927562619837957
 31
0.0
  0
LINE
  5
2A54
  8
0
  6
CONTINUOUS
 62
     7
 10
36.647546061171226
 20
74.927562619837957
 30
0.0
 11
36.640443416258108
 21
74.870036414936791
 31
0.0
  0
LINE
  5
2A5B
  8
0
  6
CONTINUOUS
 62
     7
 10
36.341626436219997
 20
73.223496161607272
 30
0.0
 11
36.311482049011829
 21
73.023120065351449
 31
0.0
  0
LINE
  5
2A5C
  8
0
  6
CONTINUOUS
 62
     7
 10
36.311482049011829
 20
73.023120065351449
 30
0.0
 11
36.304021387847691
 21
72.965673557003953
 31
0.0
  0
LINE
  5
2A5E
  8
0
  6
CONTINUOUS
 62
     7
 10
36.297149641308671
 20
72.908081530645575
 30
0.0
 11
36.293948922630193
 21
72.879228852079933
 31
0.0
  0
LINE
  5
2A60
  8
0
  6
CONTINUOUS
 62
     7
 10
36.290912487771749
 20
72.85033729362604
 30
0.0
 11
36.285354442529609
 21
72.792434281021826
 31
0.0
  0
LINE
  5
2A61
  8
0
  6
CONTINUOUS
 62
     7
 10
36.285354442529609
 20
72.792434281021826
 30
0.0
 11
36.28051849758743
 21
72.734371032975048
 31
0.0
  0
LINE
  5
2A62
  8
0
  6
CONTINUOUS
 62
     7
 10
36.28051849758743
 20
72.734371032975048
 30
0.0
 11
36.276451485122273
 21
72.676254195049552
 31
0.0
  0
LINE
  5
2A63
  8
0
  6
CONTINUOUS
 62
     7
 10
36.276451485122273
 20
72.676254195049552
 30
0.0
 11
36.27318507034483
 21
72.618083519220335
 31
0.0
  0
LINE
  5
2A64
  8
0
  6
CONTINUOUS
 62
     7
 10
36.27318507034483
 20
72.618083519220335
 30
0.0
 11
36.270743820931841
 21
72.559798079394383
 31
0.0
  0
LINE
  5
2A65
  8
0
  6
CONTINUOUS
 62
     7
 10
36.270743820931841
 20
72.559798079394383
 30
0.0
 11
36.269840559662669
 21
72.530622874336217
 31
0.0
  0
LINE
  5
2A66
  8
0
  6
CONTINUOUS
 62
     7
 10
36.269840559662669
 20
72.530622874336217
 30
0.0
 11
36.269152405076632
 21
72.501446948877003
 31
0.0
  0
LINE
  5
2A67
  8
0
  6
CONTINUOUS
 62
     7
 10
36.269152405076632
 20
72.501446948877003
 30
0.0
 11
36.268426299766759
 21
72.44306026295402
 31
0.0
  0
LINE
  5
2A68
  8
0
  6
CONTINUOUS
 62
     7
 10
36.268426299766759
 20
72.44306026295402
 30
0.0
 11
36.26857247416612
 21
72.384672747764483
 31
0.0
  0
LINE
  5
2A6A
  8
0
  6
CONTINUOUS
 62
     7
 10
36.268972643492987
 20
72.355475380851573
 30
0.0
 11
36.26958953070551
 21
72.326295615115313
 31
0.0
  0
LINE
  5
2A6C
  8
0
  6
CONTINUOUS
 62
     7
 10
36.271467690765917
 20
72.267962078614232
 30
0.0
 11
36.274189146839007
 21
72.209696306938611
 31
0.0
  0
LINE
  5
2A6D
  8
0
  6
CONTINUOUS
 62
     7
 10
36.274189146839007
 20
72.209696306938611
 30
0.0
 11
36.275857153325568
 21
72.180618306324362
 31
0.0
  0
LINE
  5
2A6E
  8
0
  6
CONTINUOUS
 62
     7
 10
36.275857153325568
 20
72.180618306324362
 30
0.0
 11
36.277725542583937
 21
72.15156803959681
 31
0.0
  0
LINE
  5
2A6F
  8
0
  6
CONTINUOUS
 62
     7
 10
36.277725542583937
 20
72.15156803959681
 30
0.0
 11
36.282049367702228
 21
72.093523369427814
 31
0.0
  0
LINE
  5
2A70
  8
0
  6
CONTINUOUS
 62
     7
 10
36.282049367702228
 20
72.093523369427814
 30
0.0
 11
36.287131266245211
 21
72.035509639477013
 31
0.0
  0
LINE
  5
2A71
  8
0
  6
CONTINUOUS
 62
     7
 10
36.287131266245211
 20
72.035509639477013
 30
0.0
 11
36.292933456886828
 21
71.977541176068158
 31
0.0
  0
LINE
  5
2A72
  8
0
  6
CONTINUOUS
 62
     7
 10
36.292933456886828
 20
71.977541176068158
 30
0.0
 11
36.299413156625967
 21
71.919641215429067
 31
0.0
  0
LINE
  5
2A74
  8
0
  6
CONTINUOUS
 62
     7
 10
36.306526470233678
 20
71.861814660151751
 30
0.0
 11
36.310306510183487
 21
71.832930339145889
 31
0.0
  0
LINE
  5
2A75
  8
0
  6
CONTINUOUS
 62
     7
 10
36.310306510183487
 20
71.832930339145889
 30
0.0
 11
36.314227731173162
 21
71.804066040319398
 31
0.0
  0
LINE
  5
2A76
  8
0
  6
CONTINUOUS
 62
     7
 10
36.314227731173162
 20
71.804066040319398
 30
0.0
 11
36.32247022752918
 21
71.746399547632961
 31
0.0
  0
LINE
  5
2A77
  8
0
  6
CONTINUOUS
 62
     7
 10
36.32247022752918
 20
71.746399547632961
 30
0.0
 11
36.331206835398717
 21
71.688819114212194
 31
0.0
  0
LINE
  5
2A78
  8
0
  6
CONTINUOUS
 62
     7
 10
36.331206835398717
 20
71.688819114212194
 30
0.0
 11
36.365003389246453
 21
71.488019811523174
 31
0.0
  0
LINE
  5
2A7B
  8
0
  6
CONTINUOUS
 62
     7
 10
36.497839310622787
 20
70.810036223523795
 30
0.0
 11
36.52358736328253
 21
70.675671082983115
 31
0.0
  0
LINE
  5
2A7C
  8
0
  6
CONTINUOUS
 62
     7
 10
36.561864057280673
 20
70.475925749366652
 30
0.0
 11
36.590893037772958
 21
70.310001055181829
 31
0.0
  0
LINE
  5
2A7D
  8
0
  6
CONTINUOUS
 62
     7
 10
36.590893037772958
 20
70.310001055181829
 30
0.0
 11
36.61712412564038
 21
70.144967209120452
 31
0.0
  0
LINE
  5
2A7E
  8
0
  6
CONTINUOUS
 62
     7
 10
36.61712412564038
 20
70.144967209120452
 30
0.0
 11
36.658858282473602
 21
69.817942680474772
 31
0.0
  0
LINE
  5
2A7F
  8
0
  6
CONTINUOUS
 62
     7
 10
36.658858282473602
 20
69.817942680474772
 30
0.0
 11
36.675057059025853
 21
69.629445965252771
 31
0.0
  0
LINE
  5
2A80
  8
0
  6
CONTINUOUS
 62
     7
 10
36.675057059025853
 20
69.629445965252771
 30
0.0
 11
36.678400086941991
 21
69.575952137947041
 31
0.0
  0
LINE
  5
2A81
  8
0
  6
CONTINUOUS
 62
     7
 10
36.678400086941991
 20
69.575952137947041
 30
0.0
 11
36.681127765137489
 21
69.522621015747376
 31
0.0
  0
LINE
  5
2A82
  8
0
  6
CONTINUOUS
 62
     7
 10
36.681127765137489
 20
69.522621015747376
 30
0.0
 11
36.682253237647899
 21
69.496008415101514
 31
0.0
  0
LINE
  5
2A83
  8
0
  6
CONTINUOUS
 62
     7
 10
36.682253237647899
 20
69.496008415101514
 30
0.0
 11
36.683215225555699
 21
69.469433487752227
 31
0.0
  0
LINE
  5
2A84
  8
0
  6
CONTINUOUS
 62
     7
 10
36.683215225555699
 20
69.469433487752227
 30
0.0
 11
36.684634778703888
 21
69.416405864600094
 31
0.0
  0
LINE
  5
2A85
  8
0
  6
CONTINUOUS
 62
     7
 10
36.684634778703888
 20
69.416405864600094
 30
0.0
 11
36.685358250670141
 21
69.363556392427398
 31
0.0
  0
LINE
  5
2A86
  8
0
  6
CONTINUOUS
 62
     7
 10
36.685358250670141
 20
69.363556392427398
 30
0.0
 11
36.685450036567516
 21
69.337204087078533
 31
0.0
  0
LINE
  5
2A87
  8
0
  6
CONTINUOUS
 62
     7
 10
36.680846234934677
 20
75.690442332572644
 30
0.0
 11
36.682277564729702
 21
75.660565483526327
 31
0.0
  0
LINE
  5
2A88
  8
0
  6
CONTINUOUS
 62
     7
 10
36.682277564729702
 20
75.660565483526327
 30
0.0
 11
36.684325291047088
 21
75.600589390867384
 31
0.0
  0
LINE
  5
2A89
  8
0
  6
CONTINUOUS
 62
     7
 10
36.684325291047088
 20
75.600589390867384
 30
0.0
 11
36.685326972529538
 21
75.540318960538798
 31
0.0
  0
LINE
  5
2A8A
  8
0
  6
CONTINUOUS
 62
     7
 10
36.685326972529538
 20
75.540318960538798
 30
0.0
 11
36.685450036567516
 21
75.510083110060165
 31
0.0
  0
LINE
  5
2A8B
  8
0
  6
CONTINUOUS
 62
     7
 10
36.306514318431823
 20
65.946348744997664
 30
0.0
 11
36.210231890450331
 21
65.626606674970589
 31
0.0
  0
LINE
  5
2A8C
  8
0
  6
CONTINUOUS
 62
     7
 10
36.210231890450331
 20
65.626606674970589
 30
0.0
 11
36.038773869764071
 21
65.057725560871859
 31
0.0
  0
LINE
  5
2A8D
  8
0
  6
CONTINUOUS
 62
     7
 10
36.038773869764071
 20
65.057725560871859
 30
0.0
 11
35.890636044902408
 21
64.566951654106546
 31
0.0
  0
LINE
  5
2A8E
  8
0
  6
CONTINUOUS
 62
     7
 10
35.890636044902408
 20
64.566951654106546
 30
0.0
 11
35.823861224905841
 21
64.346038649028884
 31
0.0
  0
LINE
  5
2A8F
  8
0
  6
CONTINUOUS
 62
     7
 10
36.680846234934677
 20
69.156844864470955
 30
0.0
 11
36.673969966715838
 21
69.029449562053429
 31
0.0
  0
LINE
  5
2A90
  8
0
  6
CONTINUOUS
 62
     7
 10
36.673969966715838
 20
69.029449562053429
 30
0.0
 11
36.659320657626381
 21
68.777526915700889
 31
0.0
  0
LINE
  5
2A91
  8
0
  6
CONTINUOUS
 62
     7
 10
36.659320657626381
 20
68.777526915700889
 30
0.0
 11
36.643576003562771
 21
68.531538879405574
 31
0.0
  0
LINE
  5
2A92
  8
0
  6
CONTINUOUS
 62
     7
 10
36.643576003562771
 20
68.531538879405574
 30
0.0
 11
36.635336763893321
 21
68.411485664512981
 31
0.0
  0
LINE
  5
2A93
  8
0
  6
CONTINUOUS
 62
     7
 10
36.635336763893321
 20
68.411485664512981
 30
0.0
 11
36.626880968374451
 21
68.293756020641055
 31
0.0
  0
LINE
  5
2A94
  8
0
  6
CONTINUOUS
 62
     7
 10
36.626880968374451
 20
68.293756020641055
 30
0.0
 11
36.609416980519569
 21
68.066280490488495
 31
0.0
  0
LINE
  5
2A95
  8
0
  6
CONTINUOUS
 62
     7
 10
36.609416980519569
 20
68.066280490488495
 30
0.0
 11
36.591397047180287
 21
67.850967626624566
 31
0.0
  0
LINE
  5
2A96
  8
0
  6
CONTINUOUS
 62
     7
 10
36.591397047180287
 20
67.850967626624566
 30
0.0
 11
36.573064203712732
 21
67.64941769390677
 31
0.0
  0
LINE
  5
2A97
  8
0
  6
CONTINUOUS
 62
     7
 10
36.573064203712732
 20
67.64941769390677
 30
0.0
 11
36.554154810391623
 21
67.45776141024767
 31
0.0
  0
LINE
  5
2A98
  8
0
  6
CONTINUOUS
 62
     7
 10
36.554154810391623
 20
67.45776141024767
 30
0.0
 11
36.533902863208262
 21
67.268714659395187
 31
0.0
  0
LINE
  5
2A99
  8
0
  6
CONTINUOUS
 62
     7
 10
36.533902863208262
 20
67.268714659395187
 30
0.0
 11
36.52331098417352
 21
67.17592531094121
 31
0.0
  0
LINE
  5
2A9A
  8
0
  6
CONTINUOUS
 62
     7
 10
36.52331098417352
 20
67.17592531094121
 30
0.0
 11
36.512435226066287
 21
67.084695640313299
 31
0.0
  0
LINE
  5
2A9B
  8
0
  6
CONTINUOUS
 62
     7
 10
36.512435226066287
 20
67.084695640313299
 30
0.0
 11
36.489921499009768
 21
66.908009671215197
 31
0.0
  0
LINE
  5
2A9C
  8
0
  6
CONTINUOUS
 62
     7
 10
36.489921499009768
 20
66.908009671215197
 30
0.0
 11
36.466556376637129
 21
66.740648356845654
 31
0.0
  0
LINE
  5
2A9D
  8
0
  6
CONTINUOUS
 62
     7
 10
36.466556376637129
 20
66.740648356845654
 30
0.0
 11
36.442551024888928
 21
66.58422520626462
 31
0.0
  0
LINE
  5
2A9E
  8
0
  6
CONTINUOUS
 62
     7
 10
36.442551024888928
 20
66.58422520626462
 30
0.0
 11
36.418141288817402
 21
66.440038459178794
 31
0.0
  0
LINE
  5
2A9F
  8
0
  6
CONTINUOUS
 62
     7
 10
36.418141288817402
 20
66.440038459178794
 30
0.0
 11
36.393585898679618
 21
66.309052977400782
 31
0.0
  0
LINE
  5
2AA0
  8
0
  6
CONTINUOUS
 62
     7
 10
36.393585898679618
 20
66.309052977400782
 30
0.0
 11
36.381339292982318
 21
66.248713771923718
 31
0.0
  0
LINE
  5
2AA1
  8
0
  6
CONTINUOUS
 62
     7
 10
36.381339292982318
 20
66.248713771923718
 30
0.0
 11
36.36916149169565
 21
66.191875470626627
 31
0.0
  0
LINE
  5
2AA2
  8
0
  6
CONTINUOUS
 62
     7
 10
36.36916149169565
 20
66.191875470626627
 30
0.0
 11
36.344878817697321
 21
66.087616656529903
 31
0.0
  0
LINE
  5
2AA3
  8
0
  6
CONTINUOUS
 62
     7
 10
36.344878817697321
 20
66.087616656529903
 30
0.0
 11
36.319563745066063
 21
65.991273262883681
 31
0.0
  0
LINE
  5
2AA4
  8
0
  6
CONTINUOUS
 62
     7
 10
36.319563745066063
 20
65.991273262883681
 30
0.0
 11
36.306514318431823
 21
65.946348744997664
 31
0.0
  0
LINE
  5
2AB9
  8
0
  6
CONTINUOUS
 62
     7
 10
36.660987969824824
 20
76.042296829942543
 30
0.0
 11
36.6744846565351
 21
75.808520570616651
 31
0.0
  0
LINE
  5
2ABA
  8
0
  6
CONTINUOUS
 62
     7
 10
36.6744846565351
 20
75.808520570616651
 30
0.0
 11
36.680846234934677
 21
75.690442332572644
 31
0.0
  0
LINE
  5
2AEB
  8
0
  6
CONTINUOUS
 62
     7
 10
35.798540315925322
 20
64.180153592049379
 30
0.0
 11
35.800199690981373
 21
64.13830279653493
 31
0.0
  0
LINE
  5
2AEC
  8
0
  6
CONTINUOUS
 62
     7
 10
35.800199690981373
 20
64.13830279653493
 30
0.0
 11
35.813519061976848
 21
64.055380463724688
 31
0.0
  0
LINE
  5
2AED
  8
0
  6
CONTINUOUS
 62
     7
 10
35.813519061976848
 20
64.055380463724688
 30
0.0
 11
35.840155715726553
 21
63.974015945218959
 31
0.0
  0
LINE
  5
2AEE
  8
0
  6
GESTRICHELT
 62
     2
 10
35.840155715726553
 20
63.974015945218959
 30
0.0
 11
35.858406026124698
 21
63.934120530073812
 31
0.0
  0
LINE
  5
2AEF
  8
0
  6
GESTRICHELT
 62
     2
 10
35.858406026124698
 20
63.934120530073812
 30
0.0
 11
35.879879894622292
 21
63.894860064426467
 31
0.0
  0
LINE
  5
2AF0
  8
0
  6
GESTRICHELT
 62
     2
 10
35.879879894622292
 20
63.894860064426467
 30
0.0
 11
35.932212812476912
 21
63.818568404878881
 31
0.0
  0
LINE
  5
2AF1
  8
0
  6
GESTRICHELT
 62
     2
 10
35.932212812476912
 20
63.818568404878881
 30
0.0
 11
35.996432757157272
 21
63.745771235195939
 31
0.0
  0
LINE
  5
2AF2
  8
0
  6
GESTRICHELT
 62
     2
 10
35.996432757157272
 20
63.745771235195939
 30
0.0
 11
36.071568666182941
 21
63.67706893055805
 31
0.0
  0
LINE
  5
2AF3
  8
0
  6
GESTRICHELT
 62
     2
 10
36.071568666182941
 20
63.67706893055805
 30
0.0
 11
36.156849004092471
 21
63.612701644820248
 31
0.0
  0
LINE
  5
2AF4
  8
0
  6
GESTRICHELT
 62
     2
 10
36.156849004092471
 20
63.612701644820248
 30
0.0
 11
36.255446665237663
 21
63.550608933196258
 31
0.0
  0
LINE
  5
2AF5
  8
0
  6
GESTRICHELT
 62
     2
 10
36.255446665237663
 20
63.550608933196258
 30
0.0
 11
36.310110860317913
 21
63.520510906400602
 31
0.0
  0
LINE
  5
2AF6
  8
0
  6
GESTRICHELT
 62
     2
 10
36.310110860317913
 20
63.520510906400602
 30
0.0
 11
36.368345842151001
 21
63.491231891066448
 31
0.0
  0
LINE
  5
2AF7
  8
0
  6
GESTRICHELT
 62
     2
 10
36.368345842151001
 20
63.491231891066448
 30
0.0
 11
36.495407835487441
 21
63.435671621935121
 31
0.0
  0
LINE
  5
2AF8
  8
0
  6
GESTRICHELT
 62
     2
 10
36.495407835487441
 20
63.435671621935121
 30
0.0
 11
36.636217726208571
 21
63.384966787932299
 31
0.0
  0
LINE
  5
2AF9
  8
0
  6
GESTRICHELT
 62
     2
 10
36.636217726208571
 20
63.384966787932299
 30
0.0
 11
36.79006644800009
 21
63.340069153188587
 31
0.0
  0
LINE
  5
2AFA
  8
0
  6
GESTRICHELT
 62
     2
 10
36.79006644800009
 20
63.340069153188587
 30
0.0
 11
36.956027212459468
 21
63.301786906333
 31
0.0
  0
LINE
  5
2AFB
  8
0
  6
GESTRICHELT
 62
     2
 10
36.956027212459468
 20
63.301786906333
 30
0.0
 11
37.132913653900907
 21
63.27076691170636
 31
0.0
  0
LINE
  5
2AFC
  8
0
  6
GESTRICHELT
 62
     2
 10
37.132913653900907
 20
63.27076691170636
 30
0.0
 11
37.224982327547913
 21
63.258132406901268
 31
0.0
  0
LINE
  5
2AFD
  8
0
  6
GESTRICHELT
 62
     2
 10
37.224982327547913
 20
63.258132406901268
 30
0.0
 11
37.319183970106373
 21
63.247465538842242
 31
0.0
  0
LINE
  5
2AFE
  8
0
  6
GESTRICHELT
 62
     2
 10
37.319183970106373
 20
63.247465538842242
 30
0.0
 11
37.513044934535969
 21
63.23208661279768
 31
0.0
  0
LINE
  5
2AFF
  8
0
  6
GESTRICHELT
 62
     2
 10
37.513044934535969
 20
63.23208661279768
 30
0.0
 11
37.712432053198818
 21
63.224561001338841
 31
0.0
  0
LINE
  5
2B00
  8
0
  6
GESTRICHELT
 62
     2
 10
37.712432053198818
 20
63.224561001338841
 30
0.0
 11
37.813481407267261
 21
63.223643598521797
 31
0.0
  0
LINE
  5
2B01
  8
0
  6
CONTINUOUS
 62
     7
 10
35.823861224905841
 20
64.346038649028884
 30
0.0
 11
35.816193655160248
 21
64.318441826468415
 31
0.0
  0
LINE
  5
2B02
  8
0
  6
CONTINUOUS
 62
     7
 10
35.816193655160248
 20
64.318441826468415
 30
0.0
 11
35.80493893576795
 21
64.263118417472469
 31
0.0
  0
LINE
  5
2B03
  8
0
  6
CONTINUOUS
 62
     7
 10
35.80493893576795
 20
64.263118417472469
 30
0.0
 11
35.79925512111064
 21
64.207774809948845
 31
0.0
  0
LINE
  5
2B04
  8
0
  6
CONTINUOUS
 62
     7
 10
35.79925512111064
 20
64.207774809948845
 30
0.0
 11
35.798540315925322
 21
64.180153592049379
 31
0.0
  0
LINE
  5
2B1F
  8
0
  6
CONTINUOUS
 62
     7
 10
35.798540315925322
 20
64.180153592049379
 30
0.0
 11
35.79925512111064
 21
64.207774809948873
 31
0.0
  0
LINE
  5
2B20
  8
0
  6
CONTINUOUS
 62
     7
 10
35.79925512111064
 20
64.207774809948873
 30
0.0
 11
35.80493893576795
 21
64.263118417472469
 31
0.0
  0
LINE
  5
2B21
  8
0
  6
CONTINUOUS
 62
     7
 10
35.80493893576795
 20
64.263118417472469
 30
0.0
 11
35.816193655160284
 21
64.318441826468415
 31
0.0
  0
LINE
  5
2B22
  8
0
  6
CONTINUOUS
 62
     7
 10
35.816193655160284
 20
64.318441826468415
 30
0.0
 11
35.823861224905841
 21
64.346038649028884
 31
0.0
  0
LINE
  5
2B23
  8
0
  6
CONTINUOUS
 62
     7
 10
37.813481426108581
 20
63.223643598521797
 30
0.0
 11
37.71243207003107
 21
63.224561001030168
 31
0.0
  0
LINE
  5
2B24
  8
0
  6
CONTINUOUS
 62
     7
 10
37.71243207003107
 20
63.224561001030168
 30
0.0
 11
37.513044942039073
 21
63.232086612362821
 31
0.0
  0
LINE
  5
2B25
  8
0
  6
CONTINUOUS
 62
     7
 10
37.513044942039073
 20
63.232086612362821
 30
0.0
 11
37.319183970434288
 21
63.24746553880891
 31
0.0
  0
LINE
  5
2B26
  8
0
  6
CONTINUOUS
 62
     7
 10
37.319183970434288
 20
63.24746553880891
 30
0.0
 11
37.224982327547913
 21
63.258132406901268
 31
0.0
  0
LINE
  5
2B27
  8
0
  6
CONTINUOUS
 62
     7
 10
37.224982327547913
 20
63.258132406901268
 30
0.0
 11
37.132913653900907
 21
63.27076691170636
 31
0.0
  0
LINE
  5
2B28
  8
0
  6
CONTINUOUS
 62
     7
 10
37.132913653900907
 20
63.27076691170636
 30
0.0
 11
36.95602721245951
 21
63.301786906333
 31
0.0
  0
LINE
  5
2B29
  8
0
  6
CONTINUOUS
 62
     7
 10
36.95602721245951
 20
63.301786906333
 30
0.0
 11
36.790066448000118
 21
63.340069153188587
 31
0.0
  0
LINE
  5
2B2A
  8
0
  6
CONTINUOUS
 62
     7
 10
36.790066448000118
 20
63.340069153188587
 30
0.0
 11
36.636217726208571
 21
63.384966787932299
 31
0.0
  0
LINE
  5
2B2B
  8
0
  6
CONTINUOUS
 62
     7
 10
36.636217726208571
 20
63.384966787932299
 30
0.0
 11
36.495407835487441
 21
63.435671621935121
 31
0.0
  0
LINE
  5
2B2C
  8
0
  6
CONTINUOUS
 62
     7
 10
36.495407835487441
 20
63.435671621935121
 30
0.0
 11
36.368345842151001
 21
63.491231891066448
 31
0.0
  0
LINE
  5
2B2D
  8
0
  6
CONTINUOUS
 62
     7
 10
36.368345842151001
 20
63.491231891066448
 30
0.0
 11
36.310110860317913
 21
63.520510906400617
 31
0.0
  0
LINE
  5
2B2E
  8
0
  6
CONTINUOUS
 62
     7
 10
36.310110860317913
 20
63.520510906400617
 30
0.0
 11
36.255446665237663
 21
63.550608933196258
 31
0.0
  0
LINE
  5
2B2F
  8
0
  6
CONTINUOUS
 62
     7
 10
36.255446665237663
 20
63.550608933196258
 30
0.0
 11
36.156849004092471
 21
63.612701644820248
 31
0.0
  0
LINE
  5
2B30
  8
0
  6
CONTINUOUS
 62
     7
 10
36.156849004092471
 20
63.612701644820248
 30
0.0
 11
36.071568666182941
 21
63.677068930558072
 31
0.0
  0
LINE
  5
2B31
  8
0
  6
CONTINUOUS
 62
     7
 10
36.071568666182941
 20
63.677068930558072
 30
0.0
 11
35.996432757157272
 21
63.745771235195939
 31
0.0
  0
LINE
  5
2B32
  8
0
  6
CONTINUOUS
 62
     7
 10
35.996432757157272
 20
63.745771235195939
 30
0.0
 11
35.932212812476912
 21
63.818568404878881
 31
0.0
  0
LINE
  5
2B33
  8
0
  6
CONTINUOUS
 62
     7
 10
35.932212812476912
 20
63.818568404878881
 30
0.0
 11
35.879879894622292
 21
63.894860064426481
 31
0.0
  0
LINE
  5
2B34
  8
0
  6
CONTINUOUS
 62
     7
 10
35.879879894622292
 20
63.894860064426481
 30
0.0
 11
35.858406026124698
 21
63.934120530073827
 31
0.0
  0
LINE
  5
2B35
  8
0
  6
CONTINUOUS
 62
     7
 10
35.858406026124698
 20
63.934120530073827
 30
0.0
 11
35.840155715726553
 21
63.97401594521898
 31
0.0
  0
LINE
  5
2B36
  8
0
  6
CONTINUOUS
 62
     7
 10
35.840155715726553
 20
63.97401594521898
 30
0.0
 11
35.813519061976848
 21
64.055380463724688
 31
0.0
  0
LINE
  5
2B37
  8
0
  6
CONTINUOUS
 62
     7
 10
35.813519061976848
 20
64.055380463724688
 30
0.0
 11
35.800199690981373
 21
64.138302796534944
 31
0.0
  0
LINE
  5
2B38
  8
0
  6
CONTINUOUS
 62
     7
 10
35.800199690981373
 20
64.138302796534944
 30
0.0
 11
35.798540315925322
 21
64.180153592049379
 31
0.0
  0
LINE
  5
2B39
  8
0
  6
CONTINUOUS
 62
     7
 10
36.489218563826967
 20
77.933631779498086
 30
0.0
 11
36.516489607356682
 21
77.923428840462861
 31
0.0
  0
LINE
  5
2B3A
  8
0
  6
CONTINUOUS
 62
     7
 10
36.516489607356682
 20
77.923428840462861
 30
0.0
 11
36.572885399434597
 21
77.903291622910643
 31
0.0
  0
LINE
  5
2B3B
  8
0
  6
CONTINUOUS
 62
     7
 10
36.572885399434597
 20
77.903291622910643
 30
0.0
 11
36.631731333986671
 21
77.883537177138066
 31
0.0
  0
LINE
  5
2B3C
  8
0
  6
CONTINUOUS
 62
     7
 10
36.631731333986671
 20
77.883537177138066
 30
0.0
 11
36.66206330812836
 21
77.873812008430363
 31
0.0
  0
LINE
  5
2B3D
  8
0
  6
CONTINUOUS
 62
     7
 10
36.66206330812836
 20
77.873812008430363
 30
0.0
 11
36.692995181004449
 21
77.864192374876552
 31
0.0
  0
LINE
  5
2B3E
  8
0
  6
CONTINUOUS
 62
     7
 10
36.692995181004449
 20
77.864192374876552
 30
0.0
 11
36.756637784839647
 21
77.845281095085113
 31
0.0
  0
LINE
  5
2B3F
  8
0
  6
CONTINUOUS
 62
     7
 10
36.756637784839647
 20
77.845281095085113
 30
0.0
 11
36.822612496492297
 21
77.826824540045251
 31
0.0
  0
LINE
  5
2B40
  8
0
  6
CONTINUOUS
 62
     7
 10
36.822612496492297
 20
77.826824540045251
 30
0.0
 11
36.890864117693212
 21
77.808841612868406
 31
0.0
  0
LINE
  5
2B41
  8
0
  6
CONTINUOUS
 62
     7
 10
36.890864117693212
 20
77.808841612868406
 30
0.0
 11
36.961329130608647
 21
77.791348892035529
 31
0.0
  0
LINE
  5
2B42
  8
0
  6
CONTINUOUS
 62
     7
 10
36.961329130608647
 20
77.791348892035529
 30
0.0
 11
37.033936191324472
 21
77.774360579851191
 31
0.0
  0
LINE
  5
2B43
  8
0
  6
CONTINUOUS
 62
     7
 10
37.033936191324472
 20
77.774360579851191
 30
0.0
 11
37.071018696446352
 21
77.766059359225025
 31
0.0
  0
LINE
  5
2B44
  8
0
  6
CONTINUOUS
 62
     7
 10
37.071018696446352
 20
77.766059359225025
 30
0.0
 11
37.108606713907108
 21
77.757888479095982
 31
0.0
  0
LINE
  5
2B45
  8
0
  6
CONTINUOUS
 62
     7
 10
37.108606713907108
 20
77.757888479095982
 30
0.0
 11
37.18525564086903
 21
77.741941976274262
 31
0.0
  0
LINE
  5
2B46
  8
0
  6
CONTINUOUS
 62
     7
 10
37.18525564086903
 20
77.741941976274262
 30
0.0
 11
37.263804222746558
 21
77.72652578295785
 31
0.0
  0
LINE
  5
2B47
  8
0
  6
CONTINUOUS
 62
     7
 10
37.263804222746558
 20
77.72652578295785
 30
0.0
 11
37.344164051954067
 21
77.71164365872103
 31
0.0
  0
LINE
  5
2B48
  8
0
  6
CONTINUOUS
 62
     7
 10
37.344164051954067
 20
77.71164365872103
 30
0.0
 11
37.426230357778678
 21
77.697299460851326
 31
0.0
  0
LINE
  5
2B49
  8
0
  6
CONTINUOUS
 62
     7
 10
37.426230357778678
 20
77.697299460851326
 30
0.0
 11
37.509890817279683
 21
77.683495354700653
 31
0.0
  0
LINE
  5
2B4A
  8
0
  6
CONTINUOUS
 62
     7
 10
37.509890817279683
 20
77.683495354700653
 30
0.0
 11
37.552281847436319
 21
77.676796049390859
 31
0.0
  0
LINE
  5
2B4B
  8
0
  6
CONTINUOUS
 62
     7
 10
37.552281847436319
 20
77.676796049390859
 30
0.0
 11
37.595026206127777
 21
77.670231812930538
 31
0.0
  0
LINE
  5
2B4C
  8
0
  6
CONTINUOUS
 62
     7
 10
37.595026206127777
 20
77.670231812930538
 30
0.0
 11
37.681511119516223
 21
77.65750763709076
 31
0.0
  0
LINE
  5
2B4D
  8
0
  6
CONTINUOUS
 62
     7
 10
37.681511119516223
 20
77.65750763709076
 30
0.0
 11
37.769214779899841
 21
77.645319995989084
 31
0.0
  0
LINE
  5
2B4E
  8
0
  6
CONTINUOUS
 62
     7
 10
37.769214779899841
 20
77.645319995989084
 30
0.0
 11
37.813481426108581
 21
77.639426070062513
 31
0.0
  0
LINE
  5
2BAB
  8
0
  6
CONTINUOUS
 62
     7
 10
37.813481426108581
 20
77.639426070062513
 30
0.0
 11
37.938736761037461
 21
77.622748145368831
 31
0.0
  0
LINE
  5
2BAC
  8
0
  6
CONTINUOUS
 62
     7
 10
37.938736761037461
 20
77.622748145368831
 30
0.0
 11
38.179058338777061
 21
77.589426753967913
 31
0.0
  0
LINE
  5
2BAD
  8
0
  6
CONTINUOUS
 62
     7
 10
38.179058338777061
 20
77.589426753967913
 30
0.0
 11
38.405921306242533
 21
77.556380373521975
 31
0.0
  0
LINE
  5
2BAE
  8
0
  6
CONTINUOUS
 62
     7
 10
38.405921306242533
 20
77.556380373521975
 30
0.0
 11
38.51602428720841
 21
77.539786500725995
 31
0.0
  0
LINE
  5
2BAF
  8
0
  6
CONTINUOUS
 62
     7
 10
38.51602428720841
 20
77.539786500725995
 30
0.0
 11
38.624073140170452
 21
77.523149986508258
 31
0.0
  0
LINE
  5
2BB0
  8
0
  6
CONTINUOUS
 62
     7
 10
38.624073140170452
 20
77.523149986508258
 30
0.0
 11
38.833250893583227
 21
77.4899528676751
 31
0.0
  0
LINE
  5
2BB1
  8
0
  6
CONTINUOUS
 62
     7
 10
38.833250893583227
 20
77.4899528676751
 30
0.0
 11
39.032023162208162
 21
77.457200891765524
 31
0.0
  0
LINE
  5
2BB2
  8
0
  6
CONTINUOUS
 62
     7
 10
39.032023162208162
 20
77.457200891765524
 30
0.0
 11
39.21910768711502
 21
77.425304101311085
 31
0.0
  0
LINE
  5
2BB3
  8
0
  6
CONTINUOUS
 62
     7
 10
39.21910768711502
 20
77.425304101311085
 30
0.0
 11
39.393375158420163
 21
77.394661317491924
 31
0.0
  0
LINE
  5
2BB4
  8
0
  6
CONTINUOUS
 62
     7
 10
39.393375158420163
 20
77.394661317491924
 30
0.0
 11
39.553823987994832
 21
77.365656402896761
 31
0.0
  0
LINE
  5
2BB5
  8
0
  6
CONTINUOUS
 62
     7
 10
39.553823987994832
 20
77.365656402896761
 30
0.0
 11
39.628590040616501
 21
77.35188191856497
 31
0.0
  0
LINE
  5
2BB6
  8
0
  6
CONTINUOUS
 62
     7
 10
39.628590040616501
 20
77.35188191856497
 30
0.0
 11
39.699588576982478
 21
77.338649528661364
 31
0.0
  0
LINE
  5
2BB7
  8
0
  6
CONTINUOUS
 62
     7
 10
39.699588576982478
 20
77.338649528661364
 30
0.0
 11
39.829968689914672
 21
77.313964813480965
 31
0.0
  0
LINE
  5
2BB8
  8
0
  6
CONTINUOUS
 62
     7
 10
39.829968689914672
 20
77.313964813480965
 30
0.0
 11
39.944471275768542
 21
77.291875705523381
 31
0.0
  0
LINE
  5
2BB9
  8
0
  6
CONTINUOUS
 62
     7
 10
39.944471275768542
 20
77.291875705523381
 30
0.0
 11
40.042661681340682
 21
77.272628330649582
 31
0.0
  0
LINE
  5
2BBA
  8
0
  6
CONTINUOUS
 62
     7
 10
40.042661681340682
 20
77.272628330649582
 30
0.0
 11
40.124242700897518
 21
77.256422857097533
 31
0.0
  0
LINE
  5
2BBB
  8
0
  6
CONTINUOUS
 62
     7
 10
40.124242700897518
 20
77.256422857097533
 30
0.0
 11
40.189085648186158
 21
77.243404015689279
 31
0.0
  0
LINE
  5
2BBC
  8
0
  6
CONTINUOUS
 62
     7
 10
40.189085648186158
 20
77.243404015689279
 30
0.0
 11
40.215237110068749
 21
77.238118839564223
 31
0.0
  0
LINE
  5
2BBD
  8
0
  6
CONTINUOUS
 62
     7
 10
40.215237110068749
 20
77.238118839564223
 30
0.0
 11
40.237232642874943
 21
77.233658176206504
 31
0.0
  0
LINE
  5
2BBE
  8
0
  6
CONTINUOUS
 62
     7
 10
40.237232642874943
 20
77.233658176206504
 30
0.0
 11
40.26889209932915
 21
77.227213000767634
 31
0.0
  0
LINE
  5
2BBF
  8
0
  6
CONTINUOUS
 62
     7
 10
40.26889209932915
 20
77.227213000767634
 30
0.0
 11
40.28445068148141
 21
77.224034942670215
 31
0.0
  0
LINE
  5
2BC0
  8
0
  6
CONTINUOUS
 62
     7
 10
40.28445068148141
 20
77.224034942670215
 30
0.0
 11
40.286364179416182
 21
77.223643598521804
 31
0.0
  0
LINE
  5
2BC1
  8
0
  6
CONTINUOUS
 62
     7
 10
26.786364179416179
 20
77.223643598521804
 30
0.0
 11
26.788277677264031
 21
77.224034942652452
 31
0.0
  0
LINE
  5
2BC2
  8
0
  6
CONTINUOUS
 62
     7
 10
26.788277677264031
 20
77.224034942652452
 30
0.0
 11
26.803836258704958
 21
77.227213000604763
 31
0.0
  0
LINE
  5
2BC3
  8
0
  6
CONTINUOUS
 62
     7
 10
26.803836258704958
 20
77.227213000604763
 30
0.0
 11
26.835495713703889
 21
77.233658175748772
 31
0.0
  0
LINE
  5
2BC4
  8
0
  6
CONTINUOUS
 62
     7
 10
26.835495713703889
 20
77.233658175748772
 30
0.0
 11
26.857491245497268
 21
77.238118838902864
 31
0.0
  0
LINE
  5
2BC5
  8
0
  6
CONTINUOUS
 62
     7
 10
26.857491245497268
 20
77.238118838902864
 30
0.0
 11
26.883642706175578
 21
77.243404014787473
 31
0.0
  0
LINE
  5
2BC6
  8
0
  6
CONTINUOUS
 62
     7
 10
26.883642706175578
 20
77.243404014787473
 30
0.0
 11
26.948485650482642
 21
77.256422855608349
 31
0.0
  0
LINE
  5
2BC7
  8
0
  6
CONTINUOUS
 62
     7
 10
26.948485650482642
 20
77.256422855608349
 30
0.0
 11
27.030066666305689
 21
77.272628328440845
 31
0.0
  0
LINE
  5
2BC8
  8
0
  6
CONTINUOUS
 62
     7
 10
27.030066666305689
 20
77.272628328440845
 30
0.0
 11
27.128257067420041
 21
77.291875702479302
 31
0.0
  0
LINE
  5
2BC9
  8
0
  6
CONTINUOUS
 62
     7
 10
27.128257067420041
 20
77.291875702479302
 30
0.0
 11
27.242759648134271
 21
77.313964809506373
 31
0.0
  0
LINE
  5
2BCA
  8
0
  6
CONTINUOUS
 62
     7
 10
27.242759648134271
 20
77.313964809506373
 30
0.0
 11
27.373139755286271
 21
77.338649523682875
 31
0.0
  0
LINE
  5
2BCB
  8
0
  6
CONTINUOUS
 62
     7
 10
27.373139755286271
 20
77.338649523682875
 30
0.0
 11
27.444138288538081
 21
77.351881913064716
 31
0.0
  0
LINE
  5
2BCC
  8
0
  6
CONTINUOUS
 62
     7
 10
27.444138288538081
 20
77.351881913064716
 30
0.0
 11
27.51890433791144
 21
77.365656396866825
 31
0.0
  0
LINE
  5
2BCD
  8
0
  6
CONTINUOUS
 62
     7
 10
27.51890433791144
 20
77.365656396866825
 30
0.0
 11
27.679353160629891
 21
77.394661310394383
 31
0.0
  0
LINE
  5
2BCE
  8
0
  6
CONTINUOUS
 62
     7
 10
27.679353160629891
 20
77.394661310394383
 30
0.0
 11
27.853620624676839
 21
77.42530409316069
 31
0.0
  0
LINE
  5
2BCF
  8
0
  6
CONTINUOUS
 62
     7
 10
27.853620624676839
 20
77.42530409316069
 30
0.0
 11
28.040705142022599
 21
77.457200882607594
 31
0.0
  0
LINE
  5
2BD0
  8
0
  6
CONTINUOUS
 62
     7
 10
28.040705142022599
 20
77.457200882607594
 30
0.0
 11
28.239477402898391
 21
77.489952857585649
 31
0.0
  0
LINE
  5
2BD1
  8
0
  6
CONTINUOUS
 62
     7
 10
28.239477402898391
 20
77.489952857585649
 30
0.0
 11
28.448655148507161
 21
77.523149975593213
 31
0.0
  0
LINE
  5
2BD2
  8
0
  6
CONTINUOUS
 62
     7
 10
28.448655148507161
 20
77.523149975593213
 30
0.0
 11
28.556703997590521
 21
77.539786489446385
 31
0.0
  0
LINE
  5
2BD3
  8
0
  6
CONTINUOUS
 62
     7
 10
28.556703997590521
 20
77.539786489446385
 30
0.0
 11
28.666806974717129
 21
77.556380361913881
 31
0.0
  0
LINE
  5
2BD4
  8
0
  6
CONTINUOUS
 62
     7
 10
28.666806974717129
 20
77.556380361913881
 30
0.0
 11
28.893669932972781
 21
77.589426741579175
 31
0.0
  0
LINE
  5
2BD5
  8
0
  6
CONTINUOUS
 62
     7
 10
28.893669932972781
 20
77.589426741579175
 30
0.0
 11
29.133991499958061
 21
77.622748132157099
 31
0.0
  0
LINE
  5
2BD6
  8
0
  6
CONTINUOUS
 62
     7
 10
29.133991499958061
 20
77.622748132157099
 30
0.0
 11
29.259246829391369
 21
77.639426056498735
 31
0.0
  0
LINE
  5
2BF8
  8
0
  6
CONTINUOUS
 62
     7
 10
36.557146805137393
 20
70.500542533228511
 30
0.0
 11
36.561864057280673
 21
70.475925749366652
 31
0.0
  0
TEXT
  5
2CB6
  8
0
 62
     3
 10
0.0
 20
0.0
 30
0.0
 40
10.0
  1
CWN40AX16
  7
STANDARD1
  0
ENDSEC
  0
EOF
