  0
SECTION
  2
HEADER
  9
$ACADVER
  1
AC1009
  9
$INSBASE
 10
0.0
 20
0.0
 30
0.0
  9
$EXTMIN
 10
0.0
 20
-2.960436562073669
 30
0.0
  9
$EXTMAX
 10
651.78430397978627
 20
483.66681654676239
 30
0.0
  9
$LIMMIN
 10
0.0
 20
0.0
  9
$LIMMAX
 10
750.0
 20
540.0
  9
$ORTHOMODE
 70
     1
  9
$REGENMODE
 70
     1
  9
$FILLMODE
 70
     1
  9
$QTEXTMODE
 70
     0
  9
$MIRRTEXT
 70
     0
  9
$DRAGMODE
 70
     2
  9
$LTSCALE
 40
20.0
  9
$OSMODE
 70
  3071
  9
$ATTMODE
 70
     1
  9
$TEXTSIZE
 40
3.0
  9
$TRACEWID
 40
0.05
  9
$TEXTSTYLE
  7
K80
  9
$CLAYER
  8
0
  9
$CELTYPE
  6
BYLAYER
  9
$CECOLOR
 62
   256
  9
$DIMSCALE
 40
2.0
  9
$DIMASZ
 40
3.0
  9
$DIMEXO
 40
2.0
  9
$DIMDLI
 40
0.3799999999999999
  9
$DIMRND
 40
0.0
  9
$DIMDLE
 40
0.0
  9
$DIMEXE
 40
2.0
  9
$DIMTP
 40
0.0
  9
$DIMTM
 40
0.0
  9
$DIMTXT
 40
3.2000000000000002
  9
$DIMCEN
 40
0.09
  9
$DIMTSZ
 40
0.0
  9
$DIMTOL
 70
     0
  9
$DIMLIM
 70
     0
  9
$DIMTIH
 70
     0
  9
$DIMTOH
 70
     0
  9
$DIMSE1
 70
     0
  9
$DIMSE2
 70
     0
  9
$DIMTAD
 70
     1
  9
$DIMZIN
 70
     0
  9
$DIMBLK
  1

  9
$DIMASO
 70
     1
  9
$DIMSHO
 70
     0
  9
$DIMPOST
  1

  9
$DIMAPOST
  1

  9
$DIMALT
 70
     0
  9
$DIMALTD
 70
     2
  9
$DIMALTF
 40
25.399999999999999
  9
$DIMLFAC
 40
1.0
  9
$DIMTOFL
 70
     0
  9
$DIMTVP
 40
1.6000000000000001
  9
$DIMTIX
 70
     1
  9
$DIMSOXD
 70
     0
  9
$DIMSAH
 70
     0
  9
$DIMBLK1
  1

  9
$DIMBLK2
  1

  9
$DIMSTYLE
  2
STANDARD
  9
$DIMCLRD
 70
     0
  9
$DIMCLRE
 70
     0
  9
$DIMCLRT
 70
     0
  9
$DIMTFAC
 40
1.0
  9
$DIMGAP
 40
0.09
  9
$LUNITS
 70
     2
  9
$LUPREC
 70
     4
  9
$SKETCHINC
 40
0.1
  9
$FILLETRAD
 40
0.5
  9
$AUNITS
 70
     0
  9
$AUPREC
 70
     0
  9
$MENU
  1
E:\r13\win\SUPPORT\ACAD
  9
$ELEVATION
 40
0.0
  9
$PELEVATION
 40
0.0
  9
$THICKNESS
 40
0.0
  9
$LIMCHECK
 70
     0
  9
$BLIPMODE
 70
     0
  9
$CHAMFERA
 40
0.0
  9
$CHAMFERB
 40
0.0
  9
$SKPOLY
 70
     0
  9
$TDCREATE
 40
2449840.598958334
  9
$TDUPDATE
 40
2456598.6016991092
  9
$TDINDWG
 40
0.0506135995
  9
$TDUSRTIMER
 40
0.0506135995
  9
$USRTIMER
 70
     1
  9
$ANGBASE
 50
0.0
  9
$ANGDIR
 70
     0
  9
$PDMODE
 70
     0
  9
$PDSIZE
 40
0.0
  9
$PLINEWID
 40
0.0
  9
$COORDS
 70
     1
  9
$SPLFRAME
 70
     0
  9
$SPLINETYPE
 70
     6
  9
$SPLINESEGS
 70
     8
  9
$ATTDIA
 70
     0
  9
$ATTREQ
 70
     1
  9
$HANDLING
 70
     1
  9
$HANDSEED
  5
861
  9
$SURFTAB1
 70
     6
  9
$SURFTAB2
 70
     6
  9
$SURFTYPE
 70
     6
  9
$SURFU
 70
     6
  9
$SURFV
 70
     6
  9
$UCSNAME
  2

  9
$UCSORG
 10
0.0
 20
0.0
 30
0.0
  9
$UCSXDIR
 10
1.0
 20
0.0
 30
0.0
  9
$UCSYDIR
 10
0.0
 20
1.0
 30
0.0
  9
$PUCSNAME
  2

  9
$PUCSORG
 10
0.0
 20
0.0
 30
0.0
  9
$PUCSXDIR
 10
1.0
 20
0.0
 30
0.0
  9
$PUCSYDIR
 10
0.0
 20
1.0
 30
0.0
  9
$USERI1
 70
     0
  9
$USERI2
 70
     1
  9
$USERI3
 70
     1
  9
$USERI4
 70
     0
  9
$USERI5
 70
     0
  9
$USERR1
 40
0.0
  9
$USERR2
 40
0.0
  9
$USERR3
 40
0.0
  9
$USERR4
 40
0.0
  9
$USERR5
 40
0.0
  9
$WORLDVIEW
 70
     1
  9
$SHADEDGE
 70
     3
  9
$SHADEDIF
 70
    70
  9
$TILEMODE
 70
     1
  9
$MAXACTVP
 70
    16
  9
$PLIMCHECK
 70
     0
  9
$PEXTMIN
 10
1.0000000000000000E+020
 20
1.0000000000000000E+020
 30
1.0000000000000000E+020
  9
$PEXTMAX
 10
-1.0000000000000000E+020
 20
-1.0000000000000000E+020
 30
-1.0000000000000000E+020
  9
$PLIMMIN
 10
0.0
 20
0.0
  9
$PLIMMAX
 10
12.0
 20
9.0
  9
$UNITMODE
 70
     0
  9
$VISRETAIN
 70
     0
  9
$PLINEGEN
 70
     0
  9
$PSLTSCALE
 70
     0
  0
ENDSEC
  0
SECTION
  2
TABLES
  0
TABLE
  2
VPORT
 70
     1
  0
VPORT
  2
*ACTIVE
 70
     0
 10
0.0
 20
0.0
 11
1.0
 21
1.0
 12
390.03402345615979
 22
268.50860658393782
 13
0.0
 23
0.0
 14
20.0
 24
20.0
 15
20.0
 25
20.0
 16
0.0
 26
0.0
 36
1.0
 17
0.0
 27
0.0
 37
0.0
 40
547.85258761088789
 41
1.831871345029239
 42
50.0
 43
0.0
 44
0.0
 50
0.0
 51
0.0
 71
     0
 72
   500
 73
     1
 74
     0
 75
     0
 76
     0
 77
     0
 78
     2
  0
ENDTAB
  0
TABLE
  2
LTYPE
 70
     4
  0
LTYPE
  2
CONTINUOUS
 70
     0
  3
Solid Line
 72
    65
 73
     0
 40
0.0
  0
LTYPE
  2
CENTER
 70
     0
  3
____ _ ____ _ ____ _ ____ _ ____ _ ____ _ ____
 72
    65
 73
     4
 40
2.0
 49
1.25
 49
-0.25
 49
0.25
 49
-0.25
  0
LTYPE
  2
HIDDEN
 70
     0
  3
_ _ _ _ _ _ _ _ _ _ _ _ _ _ _ _ _ _ _ _ _ _ _
 72
    65
 73
     2
 40
0.375
 49
0.25
 49
-0.125
  0
LTYPE
  2
PHANTOM2
 70
     0
  3
___ _ _ ___ _ _ ___ _ _ ___ _ _
 72
    65
 73
     6
 40
1.25
 49
0.625
 49
-0.125
 49
0.125
 49
-0.125
 49
0.125
 49
-0.125
  0
ENDTAB
  0
TABLE
  2
LAYER
 70
     5
  0
LAYER
  2
0
 70
     0
 62
     7
  6
CONTINUOUS
  0
LAYER
  2
1
 70
     0
 62
     1
  6
CENTER
  0
LAYER
  2
3
 70
     0
 62
     3
  6
CONTINUOUS
  0
LAYER
  2
2
 70
     0
 62
     2
  6
HIDDEN
  0
LAYER
  2
DEFPOINTS
 70
     0
 62
     7
  6
CONTINUOUS
  0
ENDTAB
  0
TABLE
  2
STYLE
 70
     4
  0
STYLE
  2
STANDARD
 70
     0
 40
0.0
 41
1.0
 50
0.0
 71
     0
 42
0.2
  3
romans.shx
  4

  0
STYLE
  2
K80
 70
     0
 40
0.0
 41
1.0
 50
0.0
 71
     0
 42
3.0
  3
romans.shx
  4

  0
STYLE
  2
06000
 70
     0
 40
0.0
 41
0.6
 50
0.0
 71
     0
 42
3.0
  3
simplex.shx
  4
bigfont.shx
  0
STYLE
  2
STANDARD1
 70
     0
 40
0.0
 41
1.0
 50
0.0
 71
     0
 42
3.0
  3
txt
  4

  0
ENDTAB
  0
TABLE
  2
VIEW
 70
     2
  0
VIEW
  2
ALL
 70
     0
 40
540.0
 10
441.98319327731087
 20
270.0
 41
0.0
 11
0.0
 21
0.0
 31
1.0
 12
0.0
 22
0.0
 32
0.0
 42
0.0
 43
0.0
 44
0.0
 50
0.0
 71
     0
  0
VIEW
  2
OLE1
 70
     0
 40
770.89387507877348
 10
168.02746984757459
 20
417.2721188384777
 41
1389.2727748721779
 11
0.0
 21
0.0
 31
1.0
 12
0.0
 22
0.0
 32
0.0
 42
50.0
 43
0.0
 44
0.0
 50
0.0
 71
     0
  0
ENDTAB
  0
TABLE
  2
UCS
 70
     0
  0
ENDTAB
  0
TABLE
  2
APPID
 70
     4
  0
APPID
  2
ACAD
 70
     0
  0
APPID
  2
ACAD_EXEMPT_FROM_CAD_STANDARDS
 70
     0
  0
APPID
  2
ACAD_MLEADERVER
 70
     0
  0
APPID
  2
ACAD_NAV_VCDISPLAY
 70
     0
  0
ENDTAB
  0
TABLE
  2
DIMSTYLE
 70
     1
  0
DIMSTYLE
  2
STANDARD
 70
     0
  3

  4

  5

  6

  7

 40
1.0
 41
0.18
 42
0.0625
 43
0.38
 44
0.18
 45
0.0
 46
0.0
 47
0.0
 48
0.0
140
0.18
141
0.09
142
0.0
143
25.399999999999999
144
1.0
145
0.0
146
1.0
147
0.09
 71
     0
 72
     0
 73
     1
 74
     1
 75
     0
 76
     0
 77
     0
 78
     0
170
     0
171
     2
172
     0
173
     0
174
     0
175
     0
176
     0
177
     0
178
     0
  0
ENDTAB
  0
ENDSEC
  0
SECTION
  2
BLOCKS
  0
BLOCK
  8
0
  2
$MODEL_SPACE
 70
     0
 10
0.0
 20
0.0
 30
0.0
  3
$MODEL_SPACE
  1

  0
ENDBLK
  5
15A
  8
0
  0
BLOCK
 67
     1
  8
0
  2
$PAPER_SPACE
 70
     0
 10
0.0
 20
0.0
 30
0.0
  3
$PAPER_SPACE
  1

  0
ENDBLK
  5
158
 67
     1
  8
0
  0
ENDSEC
  0
SECTION
  2
ENTITIES
  0
ARC
  5
41B
  8
0
 10
173.52123017454559
 20
273.66681654676262
 30
0.0
 40
50.0
 50
96.84805388219597
 51
83.151946117805664
  0
LINE
  5
41C
  8
1
 10
173.52123017454559
 20
213.66681654676259
 30
0.0
 11
173.52123017454551
 21
333.66681654676262
 31
0.0
  0
CIRCLE
  5
41D
  8
0
 10
173.52123017454559
 20
273.66681654676262
 30
0.0
 40
14.0
  0
ARC
  5
41E
  8
0
 10
173.52123017454559
 20
273.66681654676262
 30
0.0
 40
32.0
 50
98.562940064581213
 51
81.437059935420393
  0
ARC
  5
41F
  8
0
 10
173.52123017454559
 20
273.66681654676262
 30
0.0
 40
33.0
 50
100.6084056328653
 51
79.391594367136307
  0
CIRCLE
  5
420
  8
0
 10
173.52123017454559
 20
273.66681654676262
 30
0.0
 40
13.5
  0
LINE
  5
421
  8
1
 10
369.14847701950811
 20
273.66681654676262
 30
0.0
 11
427.14847701950788
 21
273.66681654676262
 31
0.0
  0
LINE
  5
422
  8
0
 10
379.14847701950788
 20
322.16681654676262
 30
0.0
 11
379.14847701950811
 21
225.16681654676259
 31
0.0
  0
LINE
  5
423
  8
0
 10
380.64847701950799
 20
223.66681654676259
 30
0.0
 11
391.64847701950788
 21
223.66681654676259
 31
0.0
  0
LINE
  5
424
  8
0
 10
417.14847701950788
 20
286.69265967584028
 30
0.0
 11
417.14847701950788
 21
260.64097341768479
 31
0.0
  0
LINE
  5
425
  8
2
 10
392.14847701950788
 20
287.16681654676199
 30
0.0
 11
392.14847701950788
 21
260.16681654676307
 31
0.0
  0
ARC
  5
426
  8
0
 10
380.64847701950799
 20
225.16681654676259
 30
0.0
 40
1.5
 50
180.0
 51
270.0
  0
ARC
  5
427
  8
0
 10
391.64847701950788
 20
225.16681654676259
 30
0.0
 40
1.5
 50
270.0
 51
0.0
  0
LINE
  5
428
  8
2
 10
380.14847701950799
 20
241.66681654676259
 30
0.0
 11
381.14847701950811
 21
241.66681654676259
 31
0.0
  0
LINE
  5
429
  8
2
 10
381.14847701950788
 20
305.6668165467625
 30
0.0
 11
381.14847701950811
 21
241.66681654676259
 31
0.0
  0
LINE
  5
42A
  8
2
 10
380.14847701950788
 20
305.6668165467625
 30
0.0
 11
380.14847701950799
 21
241.66681654676259
 31
0.0
  0
LINE
  5
42B
  8
2
 10
379.14847701950811
 20
240.66681654676259
 30
0.0
 11
380.14847701950799
 21
241.66681654676259
 31
0.0
  0
LINE
  5
42C
  8
2
 10
381.14847701950788
 20
241.66681654676259
 30
0.0
 11
393.8931898756631
 21
258.05287593324817
 31
0.0
  0
LINE
  5
42D
  8
0
 10
398.85357577801642
 20
257.35908637913099
 30
0.0
 11
393.14847701950799
 21
250.02395940390559
 31
0.0
  0
ARC
  5
42E
  8
2
 10
393.92716159368803
 20
239.62337103400259
 30
0.0
 40
7.0
 50
142.12501634889909
 51
254.44992044250381
  0
ARC
  5
42F
  8
2
 10
391.64847701950788
 20
231.43450074492179
 30
0.0
 40
1.5
 50
0.0
 51
74.449920442503824
  0
LINE
  5
430
  8
2
 10
393.10383765828669
 20
259.66681654676307
 30
0.0
 11
392.64847701950788
 21
259.66681654676307
 31
0.0
  0
ARC
  5
431
  8
2
 10
393.10383765828669
 20
258.66681654676319
 30
0.0
 40
1.0
 50
322.12501634889941
 51
90.0
  0
LINE
  5
433
  8
0
 10
393.14847701950788
 20
225.16681654676259
 30
0.0
 11
393.14847701950799
 21
322.16681654676262
 31
0.0
  0
ARC
  5
434
  8
2
 10
393.10383765828669
 20
288.66681654676199
 30
0.0
 40
1.0
 50
270.0
 51
37.874983651100557
  0
LINE
  5
435
  8
2
 10
393.10383765828669
 20
287.66681654676199
 30
0.0
 11
392.64847701950788
 21
287.66681654676199
 31
0.0
  0
LINE
  5
436
  8
0
 10
398.85357577801642
 20
289.97454671439419
 30
0.0
 11
393.14847701950799
 21
297.3096736896195
 31
0.0
  0
LINE
  5
437
  8
2
 10
381.14847701950788
 20
305.6668165467625
 30
0.0
 11
393.8931898756631
 21
289.28075716027689
 31
0.0
  0
LINE
  5
438
  8
2
 10
379.14847701950811
 20
306.66681654676262
 30
0.0
 11
380.14847701950799
 21
305.6668165467625
 31
0.0
  0
LINE
  5
439
  8
2
 10
380.14847701950799
 20
305.6668165467625
 30
0.0
 11
381.14847701950811
 21
305.6668165467625
 31
0.0
  0
LINE
  5
43A
  8
0
 10
416.1746539678158
 20
287.69231700081582
 30
0.0
 11
402.66945212335861
 21
288.04596315709091
 31
0.0
  0
ARC
  5
43B
  8
0
 10
391.64847701950788
 20
322.16681654676262
 30
0.0
 40
1.5
 50
0.0
 51
90.0
  0
ARC
  5
43C
  8
0
 10
380.64847701950799
 20
322.16681654676262
 30
0.0
 40
1.5
 50
90.0
 51
180.0
  0
LINE
  5
43D
  8
0
 10
380.64847701950799
 20
323.66681654676262
 30
0.0
 11
391.64847701950788
 21
323.66681654676262
 31
0.0
  0
LINE
  5
43E
  8
2
 10
407.14847701950799
 20
276.6668089173703
 30
0.0
 11
407.14847701950788
 21
270.66681654676017
 31
0.0
  0
LINE
  5
43F
  8
2
 10
417.14847701950788
 20
270.66681654676012
 30
0.0
 11
407.14847701950799
 21
270.66681654676012
 31
0.0
  0
LINE
  5
440
  8
2
 10
407.14847701950799
 20
270.66681654676017
 30
0.0
 11
405.4164284143543
 21
273.6668127320653
 31
0.0
  0
LINE
  5
441
  8
2
 10
407.14847701950799
 20
276.66680891737042
 30
0.0
 11
405.4164284143543
 21
273.6668127320653
 31
0.0
  0
LINE
  5
442
  8
2
 10
417.14847701950788
 20
276.66681654676512
 30
0.0
 11
407.14847701950799
 21
276.66681654676512
 31
0.0
  0
LINE
  5
443
  8
2
 10
391.64847701950788
 20
307.69005050674991
 30
0.0
 11
389.16412932862698
 21
307.69005050675003
 31
0.0
  0
ARC
  5
444
  8
2
 10
391.64847701950788
 20
309.19005050674991
 30
0.0
 40
1.5
 50
270.0
 51
0.0
  0
ARC
  5
445
  8
2
 10
389.16412932862698
 20
305.69005050675003
 30
0.0
 40
2.0
 50
90.0
 51
217.87498365110059
  0
LINE
  5
446
  8
1
 10
403.14847701950788
 20
314.66681654676262
 30
0.0
 11
319.14847701950788
 21
314.66681654676262
 31
0.0
  0
LINE
  5
44E
  8
1
 10
233.52123017454559
 20
273.66681654676262
 30
0.0
 11
113.52123017454559
 21
273.66681654676262
 31
0.0
  0
ARC
  5
451
  8
0
 10
402.80033686489799
 20
293.04424978196869
 30
0.0
 40
5.0
 50
217.87498365110011
 51
268.50000000000063
  0
LINE
  5
452
  8
0
 10
416.1746539678158
 20
259.6413160927093
 30
0.0
 11
402.66945212335861
 21
259.28766993643421
 31
0.0
  0
ARC
  5
453
  8
0
 10
402.80033686489799
 20
254.28938331155641
 30
0.0
 40
5.0
 50
91.499999999999389
 51
142.12501634889989
  0
ARC
  5
454
  8
0
 10
416.14847701950788
 20
286.69265967584028
 30
0.0
 40
1.0
 50
0.0
 51
88.500000000000597
  0
ARC
  5
455
  8
0
 10
416.14847701950788
 20
260.64097341768479
 30
0.0
 40
1.0
 50
271.49999999999937
 51
0.0
  0
ARC
  5
456
  8
2
 10
392.64847701950788
 20
287.16681654676199
 30
0.0
 40
0.5
 50
90.0
 51
180.0
  0
ARC
  5
457
  8
2
 10
392.64847701950788
 20
260.16681654676307
 30
0.0
 40
0.5
 50
180.0
 51
270.0
  0
CIRCLE
  5
459
  8
0
 10
173.52123017454531
 20
314.66681654676262
 30
0.0
 40
10.5
  0
LINE
  5
45A
  8
1
 10
189.02123017454579
 20
314.66681654676239
 30
0.0
 11
158.02123017454531
 21
314.66681654676262
 31
0.0
  0
LINE
  5
467
  8
0
 10
359.14847701950822
 20
325.16681654676239
 30
0.0
 11
359.14847701950799
 21
304.16681654676239
 31
0.0
  0
ARC
  5
468
  8
0
 10
331.69850336303421
 20
323.41681654676239
 30
0.0
 40
1.7499999999994471
 50
90.0
 51
169.5517626680433
  0
ARC
  5
469
  8
0
 10
331.69850336303421
 20
305.9168165467625
 30
0.0
 40
1.7499999999994471
 50
190.44823733195659
 51
270.0
  0
ARC
  5
46A
  8
0
 10
379.14847701950788
 20
314.66681654676239
 30
0.0
 40
50.0
 50
169.5517626680433
 51
190.44823733195659
  0
LINE
  5
46B
  8
0
 10
331.69850336303421
 20
324.1668165467625
 30
0.0
 11
331.69850336303421
 21
305.1668165467625
 31
0.0
  0
LINE
  5
46C
  8
0
 10
359.14847701950799
 20
325.16681654676239
 30
0.0
 11
331.69850336303421
 21
325.16681654676188
 31
0.0
  0
LINE
  5
46D
  8
0
 10
331.69850336303421
 20
304.16681654676302
 30
0.0
 11
359.14847701950799
 21
304.16681654676239
 31
0.0
  0
LINE
  5
46F
  8
0
 10
377.94948067982051
 20
306.07554788283483
 30
0.0
 11
359.14847701950799
 21
304.16681654676239
 31
0.0
  0
ARC
  5
470
  8
0
 10
377.84847701950781
 20
307.07043393691509
 30
0.0
 40
1.0
 50
275.7969686190699
 51
0.0
  0
LINE
  5
471
  8
0
 10
378.8484770195077
 20
322.26319915660991
 30
0.0
 11
378.8484770195077
 21
307.07043393691509
 31
0.0
  0
ARC
  5
472
  8
0
 10
377.84847701950781
 20
322.26319915660991
 30
0.0
 40
1.0
 50
0.0
 51
84.203031380930156
  0
LINE
  5
473
  8
0
 10
377.94948067982051
 20
323.25808521069018
 30
0.0
 11
359.14847701950799
 21
325.16681654676239
 31
0.0
  0
LINE
  5
474
  8
0
 10
378.8484770195077
 20
319.66681654676239
 30
0.0
 11
379.14847701950788
 21
319.66681654676239
 31
0.0
  0
LINE
  5
475
  8
0
 10
379.14847701950788
 20
309.6668165467625
 30
0.0
 11
378.8484770195077
 21
309.6668165467625
 31
0.0
  0
ARC
  5
57D
  8
0
 10
591.78430397978639
 20
314.6900505067494
 30
0.0
 40
7.0
 50
199.06000879475101
 51
340.93999120524842
  0
ARC
  5
57E
  8
0
 10
600.290897636095
 20
311.75102611650539
 30
0.0
 40
2.0
 50
86.262551165377886
 51
160.9399912052489
  0
ARC
  5
57F
  8
0
 10
583.27771032347755
 20
311.75102611650539
 30
0.0
 40
2.0
 50
19.060008794751042
 51
93.7374488346221
  0
CIRCLE
  5
58A
  8
0
 10
591.78430397978639
 20
273.66681654676262
 30
0.0
 40
3.0
  0
LINE
  5
58B
  8
1
 10
591.78430397978639
 20
213.66681654676259
 30
0.0
 11
591.78430397978639
 21
333.66681654676262
 31
0.0
  0
LINE
  5
58C
  8
1
 10
531.78430397978627
 20
273.66681654676262
 30
0.0
 11
651.78430397978627
 21
273.66681654676262
 31
0.0
  0
CIRCLE
  5
58D
  8
3
 10
591.78430397978639
 20
314.66681654676262
 30
0.0
 40
3.0
  0
CIRCLE
  5
58E
  8
0
 10
591.78430397978639
 20
314.66681654676262
 30
0.0
 40
2.458499999999999
  0
LINE
  5
58F
  8
1
 10
599.78430397978548
 20
314.66681654676262
 30
0.0
 11
583.78430397978718
 21
314.66681654676262
 31
0.0
  0
TEXT
  5
594
  8
0
 10
593.09077059597575
 20
253.166793521562
 30
0.0
 40
5.0
  1
‚P
 50
180.0
 41
0.6
  7
06000
 72
     1
 11
591.79077059597569
 21
250.666793521562
 31
0.0
 73
     2
  0
TEXT
  5
595
  8
0
 10
586.55743796656725
 20
253.83093142507749
 30
0.0
 40
5.0
  1
‚O
 50
161.5548752252906
 41
0.6
  7
06000
 72
     1
 11
584.53323208368874
 21
251.8706787516397
 31
0.0
 73
     2
  0
TEXT
  5
596
  8
0
 10
589.87274583392821
 20
253.21434128072269
 30
0.0
 40
5.0
  1
‚O
 50
171.0139235753829
 41
0.6
  7
06000
 72
     1
 11
588.19821550874951
 21
250.94807823551881
 31
0.0
 73
     2
  0
TEXT
  5
597
  8
0
 10
596.38027545752811
 20
253.62678568755891
 30
0.0
 40
5.0
  1
‚`
 50
189.01878173367029
 41
0.6
  7
06000
 72
     1
 11
595.38947920637122
 21
250.93823165449689
 31
0.0
 73
     2
  0
TEXT
  5
598
  8
0
 10
599.3930966518401
 20
254.55523116781879
 30
0.0
 40
5.0
  1
‚c
 50
197.84162730125149
 41
0.6
  7
06000
 72
     1
 11
598.82639423602063
 21
251.74652178949151
 31
0.0
 73
     2
  0
CIRCLE
  5
5AD
  8
0
 10
591.78430397978639
 20
273.66681654676262
 30
0.0
 40
50.0
  0
ARC
  5
5AE
  8
0
 10
591.78430397978639
 20
273.66681654676262
 30
0.0
 40
41.0
 50
102.1608936759787
 51
77.839106324021301
  0
CIRCLE
  5
5AF
  8
0
 10
591.78430397978639
 20
273.66681654676262
 30
0.0
 40
14.0
  0
ARC
  5
5D3
  8
0
 10
591.78430397978639
 20
314.66681654676262
 30
0.0
 40
10.499999999999771
 50
55.403467417155497
 51
124.5965325828445
  0
LINE
  5
619
  8
2
 10
394.10383765828669
 20
288.66681654676199
 30
0.0
 11
394.10383765828669
 21
258.66681654676319
 31
0.0
  0
LINE
  5
61A
  8
2
 10
393.10383765828669
 20
287.66681654676199
 30
0.0
 11
393.10383765828669
 21
259.66681654676307
 31
0.0
  0
LINE
  5
622
  8
2
 10
393.14847701950799
 20
250.02395940390539
 30
0.0
 11
388.4016960720536
 21
243.92095532860699
 31
0.0
  0
LINE
  5
623
  8
2
 10
393.14847701950799
 20
297.3096736896195
 30
0.0
 11
387.5854248938744
 21
304.46216927972011
 31
0.0
  0
LINE
  5
635
  8
1
 10
319.14847701950799
 20
433.66681654676239
 30
0.0
 11
427.14847701950788
 21
433.66681654676239
 31
0.0
  0
LINE
  5
636
  8
0
 10
379.14847701950788
 20
482.1668165467625
 30
0.0
 11
379.14847701950811
 21
385.1668165467625
 31
0.0
  0
LINE
  5
637
  8
0
 10
380.64847701950799
 20
383.6668165467625
 30
0.0
 11
391.64847701950788
 21
383.6668165467625
 31
0.0
  0
LINE
  5
638
  8
0
 10
417.14847701950788
 20
446.69265967584022
 30
0.0
 11
417.14847701950788
 21
420.64097341768468
 31
0.0
  0
LINE
  5
639
  8
2
 10
392.14847701950788
 20
447.16681654676188
 30
0.0
 11
392.14847701950788
 21
420.16681654676302
 31
0.0
  0
ARC
  5
63A
  8
0
 10
380.64847701950799
 20
385.1668165467625
 30
0.0
 40
1.5
 50
180.0
 51
270.0
  0
ARC
  5
63B
  8
0
 10
391.64847701950788
 20
385.1668165467625
 30
0.0
 40
1.5
 50
270.0
 51
0.0
  0
LINE
  5
63C
  8
2
 10
380.14847701950799
 20
401.6668165467625
 30
0.0
 11
381.14847701950811
 21
401.6668165467625
 31
0.0
  0
LINE
  5
63D
  8
2
 10
381.14847701950788
 20
465.6668165467625
 30
0.0
 11
381.14847701950811
 21
401.6668165467625
 31
0.0
  0
LINE
  5
63E
  8
2
 10
380.14847701950788
 20
465.6668165467625
 30
0.0
 11
380.14847701950799
 21
401.6668165467625
 31
0.0
  0
LINE
  5
63F
  8
2
 10
379.14847701950811
 20
400.66681654676239
 30
0.0
 11
380.14847701950799
 21
401.6668165467625
 31
0.0
  0
LINE
  5
640
  8
2
 10
381.14847701950788
 20
401.6668165467625
 30
0.0
 11
393.8931898756631
 21
418.05287593324812
 31
0.0
  0
LINE
  5
641
  8
0
 10
398.85357577801642
 20
417.35908637913087
 30
0.0
 11
393.14847701950799
 21
410.02395940390551
 31
0.0
  0
ARC
  5
642
  8
2
 10
393.92716159368803
 20
399.62337103400262
 30
0.0
 40
7.0
 50
142.12501634889921
 51
254.44992044250381
  0
ARC
  5
643
  8
2
 10
391.64847701950788
 20
391.43450074492182
 30
0.0
 40
1.5
 50
0.0
 51
74.449920442503853
  0
LINE
  5
644
  8
2
 10
393.10383765828669
 20
419.66681654676302
 30
0.0
 11
392.64847701950788
 21
419.66681654676302
 31
0.0
  0
ARC
  5
645
  8
2
 10
393.10383765828669
 20
418.66681654676302
 30
0.0
 40
1.0
 50
322.12501634889929
 51
90.0
  0
LINE
  5
646
  8
0
 10
393.14847701950788
 20
385.1668165467625
 30
0.0
 11
393.14847701950799
 21
482.1668165467625
 31
0.0
  0
ARC
  5
647
  8
2
 10
393.10383765828669
 20
448.66681654676188
 30
0.0
 40
1.0
 50
270.0
 51
37.874983651100727
  0
LINE
  5
648
  8
2
 10
393.10383765828669
 20
447.66681654676188
 30
0.0
 11
392.64847701950788
 21
447.66681654676188
 31
0.0
  0
LINE
  5
649
  8
0
 10
398.85357577801642
 20
449.97454671439408
 30
0.0
 11
393.14847701950799
 21
457.30967368961939
 31
0.0
  0
LINE
  5
64A
  8
2
 10
381.14847701950788
 20
465.6668165467625
 30
0.0
 11
393.8931898756631
 21
449.28075716027678
 31
0.0
  0
LINE
  5
64B
  8
2
 10
379.14847701950811
 20
466.66681654676239
 30
0.0
 11
380.14847701950799
 21
465.6668165467625
 31
0.0
  0
LINE
  5
64C
  8
2
 10
380.14847701950799
 20
465.6668165467625
 30
0.0
 11
381.14847701950811
 21
465.6668165467625
 31
0.0
  0
LINE
  5
64D
  8
0
 10
416.1746539678158
 20
447.69231700081571
 30
0.0
 11
402.66945212335861
 21
448.0459631570908
 31
0.0
  0
ARC
  5
64E
  8
0
 10
391.64847701950788
 20
482.1668165467625
 30
0.0
 40
1.5
 50
0.0
 51
90.0
  0
ARC
  5
64F
  8
0
 10
380.64847701950799
 20
482.1668165467625
 30
0.0
 40
1.5
 50
90.0
 51
180.0
  0
LINE
  5
650
  8
0
 10
380.64847701950799
 20
483.66681654676239
 30
0.0
 11
391.64847701950788
 21
483.66681654676239
 31
0.0
  0
LINE
  5
651
  8
2
 10
407.14847701950799
 20
436.66680891737019
 30
0.0
 11
407.14847701950788
 21
430.66681654676012
 31
0.0
  0
LINE
  5
652
  8
2
 10
417.14847701950788
 20
430.66681654675989
 30
0.0
 11
407.14847701950799
 21
430.66681654675989
 31
0.0
  0
LINE
  5
653
  8
2
 10
407.14847701950799
 20
430.66681654676012
 30
0.0
 11
405.4164284143543
 21
433.66681273206518
 31
0.0
  0
LINE
  5
654
  8
2
 10
407.14847701950799
 20
436.6668089173703
 30
0.0
 11
405.4164284143543
 21
433.66681273206518
 31
0.0
  0
LINE
  5
655
  8
2
 10
417.14847701950788
 20
436.66681654676501
 30
0.0
 11
407.14847701950799
 21
436.66681654676501
 31
0.0
  0
ARC
  5
65A
  8
0
 10
402.80033686489799
 20
453.04424978196857
 30
0.0
 40
5.0
 50
217.87498365110059
 51
268.50000000000063
  0
LINE
  5
65B
  8
0
 10
416.1746539678158
 20
419.64131609270919
 30
0.0
 11
402.66945212335861
 21
419.2876699364341
 31
0.0
  0
ARC
  5
65C
  8
0
 10
402.80033686489799
 20
414.28938331155638
 30
0.0
 40
5.0
 50
91.499999999999389
 51
142.12501634889929
  0
ARC
  5
65D
  8
0
 10
416.14847701950788
 20
446.69265967584022
 30
0.0
 40
1.0
 50
0.0
 51
88.500000000000554
  0
ARC
  5
65E
  8
0
 10
416.14847701950788
 20
420.64097341768468
 30
0.0
 40
1.0
 50
271.49999999999937
 51
0.0
  0
ARC
  5
65F
  8
2
 10
392.64847701950788
 20
447.16681654676188
 30
0.0
 40
0.5
 50
90.0
 51
180.0
  0
ARC
  5
660
  8
2
 10
392.64847701950788
 20
420.16681654676302
 30
0.0
 40
0.5
 50
180.0
 51
270.0
  0
LINE
  5
661
  8
0
 10
359.14847701950822
 20
444.16681654676239
 30
0.0
 11
359.14847701950811
 21
423.16681654676228
 31
0.0
  0
ARC
  5
662
  8
0
 10
331.69850336303432
 20
442.41681654676239
 30
0.0
 40
1.7499999999994471
 50
90.0
 51
169.5517626680433
  0
ARC
  5
663
  8
0
 10
331.69850336303432
 20
424.9168165467625
 30
0.0
 40
1.7499999999994471
 50
190.44823733195659
 51
270.0
  0
ARC
  5
664
  8
0
 10
379.14847701950799
 20
433.66681654676239
 30
0.0
 40
50.0
 50
169.5517626680433
 51
190.44823733195659
  0
LINE
  5
665
  8
0
 10
331.69850336303432
 20
443.16681654676228
 30
0.0
 11
331.69850336303432
 21
424.16681654676239
 31
0.0
  0
LINE
  5
666
  8
0
 10
359.14847701950799
 20
444.16681654676239
 30
0.0
 11
331.69850336303432
 21
444.16681654676182
 31
0.0
  0
LINE
  5
667
  8
0
 10
331.69850336303432
 20
423.1668165467629
 30
0.0
 11
359.14847701950799
 21
423.16681654676228
 31
0.0
  0
LINE
  5
668
  8
0
 10
377.94948067982051
 20
425.07554788283471
 30
0.0
 11
359.14847701950799
 21
423.16681654676228
 31
0.0
  0
ARC
  5
669
  8
0
 10
377.84847701950781
 20
426.07043393691509
 30
0.0
 40
1.0
 50
275.7969686190699
 51
0.0
  0
LINE
  5
66A
  8
0
 10
378.84847701950781
 20
441.26319915660969
 30
0.0
 11
378.84847701950781
 21
426.07043393691509
 31
0.0
  0
ARC
  5
66B
  8
0
 10
377.84847701950781
 20
441.26319915660969
 30
0.0
 40
1.0
 50
0.0
 51
84.20303138093
  0
LINE
  5
66C
  8
0
 10
377.94948067982051
 20
442.25808521069013
 30
0.0
 11
359.14847701950799
 21
444.16681654676239
 31
0.0
  0
LINE
  5
66D
  8
0
 10
378.84847701950781
 20
438.66681654676228
 30
0.0
 11
379.14847701950799
 21
438.66681654676228
 31
0.0
  0
LINE
  5
66E
  8
0
 10
379.14847701950799
 20
428.66681654676239
 30
0.0
 11
378.84847701950781
 21
428.66681654676239
 31
0.0
  0
LINE
  5
66F
  8
2
 10
394.10383765828669
 20
448.66681654676188
 30
0.0
 11
394.10383765828669
 21
418.66681654676302
 31
0.0
  0
LINE
  5
670
  8
2
 10
393.10383765828669
 20
447.66681654676188
 30
0.0
 11
393.10383765828669
 21
419.66681654676302
 31
0.0
  0
LINE
  5
671
  8
2
 10
393.14847701950799
 20
410.02395940390528
 30
0.0
 11
388.4016960720536
 21
403.92095532860691
 31
0.0
  0
ARC
  5
674
  8
2
 10
393.92716159368803
 20
467.71026205952239
 30
0.0
 40
7.0
 50
105.5500795574961
 51
217.87498365110531
  0
ARC
  5
675
  8
2
 10
391.64847701950788
 20
475.89913234860319
 30
0.0
 40
1.5
 50
285.55007955749608
 51
0.0
  0
LINE
  5
676
  8
2
 10
393.14847701950799
 20
457.30967368961961
 30
0.0
 11
388.4016960720536
 21
463.41267776491799
 31
0.0
  0
LINE
  5
677
  8
1
 10
319.14847701950799
 20
113.6668165467625
 30
0.0
 11
427.14847701950788
 21
113.6668165467625
 31
0.0
  0
LINE
  5
678
  8
0
 10
379.14847701950788
 20
162.1668165467625
 30
0.0
 11
379.14847701950811
 21
65.166816546762533
 31
0.0
  0
LINE
  5
679
  8
0
 10
380.64847701950799
 20
63.666816546762533
 30
0.0
 11
391.64847701950788
 21
63.666816546762533
 31
0.0
  0
LINE
  5
67A
  8
0
 10
417.14847701950788
 20
126.6926596758403
 30
0.0
 11
417.14847701950788
 21
100.64097341768471
 31
0.0
  0
LINE
  5
67B
  8
2
 10
392.14847701950788
 20
127.16681654676189
 30
0.0
 11
392.14847701950788
 21
100.1668165467631
 31
0.0
  0
ARC
  5
67C
  8
0
 10
380.64847701950799
 20
65.166816546762533
 30
0.0
 40
1.5
 50
180.0
 51
270.0
  0
ARC
  5
67D
  8
0
 10
391.64847701950788
 20
65.166816546762533
 30
0.0
 40
1.5
 50
270.0
 51
0.0
  0
LINE
  5
67E
  8
2
 10
380.14847701950799
 20
81.666816546762533
 30
0.0
 11
381.14847701950811
 21
81.666816546762533
 31
0.0
  0
LINE
  5
67F
  8
2
 10
381.14847701950788
 20
145.6668165467625
 30
0.0
 11
381.14847701950811
 21
81.666816546762533
 31
0.0
  0
LINE
  5
680
  8
2
 10
380.14847701950788
 20
145.6668165467625
 30
0.0
 11
380.14847701950799
 21
81.666816546762533
 31
0.0
  0
LINE
  5
681
  8
2
 10
379.14847701950811
 20
80.666816546762533
 30
0.0
 11
380.14847701950799
 21
81.666816546762533
 31
0.0
  0
LINE
  5
682
  8
2
 10
381.14847701950788
 20
81.666816546762533
 30
0.0
 11
393.8931898756631
 21
98.052875933248146
 31
0.0
  0
LINE
  5
683
  8
0
 10
398.85357577801642
 20
97.359086379130957
 30
0.0
 11
393.14847701950799
 21
90.023959403905536
 31
0.0
  0
ARC
  5
684
  8
2
 10
393.92716159368803
 20
79.623371034002574
 30
0.0
 40
7.0
 50
142.12501634889921
 51
254.44992044250381
  0
ARC
  5
685
  8
2
 10
391.64847701950788
 20
71.434500744921792
 30
0.0
 40
1.5
 50
0.0
 51
74.449920442503881
  0
LINE
  5
686
  8
2
 10
393.10383765828669
 20
99.666816546763101
 30
0.0
 11
392.64847701950788
 21
99.666816546763101
 31
0.0
  0
ARC
  5
687
  8
2
 10
393.10383765828669
 20
98.666816546763116
 30
0.0
 40
1.0
 50
322.12501634889918
 51
90.0
  0
LINE
  5
688
  8
0
 10
393.14847701950788
 20
65.166816546762533
 30
0.0
 11
393.14847701950799
 21
162.1668165467625
 31
0.0
  0
ARC
  5
689
  8
2
 10
393.10383765828669
 20
128.66681654676191
 30
0.0
 40
1.0
 50
270.0
 51
37.874983651100763
  0
LINE
  5
68A
  8
2
 10
393.10383765828669
 20
127.66681654676189
 30
0.0
 11
392.64847701950788
 21
127.66681654676189
 31
0.0
  0
LINE
  5
68B
  8
0
 10
398.85357577801642
 20
129.97454671439411
 30
0.0
 11
393.14847701950799
 21
137.30967368961939
 31
0.0
  0
LINE
  5
68C
  8
2
 10
381.14847701950788
 20
145.6668165467625
 30
0.0
 11
393.8931898756631
 21
129.28075716027689
 31
0.0
  0
LINE
  5
68D
  8
2
 10
379.14847701950811
 20
146.6668165467625
 30
0.0
 11
380.14847701950799
 21
145.6668165467625
 31
0.0
  0
LINE
  5
68E
  8
2
 10
380.14847701950799
 20
145.6668165467625
 30
0.0
 11
381.14847701950811
 21
145.6668165467625
 31
0.0
  0
LINE
  5
68F
  8
0
 10
416.1746539678158
 20
127.69231700081581
 30
0.0
 11
402.66945212335861
 21
128.04596315709091
 31
0.0
  0
ARC
  5
690
  8
0
 10
391.64847701950788
 20
162.1668165467625
 30
0.0
 40
1.5
 50
0.0
 51
90.0
  0
ARC
  5
691
  8
0
 10
380.64847701950799
 20
162.1668165467625
 30
0.0
 40
1.5
 50
90.0
 51
180.0
  0
LINE
  5
692
  8
0
 10
380.64847701950799
 20
163.6668165467625
 30
0.0
 11
391.64847701950788
 21
163.6668165467625
 31
0.0
  0
LINE
  5
693
  8
2
 10
407.14847701950799
 20
116.6668089173702
 30
0.0
 11
407.14847701950788
 21
110.6668165467601
 31
0.0
  0
LINE
  5
694
  8
2
 10
417.14847701950788
 20
110.66681654676
 30
0.0
 11
407.14847701950799
 21
110.66681654676
 31
0.0
  0
LINE
  5
695
  8
2
 10
407.14847701950799
 20
110.6668165467601
 30
0.0
 11
405.4164284143543
 21
113.6668127320652
 31
0.0
  0
LINE
  5
696
  8
2
 10
407.14847701950799
 20
116.6668089173704
 30
0.0
 11
405.4164284143543
 21
113.6668127320652
 31
0.0
  0
LINE
  5
697
  8
2
 10
417.14847701950788
 20
116.66681654676501
 30
0.0
 11
407.14847701950799
 21
116.66681654676501
 31
0.0
  0
ARC
  5
698
  8
0
 10
402.80033686489799
 20
133.0442497819686
 30
0.0
 40
5.0
 50
217.87498365110079
 51
268.50000000000063
  0
LINE
  5
699
  8
0
 10
416.1746539678158
 20
99.641316092709275
 30
0.0
 11
402.66945212335861
 21
99.287669936434185
 31
0.0
  0
ARC
  5
69A
  8
0
 10
402.80033686489799
 20
94.289383311556406
 30
0.0
 40
5.0
 50
91.499999999999361
 51
142.12501634889921
  0
ARC
  5
69B
  8
0
 10
416.14847701950788
 20
126.6926596758403
 30
0.0
 40
1.0
 50
0.0
 51
88.500000000000583
  0
ARC
  5
69C
  8
0
 10
416.14847701950788
 20
100.64097341768471
 30
0.0
 40
1.0
 50
271.49999999999932
 51
0.0
  0
ARC
  5
69D
  8
2
 10
392.64847701950788
 20
127.16681654676189
 30
0.0
 40
0.5
 50
90.0
 51
180.0
  0
ARC
  5
69E
  8
2
 10
392.64847701950788
 20
100.1668165467631
 30
0.0
 40
0.5
 50
180.0
 51
270.0
  0
LINE
  5
69F
  8
0
 10
359.14847701950822
 20
124.1668165467624
 30
0.0
 11
359.14847701950811
 21
103.1668165467624
 31
0.0
  0
ARC
  5
6A0
  8
0
 10
331.69850336303432
 20
122.4168165467624
 30
0.0
 40
1.7499999999994471
 50
90.0
 51
169.5517626680433
  0
ARC
  5
6A1
  8
0
 10
331.69850336303432
 20
104.9168165467625
 30
0.0
 40
1.7499999999994471
 50
190.44823733195659
 51
270.0
  0
ARC
  5
6A2
  8
0
 10
379.14847701950799
 20
113.6668165467624
 30
0.0
 40
50.0
 50
169.5517626680433
 51
190.44823733195659
  0
LINE
  5
6A3
  8
0
 10
331.69850336303432
 20
123.1668165467624
 30
0.0
 11
331.69850336303432
 21
104.1668165467624
 31
0.0
  0
LINE
  5
6A4
  8
0
 10
359.14847701950799
 20
124.1668165467624
 30
0.0
 11
331.69850336303432
 21
124.16681654676179
 31
0.0
  0
LINE
  5
6A5
  8
0
 10
331.69850336303432
 20
103.166816546763
 30
0.0
 11
359.14847701950799
 21
103.1668165467624
 31
0.0
  0
LINE
  5
6A6
  8
0
 10
377.94948067982051
 20
105.0755478828348
 30
0.0
 11
359.14847701950799
 21
103.1668165467624
 31
0.0
  0
ARC
  5
6A7
  8
0
 10
377.84847701950781
 20
106.07043393691509
 30
0.0
 40
1.0
 50
275.79696861906967
 51
0.0
  0
LINE
  5
6A8
  8
0
 10
378.84847701950781
 20
121.2631991566098
 30
0.0
 11
378.84847701950781
 21
106.07043393691509
 31
0.0
  0
ARC
  5
6A9
  8
0
 10
377.84847701950781
 20
121.2631991566098
 30
0.0
 40
1.0
 50
0.0
 51
84.203031380930184
  0
LINE
  5
6AA
  8
0
 10
377.94948067982051
 20
122.2580852106901
 30
0.0
 11
359.14847701950799
 21
124.1668165467624
 31
0.0
  0
LINE
  5
6AB
  8
0
 10
378.84847701950781
 20
118.6668165467624
 30
0.0
 11
379.14847701950799
 21
118.6668165467624
 31
0.0
  0
LINE
  5
6AC
  8
0
 10
379.14847701950799
 20
108.6668165467624
 30
0.0
 11
378.84847701950781
 21
108.6668165467624
 31
0.0
  0
LINE
  5
6AD
  8
2
 10
394.10383765828669
 20
128.66681654676191
 30
0.0
 11
394.10383765828669
 21
98.666816546763116
 31
0.0
  0
LINE
  5
6AE
  8
2
 10
393.10383765828669
 20
127.66681654676189
 30
0.0
 11
393.10383765828669
 21
99.666816546763101
 31
0.0
  0
LINE
  5
6AF
  8
2
 10
393.14847701950799
 20
90.023959403905423
 30
0.0
 11
388.4016960720536
 21
83.920955328606937
 31
0.0
  0
ARC
  5
6B0
  8
2
 10
393.92716159368803
 20
147.71026205952251
 30
0.0
 40
7.0
 50
105.55007955749601
 51
217.87498365110719
  0
ARC
  5
6B1
  8
2
 10
391.64847701950788
 20
155.8991323486033
 30
0.0
 40
1.5
 50
285.55007955749608
 51
0.0
  0
LINE
  5
6B2
  8
2
 10
393.14847701950799
 20
137.30967368961959
 30
0.0
 11
388.4016960720536
 21
143.4126777649181
 31
0.0
  0
TEXT
  5
7FC
  8
0
 62
     3
 10
0.0
 20
0.0
 30
0.0
 40
10.0
  1
DA100RG
  7
STANDARD1
  0
ENDSEC
  0
EOF
