  0
SECTION
  2
HEADER
  9
$ACADVER
  1
AC1009
  9
$INSBASE
 10
0.0
 20
0.0
 30
0.0
  9
$EXTMIN
 10
0.0
 20
-2.960436562073669
 30
0.0
  9
$EXTMAX
 10
1013.970978319912
 20
777.94077238210718
 30
0.0
  9
$LIMMIN
 10
0.0
 20
0.0
  9
$LIMMAX
 10
1125.0
 20
810.0
  9
$ORTHOMODE
 70
     1
  9
$REGENMODE
 70
     1
  9
$FILLMODE
 70
     1
  9
$QTEXTMODE
 70
     0
  9
$MIRRTEXT
 70
     0
  9
$DRAGMODE
 70
     2
  9
$LTSCALE
 40
30.0
  9
$OSMODE
 70
  3071
  9
$ATTMODE
 70
     1
  9
$TEXTSIZE
 40
3.0
  9
$TRACEWID
 40
0.05
  9
$TEXTSTYLE
  7
K80
  9
$CLAYER
  8
0
  9
$CELTYPE
  6
BYLAYER
  9
$CECOLOR
 62
   256
  9
$DIMSCALE
 40
3.0
  9
$DIMASZ
 40
3.0
  9
$DIMEXO
 40
2.0
  9
$DIMDLI
 40
0.3799999999999999
  9
$DIMRND
 40
0.0
  9
$DIMDLE
 40
0.0
  9
$DIMEXE
 40
2.0
  9
$DIMTP
 40
0.0
  9
$DIMTM
 40
0.0
  9
$DIMTXT
 40
3.2000000000000002
  9
$DIMCEN
 40
0.09
  9
$DIMTSZ
 40
0.0
  9
$DIMTOL
 70
     0
  9
$DIMLIM
 70
     0
  9
$DIMTIH
 70
     0
  9
$DIMTOH
 70
     0
  9
$DIMSE1
 70
     0
  9
$DIMSE2
 70
     0
  9
$DIMTAD
 70
     1
  9
$DIMZIN
 70
     0
  9
$DIMBLK
  1

  9
$DIMASO
 70
     1
  9
$DIMSHO
 70
     0
  9
$DIMPOST
  1

  9
$DIMAPOST
  1

  9
$DIMALT
 70
     0
  9
$DIMALTD
 70
     2
  9
$DIMALTF
 40
25.399999999999999
  9
$DIMLFAC
 40
1.0
  9
$DIMTOFL
 70
     0
  9
$DIMTVP
 40
1.6000000000000001
  9
$DIMTIX
 70
     1
  9
$DIMSOXD
 70
     0
  9
$DIMSAH
 70
     0
  9
$DIMBLK1
  1

  9
$DIMBLK2
  1

  9
$DIMSTYLE
  2
STANDARD
  9
$DIMCLRD
 70
     0
  9
$DIMCLRE
 70
     0
  9
$DIMCLRT
 70
     0
  9
$DIMTFAC
 40
1.0
  9
$DIMGAP
 40
0.09
  9
$LUNITS
 70
     2
  9
$LUPREC
 70
     4
  9
$SKETCHINC
 40
0.1
  9
$FILLETRAD
 40
0.0
  9
$AUNITS
 70
     0
  9
$AUPREC
 70
     0
  9
$MENU
  1
E:\r13\win\SUPPORT\ACAD
  9
$ELEVATION
 40
0.0
  9
$PELEVATION
 40
0.0
  9
$THICKNESS
 40
0.0
  9
$LIMCHECK
 70
     0
  9
$BLIPMODE
 70
     0
  9
$CHAMFERA
 40
0.0
  9
$CHAMFERB
 40
0.0
  9
$SKPOLY
 70
     0
  9
$TDCREATE
 40
2449840.599016204
  9
$TDUPDATE
 40
2456598.6017860188
  9
$TDINDWG
 40
0.0949090509
  9
$TDUSRTIMER
 40
0.0949090509
  9
$USRTIMER
 70
     1
  9
$ANGBASE
 50
0.0
  9
$ANGDIR
 70
     0
  9
$PDMODE
 70
     0
  9
$PDSIZE
 40
0.0
  9
$PLINEWID
 40
0.0
  9
$COORDS
 70
     1
  9
$SPLFRAME
 70
     0
  9
$SPLINETYPE
 70
     6
  9
$SPLINESEGS
 70
     8
  9
$ATTDIA
 70
     0
  9
$ATTREQ
 70
     1
  9
$HANDLING
 70
     1
  9
$HANDSEED
  5
CC4
  9
$SURFTAB1
 70
     6
  9
$SURFTAB2
 70
     6
  9
$SURFTYPE
 70
     6
  9
$SURFU
 70
     6
  9
$SURFV
 70
     6
  9
$UCSNAME
  2

  9
$UCSORG
 10
0.0
 20
0.0
 30
0.0
  9
$UCSXDIR
 10
1.0
 20
0.0
 30
0.0
  9
$UCSYDIR
 10
0.0
 20
1.0
 30
0.0
  9
$PUCSNAME
  2

  9
$PUCSORG
 10
0.0
 20
0.0
 30
0.0
  9
$PUCSXDIR
 10
1.0
 20
0.0
 30
0.0
  9
$PUCSYDIR
 10
0.0
 20
1.0
 30
0.0
  9
$USERI1
 70
     0
  9
$USERI2
 70
     1
  9
$USERI3
 70
     1
  9
$USERI4
 70
     0
  9
$USERI5
 70
     0
  9
$USERR1
 40
0.0
  9
$USERR2
 40
0.0
  9
$USERR3
 40
0.0
  9
$USERR4
 40
0.0
  9
$USERR5
 40
0.0
  9
$WORLDVIEW
 70
     1
  9
$SHADEDGE
 70
     3
  9
$SHADEDIF
 70
    70
  9
$TILEMODE
 70
     1
  9
$MAXACTVP
 70
    16
  9
$PLIMCHECK
 70
     0
  9
$PEXTMIN
 10
1.0000000000000000E+020
 20
1.0000000000000000E+020
 30
1.0000000000000000E+020
  9
$PEXTMAX
 10
-1.0000000000000000E+020
 20
-1.0000000000000000E+020
 30
-1.0000000000000000E+020
  9
$PLIMMIN
 10
0.0
 20
0.0
  9
$PLIMMAX
 10
12.0
 20
9.0
  9
$UNITMODE
 70
     0
  9
$VISRETAIN
 70
     0
  9
$PLINEGEN
 70
     0
  9
$PSLTSCALE
 70
     0
  0
ENDSEC
  0
SECTION
  2
TABLES
  0
TABLE
  2
VPORT
 70
     1
  0
VPORT
  2
*ACTIVE
 70
     0
 10
0.0
 20
0.0
 11
1.0
 21
1.0
 12
585.00993858023253
 22
403.50448702520742
 13
0.0
 23
0.0
 14
30.0
 24
30.0
 15
30.0
 25
30.0
 16
0.0
 26
0.0
 36
1.0
 17
0.0
 27
0.0
 37
0.0
 40
820.28242528545559
 41
1.8318713450292401
 42
50.0
 43
0.0
 44
0.0
 50
0.0
 51
0.0
 71
     0
 72
   500
 73
     1
 74
     0
 75
     0
 76
     0
 77
     0
 78
     0
  0
ENDTAB
  0
TABLE
  2
LTYPE
 70
     4
  0
LTYPE
  2
CONTINUOUS
 70
     0
  3
Solid Line
 72
    65
 73
     0
 40
0.0
  0
LTYPE
  2
CENTER
 70
     0
  3
____ _ ____ _ ____ _ ____ _ ____ _ ____ _ ____
 72
    65
 73
     4
 40
2.0
 49
1.25
 49
-0.25
 49
0.25
 49
-0.25
  0
LTYPE
  2
HIDDEN
 70
     0
  3
_ _ _ _ _ _ _ _ _ _ _ _ _ _ _ _ _ _ _ _ _ _ _
 72
    65
 73
     2
 40
0.375
 49
0.25
 49
-0.125
  0
LTYPE
  2
PHANTOM2
 70
     0
  3
___ _ _ ___ _ _ ___ _ _ ___ _ _
 72
    65
 73
     6
 40
1.25
 49
0.625
 49
-0.125
 49
0.125
 49
-0.125
 49
0.125
 49
-0.125
  0
ENDTAB
  0
TABLE
  2
LAYER
 70
     5
  0
LAYER
  2
0
 70
     0
 62
     7
  6
CONTINUOUS
  0
LAYER
  2
1
 70
     0
 62
     1
  6
CENTER
  0
LAYER
  2
3
 70
     0
 62
     3
  6
CONTINUOUS
  0
LAYER
  2
2
 70
     0
 62
     2
  6
HIDDEN
  0
LAYER
  2
DEFPOINTS
 70
     0
 62
     7
  6
CONTINUOUS
  0
ENDTAB
  0
TABLE
  2
STYLE
 70
     4
  0
STYLE
  2
STANDARD
 70
     0
 40
0.0
 41
1.0
 50
0.0
 71
     0
 42
0.2
  3
romans.shx
  4

  0
STYLE
  2
K80
 70
     0
 40
0.0
 41
1.0
 50
0.0
 71
     0
 42
3.0
  3
romans.shx
  4

  0
STYLE
  2
06000
 70
     0
 40
0.0
 41
0.6
 50
0.0
 71
     0
 42
3.0
  3
simplex.shx
  4
bigfont.shx
  0
STYLE
  2
STANDARD1
 70
     0
 40
0.0
 41
1.0
 50
0.0
 71
     0
 42
3.0
  3
txt
  4

  0
ENDTAB
  0
TABLE
  2
VIEW
 70
     1
  0
VIEW
  2
ALL
 70
     0
 40
810.0
 10
662.97478991596643
 20
405.0
 41
0.0
 11
0.0
 21
0.0
 31
1.0
 12
0.0
 22
0.0
 32
0.0
 42
0.0
 43
0.0
 44
0.0
 50
0.0
 71
     0
  0
ENDTAB
  0
TABLE
  2
UCS
 70
     0
  0
ENDTAB
  0
TABLE
  2
APPID
 70
    39
  0
APPID
  2
ACAD
 70
     0
  0
APPID
  2
DCO15
 70
     0
  0
APPID
  2
GENIUS_GENOREF_13
 70
     0
  0
APPID
  2
GENIUS_GENOENT_13
 70
     0
  0
APPID
  2
GENIUS_GENBH_13
 70
     0
  0
APPID
  2
GENIUS_GENOBJ_13
 70
     0
  0
APPID
  2
GENIUS_GENODEF_13
 70
     0
  0
APPID
  2
GENIUS_GENOLIS_13
 70
     0
  0
APPID
  2
GENIUS_GENOBJ-NBEHI-BHF_13
 70
     0
  0
APPID
  2
GENIUS_GENOBJ-NBEHI-BHB_13
 70
     0
  0
APPID
  2
GENIUS_GENOBJ-F-PART_13
 70
     0
  0
APPID
  2
GENIUS_GEFSTDP_13
 70
     0
  0
APPID
  2
GENIUS_GENOBJ-N-RSSYM_13
 70
     0
  0
APPID
  2
GENIUS_GENSYMENT_13
 70
     0
  0
APPID
  2
GENIUS_GENOBJ-N-TIT_13
 70
     0
  0
APPID
  2
GENIUS_GENTITLE_13
 70
     0
  0
APPID
  2
GENIUS_GENZVEED_13
 70
     0
  0
APPID
  2
GENIUS_GENOBJ-N-LEADER_13
 70
     0
  0
APPID
  2
GENIUS_GENOBJ-N-FIL_13
 70
     0
  0
APPID
  2
GENIUS_GENOBJ-N-SEC_13
 70
     0
  0
APPID
  2
GENIUS_GENOBJ-N-CRS_13
 70
     0
  0
APPID
  2
GENIUS_GENOBJ-N-ZOO_13
 70
     0
  0
APPID
  2
GENIUS_GENZOO_13
 70
     0
  0
APPID
  2
GENIUS_GENOBJ-F-TOL_13
 70
     0
  0
APPID
  2
GENIUS_GENFIL_13
 70
     0
  0
APPID
  2
GENIUS_GENOBJ-N-CHA_13
 70
     0
  0
APPID
  2
_CALL_MAC$
 70
     0
  0
APPID
  2
ASM_BASE
 70
     0
  0
APPID
  2
ASM_EXPLO_VER_2_00
 70
     0
  0
APPID
  2
ASM_CADM_VER_12_00
 70
     0
  0
APPID
  2
ASM_BASEFORO
 70
     0
  0
APPID
  2
ASM_BASETRAVI
 70
     0
  0
APPID
  2
ASM_BASETRAVI1
 70
     0
  0
APPID
  2
ASM_GRUPPI
 70
     0
  0
APPID
  2
ASM_CADM_ALBERO
 70
     0
  0
APPID
  2
ASM_GOLE
 70
     0
  0
APPID
  2
ACAD_EXEMPT_FROM_CAD_STANDARDS
 70
     0
  0
APPID
  2
ACAD_MLEADERVER
 70
     0
  0
APPID
  2
ACAD_NAV_VCDISPLAY
 70
     0
  0
ENDTAB
  0
TABLE
  2
DIMSTYLE
 70
     1
  0
DIMSTYLE
  2
STANDARD
 70
     0
  3

  4

  5

  6

  7

 40
1.0
 41
0.18
 42
0.0625
 43
0.38
 44
0.18
 45
0.0
 46
0.0
 47
0.0
 48
0.0
140
0.18
141
0.09
142
0.0
143
25.399999999999999
144
1.0
145
0.0
146
1.0
147
0.09
 71
     0
 72
     0
 73
     1
 74
     1
 75
     0
 76
     0
 77
     0
 78
     0
170
     0
171
     2
172
     0
173
     0
174
     0
175
     0
176
     0
177
     0
178
     0
  0
ENDTAB
  0
ENDSEC
  0
SECTION
  2
BLOCKS
  0
BLOCK
  8
0
  2
$MODEL_SPACE
 70
     0
 10
0.0
 20
0.0
 30
0.0
  3
$MODEL_SPACE
  1

  0
ENDBLK
  5
159
  8
0
  0
BLOCK
 67
     1
  8
0
  2
$PAPER_SPACE
 70
     0
 10
0.0
 20
0.0
 30
0.0
  3
$PAPER_SPACE
  1

  0
ENDBLK
  5
157
 67
     1
  8
0
  0
ENDSEC
  0
SECTION
  2
ENTITIES
  0
ARC
  5
6F6
  8
0
 10
236.6605361304016
 20
407.94077238209428
 30
0.0
 40
100.0
 50
93.054236915585349
 51
86.945763084414637
  0
ARC
  5
6F7
  8
0
 10
236.6605361304016
 20
407.94077238209428
 30
0.0
 40
76.0
 50
93.503581058815485
 51
86.496418941197504
  0
LINE
  5
6F8
  8
1
 10
346.66053613040123
 20
407.94077238209428
 30
0.0
 11
126.6605361304016
 21
407.94077238209428
 31
0.0
  0
LINE
  5
6F9
  8
1
 10
236.6605361304016
 20
517.94077238209377
 30
0.0
 11
236.6605361304016
 21
297.94077238209479
 31
0.0
  0
ARC
  5
6FA
  8
0
 10
236.6605361304016
 20
407.94077238209428
 30
0.0
 40
77.5
 50
95.319739744574662
 51
84.680260255425324
  0
LINE
  5
6FB
  8
0
 10
580.87750954566013
 20
777.94077238210718
 30
0.0
 11
596.87750954566013
 21
777.94077238210718
 31
0.0
  0
ARC
  5
6FC
  8
0
 10
580.87750954566013
 20
775.94077238210707
 30
0.0
 40
2.0
 50
90.0
 51
180.0
  0
ARC
  5
6FD
  8
0
 10
596.87750954566013
 20
775.94077238210707
 30
0.0
 40
2.0
 50
0.0
 51
90.0
  0
ARC
  5
6FE
  8
0
 10
596.87750954566013
 20
579.94077238208479
 30
0.0
 40
2.0
 50
270.0
 51
0.0
  0
ARC
  5
6FF
  8
0
 10
580.87750954566013
 20
579.94077238208479
 30
0.0
 40
2.0
 50
180.0
 51
270.0
  0
LINE
  5
700
  8
0
 10
580.87750954566013
 20
577.94077238208467
 30
0.0
 11
596.87750954566013
 21
577.94077238208467
 31
0.0
  0
LINE
  5
701
  8
0
 10
578.87750954566013
 20
775.94077238210707
 30
0.0
 11
578.87750954566013
 21
579.94077238208479
 31
0.0
  0
LINE
  5
702
  8
0
 10
598.87750954566013
 20
775.94077238210707
 30
0.0
 11
598.87750954566025
 21
579.94077238208479
 31
0.0
  0
LINE
  5
703
  8
0
 10
635.87750954566036
 20
697.44077238210537
 30
0.0
 11
635.87750954566036
 21
658.44077238208001
 31
0.0
  0
LINE
  5
704
  8
1
 10
488.87750954566008
 20
677.94077238209604
 30
0.0
 11
645.87750954566025
 21
677.94077238209604
 31
0.0
  0
LINE
  5
705
  8
2
 10
620.87750954566025
 20
680.94077238209854
 30
0.0
 11
620.87750954566025
 21
674.94077238209354
 31
0.0
  0
LINE
  5
706
  8
2
 10
635.87750954566036
 20
674.94077238209354
 30
0.0
 11
620.87750954566025
 21
674.94077238209354
 31
0.0
  0
LINE
  5
708
  8
2
 10
620.87750954566025
 20
674.94077238209354
 30
0.0
 11
619.14545873808993
 21
677.94077238209604
 31
0.0
  0
LINE
  5
709
  8
2
 10
620.87750954566025
 20
680.94077238209854
 30
0.0
 11
619.14545873808993
 21
677.94077238209604
 31
0.0
  0
LINE
  5
70A
  8
2
 10
599.87750954566025
 20
698.94077238212083
 30
0.0
 11
599.87750954566025
 21
656.94077238207115
 31
0.0
  0
LINE
  5
70B
  8
2
 10
580.37750954566013
 20
601.94077238208467
 30
0.0
 11
581.87750954566013
 21
601.94077238208467
 31
0.0
  0
LINE
  5
70C
  8
2
 10
580.37750954566013
 20
601.94077238208467
 30
0.0
 11
578.87750954566013
 21
600.44077238208479
 31
0.0
  0
LINE
  5
70D
  8
2
 10
581.87750954566013
 20
753.94077238210718
 30
0.0
 11
581.87750954566013
 21
601.94077238208467
 31
0.0
  0
LINE
  5
70E
  8
2
 10
580.37750954566013
 20
753.94077238210718
 30
0.0
 11
580.37750954566013
 21
601.94077238208467
 31
0.0
  0
LINE
  5
70F
  8
2
 10
581.87750954566013
 20
601.94077238208467
 30
0.0
 11
602.56861314134881
 21
654.39031405486276
 31
0.0
  0
LINE
  5
710
  8
0
 10
609.17300814476619
 20
651.21706254082335
 30
0.0
 11
598.87750954566013
 21
626.82120716468637
 31
0.0
  0
ARC
  5
711
  8
2
 10
598.38750199235358
 20
599.94077238208479
 30
0.0
 40
10.0
 50
157.11936282358459
 51
262.77115408835971
  0
ARC
  5
712
  8
2
 10
596.87750954566013
 20
588.03615467251836
 30
0.0
 40
2.0
 50
0.0
 51
82.771154088359623
  0
LINE
  5
714
  8
2
 10
601.17326528865851
 20
656.44077238207092
 30
0.0
 11
600.37750954566013
 21
656.44077238207115
 31
0.0
  0
ARC
  5
715
  8
2
 10
601.17326528865851
 20
654.94077238207092
 30
0.0
 40
1.5
 50
338.4709931181518
 51
90.0
  0
LINE
  5
716
  8
2
 10
580.37750954566013
 20
753.94077238210718
 30
0.0
 11
578.87750954566013
 21
755.44077238210707
 31
0.0
  0
LINE
  5
717
  8
2
 10
580.37750954566013
 20
753.94077238210718
 30
0.0
 11
581.87750954566013
 21
753.94077238210718
 31
0.0
  0
LINE
  5
718
  8
2
 10
581.87750954566013
 20
753.94077238210718
 30
0.0
 11
602.56861314134881
 21
701.4912307093291
 31
0.0
  0
LINE
  5
719
  8
0
 10
609.17300814476835
 20
704.66448222336373
 30
0.0
 11
598.87750954566013
 21
729.06033759950571
 31
0.0
  0
ARC
  5
71A
  8
2
 10
601.17326528865851
 20
700.94077238212105
 30
0.0
 40
1.5
 50
270.0
 51
21.52900688184814
  0
LINE
  5
71D
  8
0
 10
613.87750954566013
 20
654.82741936137677
 30
0.0
 11
613.87750954566013
 21
701.05412540280452
 31
0.0
  0
LINE
  5
71E
  8
0
 10
633.87750954565865
 20
699.44077238210718
 30
0.0
 11
614.27750954566022
 21
699.44077238210718
 31
0.0
  0
ARC
  5
71F
  8
0
 10
614.27750954566022
 20
699.84077238210716
 30
0.0
 40
0.4
 50
180.0
 51
270.0
  0
LINE
  5
723
  8
1
 10
259.660536130401
 20
495.94077238209428
 30
0.0
 11
213.660536130401
 21
495.94077238209428
 31
0.0
  0
ARC
  5
72B
  8
0
 10
614.70090927754632
 20
706.99735793077525
 30
0.0
 40
6.0
 50
202.88063717642339
 51
262.11221995169569
  0
LINE
  5
72D
  8
0
 10
633.87750954566184
 20
656.44077238208138
 30
0.0
 11
614.27750954566659
 21
656.44077238207535
 31
0.0
  0
ARC
  5
72E
  8
0
 10
614.27750954566682
 20
656.04077238207515
 30
0.0
 40
0.4
 50
90.000000000013031
 51
180.00000000001299
  0
ARC
  5
731
  8
0
 10
614.70090927755518
 20
648.88418683340728
 30
0.0
 40
6.0
 50
97.887780048330555
 51
157.11936282359511
  0
ARC
  5
732
  8
2
 10
600.37750954566025
 20
656.94077238207115
 30
0.0
 40
0.5
 50
180.0
 51
269.99999999997391
  0
LINE
  5
733
  8
2
 10
635.87750954566047
 20
680.94077238209843
 30
0.0
 11
620.87750954566013
 21
680.94077238209843
 31
0.0
  0
CIRCLE
  5
736
  8
0
 10
236.660536130401
 20
495.94077238209428
 30
0.0
 40
13.0
  0
CIRCLE
  5
737
  8
0
 10
236.6605361304016
 20
407.94077238209428
 30
0.0
 40
21.00000000002478
  0
CIRCLE
  5
738
  8
0
 10
236.6605361304016
 20
407.94077238209428
 30
0.0
 40
21.5
  0
ARC
  5
747
  8
0
 10
502.35332228784722
 20
688.69077238209604
 30
0.0
 40
2.2499999999994569
 50
90.0
 51
166.98942491454929
  0
ARC
  5
748
  8
0
 10
502.35332228784722
 20
667.19077238209627
 30
0.0
 40
2.2499999999994569
 50
193.01057508545071
 51
270.0
  0
ARC
  5
749
  8
0
 10
548.87750954566013
 20
677.94077238209604
 30
0.0
 40
50.0
 50
166.98942491454929
 51
193.01057508545071
  0
LINE
  5
74A
  8
0
 10
502.35332228784722
 20
689.44077238209604
 30
0.0
 11
502.35332228784722
 21
666.44077238209604
 31
0.0
  0
LINE
  5
74B
  8
0
 10
502.35332228784722
 20
690.94077238209547
 30
0.0
 11
548.87750954566013
 21
690.94077238209604
 31
0.0
  0
LINE
  5
74C
  8
0
 10
502.35332228784722
 20
664.94077238209672
 30
0.0
 11
548.87750954566013
 21
664.94077238209604
 31
0.0
  0
LINE
  5
757
  8
0
 10
577.6613879962872
 20
688.51788699062899
 30
0.0
 11
548.87750954566013
 21
690.94077238209604
 31
0.0
  0
LINE
  5
758
  8
0
 10
548.87750954566013
 20
690.94077238209604
 30
0.0
 11
548.87750954566013
 21
664.94077238209604
 31
0.0
  0
LINE
  5
759
  8
0
 10
577.6613879962872
 20
667.36365777356298
 30
0.0
 11
548.87750954566013
 21
664.94077238209604
 31
0.0
  0
ARC
  5
75A
  8
0
 10
577.57750954565995
 20
687.52141099718017
 30
0.0
 40
1.0
 50
0.0
 51
85.188465498322174
  0
LINE
  5
75B
  8
0
 10
578.57750954565995
 20
687.52141099718017
 30
0.0
 11
578.57750954565995
 21
668.36013376701214
 31
0.0
  0
LINE
  5
75C
  8
0
 10
578.57750954565995
 20
683.94077238209604
 30
0.0
 11
578.87750954566013
 21
683.94077238209604
 31
0.0
  0
LINE
  5
75D
  8
0
 10
578.87750954566013
 20
671.94077238209604
 30
0.0
 11
578.57750954565995
 21
671.94077238209604
 31
0.0
  0
ARC
  5
75E
  8
0
 10
577.57750954565995
 20
668.36013376701214
 30
0.0
 40
1.0
 50
274.8115345016779
 51
0.0
  0
ARC
  5
88C
  8
0
 10
903.97097831991255
 20
495.94077238209428
 30
0.0
 40
10.0
 50
193.47108084097459
 51
346.52891915902541
  0
ARC
  5
88D
  8
0
 10
892.30112682624292
 20
493.14531783663978
 30
0.0
 40
2.0
 50
13.471080840974629
 51
97.798865080944609
  0
ARC
  5
88E
  8
0
 10
915.64082981358195
 20
493.14531783663978
 30
0.0
 40
2.0
 50
82.201134919055391
 51
166.52891915902541
  0
ARC
  5
89D
  8
0
 10
903.97097831991255
 20
407.94077238209428
 30
0.0
 40
88.0
 50
97.79886450548419
 51
82.201134919055391
  0
LINE
  5
89E
  8
1
 10
793.970978319913
 20
407.94077238209428
 30
0.0
 11
1013.970978319912
 21
407.94077238209428
 31
0.0
  0
CIRCLE
  5
89F
  8
0
 10
903.97097831991255
 20
407.94077238209428
 30
0.0
 40
100.0
  0
CIRCLE
  5
8A0
  8
0
 10
903.97097831991255
 20
407.94077238209428
 30
0.0
 40
3.0
  0
CIRCLE
  5
8A1
  8
0
 10
903.97097831991255
 20
407.94077238209428
 30
0.0
 40
21.5
  0
LINE
  5
8A2
  8
1
 10
903.97097831991255
 20
517.94077238209377
 30
0.0
 11
903.97097831991255
 21
297.94077238209479
 31
0.0
  0
CIRCLE
  5
8A3
  8
0
 10
903.97097831991255
 20
407.94077238209428
 30
0.0
 40
23.11335302070842
  0
CIRCLE
  5
8A4
  8
3
 10
903.97097831991255
 20
495.94077238209428
 30
0.0
 40
5.0
  0
CIRCLE
  5
8A5
  8
0
 10
903.97097831991255
 20
495.94077238209428
 30
0.0
 40
4.1879999999999988
  0
LINE
  5
8A6
  8
1
 10
913.97097831991368
 20
495.94077238209428
 30
0.0
 11
893.97097831991073
 21
495.94077238209428
 31
0.0
  0
TEXT
  5
991
  8
0
 10
918.79055472448749
 20
367.4170423570958
 30
0.0
 40
10.0
  1
‚c
 50
195.9999999999996
 41
0.6
  7
06000
 72
     1
 11
917.4772087549452
 21
361.83894928111658
 31
0.0
 73
     2
  0
TEXT
  5
992
  8
0
 10
912.86734535463142
 20
365.7586620401533
 30
0.0
 40
10.0
  1
‚`
 50
187.99999999999929
 41
0.6
  7
06000
 72
     1
 11
910.79046026695517
 21
360.41763701375743
 31
0.0
 73
     2
  0
TEXT
  5
993
  8
0
 10
894.34221507340362
 20
365.92860063568418
 30
0.0
 40
10.0
  1
‚O
 50
164.00000000000031
 41
0.6
  7
06000
 72
     1
 11
890.46474788487899
 21
361.83894928111681
 31
0.0
 73
     2
  0
TEXT
  5
994
  8
0
 10
900.42205885639714
 20
365.00712729496911
 30
0.0
 40
10.0
  1
‚O
 50
171.99999999999909
 41
0.6
  7
06000
 72
     1
 11
897.15149637286868
 21
360.41763701375748
 31
0.0
 73
     2
  0
TEXT
  5
995
  8
0
 10
906.7709783199125
 20
364.94077238209428
 30
0.0
 40
10.0
  1
‚Q
 50
180.0
 41
0.6
  7
06000
 72
     1
 11
903.97097831991255
 21
359.94077238209428
 31
0.0
 73
     2
  0
ARC
  5
99E
  8
0
 10
903.97097831991209
 20
495.94077238209428
 30
0.0
 40
13.0
 50
65.804226141779395
 51
114.1957738582206
  0
ARC
  5
9B1
  8
2
 10
600.37750954566025
 20
698.94077238212083
 30
0.0
 40
0.5
 50
90.000000000026048
 51
180.0
  0
LINE
  5
A4D
  8
2
 10
601.17326528865851
 20
699.44077238212105
 30
0.0
 11
600.37750954566013
 21
699.44077238212083
 31
0.0
  0
LINE
  5
A4E
  8
2
 10
602.67326528865851
 20
700.94077238212105
 30
0.0
 11
602.67326528865851
 21
654.94077238207092
 31
0.0
  0
LINE
  5
A4F
  8
2
 10
600.37750954566013
 20
699.44077238212083
 30
0.0
 11
600.37750954566013
 21
656.44077238207115
 31
0.0
  0
LINE
  5
A50
  8
2
 10
598.87750954566013
 20
626.82120716468683
 30
0.0
 11
589.17433343772359
 21
603.82889856110387
 31
0.0
  0
LINE
  5
A5C
  8
0
 10
580.87750954566013
 20
507.94077238210548
 30
0.0
 11
596.87750954566013
 21
507.94077238210548
 31
0.0
  0
ARC
  5
A5D
  8
0
 10
580.87750954566013
 20
505.94077238210542
 30
0.0
 40
2.0
 50
90.0
 51
180.0
  0
ARC
  5
A5E
  8
0
 10
596.87750954566013
 20
505.94077238210542
 30
0.0
 40
2.0
 50
0.0
 51
90.0
  0
ARC
  5
A5F
  8
0
 10
596.87750954566013
 20
309.94077238208308
 30
0.0
 40
2.0
 50
270.0
 51
0.0
  0
ARC
  5
A60
  8
0
 10
580.87750954566013
 20
309.94077238208308
 30
0.0
 40
2.0
 50
180.0
 51
270.0
  0
LINE
  5
A61
  8
0
 10
580.87750954566013
 20
307.94077238208308
 30
0.0
 11
596.87750954566013
 21
307.94077238208308
 31
0.0
  0
LINE
  5
A62
  8
0
 10
578.87750954566013
 20
505.94077238210542
 30
0.0
 11
578.87750954566013
 21
309.94077238208308
 31
0.0
  0
LINE
  5
A63
  8
0
 10
598.87750954566013
 20
505.94077238210542
 30
0.0
 11
598.87750954566025
 21
309.94077238208308
 31
0.0
  0
LINE
  5
A64
  8
0
 10
635.87750954566036
 20
427.44077238210542
 30
0.0
 11
635.87750954566036
 21
388.44077238208001
 31
0.0
  0
LINE
  5
A65
  8
1
 10
568.87750954566047
 20
407.94077238209428
 30
0.0
 11
645.87750954566025
 21
407.94077238209428
 31
0.0
  0
LINE
  5
A66
  8
2
 10
620.87750954566025
 20
410.94077238209678
 30
0.0
 11
620.87750954566025
 21
404.94077238209178
 31
0.0
  0
LINE
  5
A67
  8
2
 10
635.87750954566036
 20
404.94077238209178
 30
0.0
 11
620.87750954566025
 21
404.94077238209178
 31
0.0
  0
LINE
  5
A68
  8
2
 10
620.87750954566025
 20
404.94077238209178
 30
0.0
 11
619.14545873808993
 21
407.94077238209428
 31
0.0
  0
LINE
  5
A69
  8
2
 10
620.87750954566025
 20
410.94077238209678
 30
0.0
 11
619.14545873808993
 21
407.94077238209428
 31
0.0
  0
LINE
  5
A6A
  8
2
 10
599.87750954566025
 20
428.94077238211912
 30
0.0
 11
599.87750954566025
 21
386.94077238206961
 31
0.0
  0
LINE
  5
A6B
  8
2
 10
580.37750954566013
 20
331.94077238208308
 30
0.0
 11
581.87750954566013
 21
331.94077238208308
 31
0.0
  0
LINE
  5
A6C
  8
2
 10
580.37750954566013
 20
331.94077238208308
 30
0.0
 11
578.87750954566013
 21
330.44077238208308
 31
0.0
  0
LINE
  5
A6D
  8
2
 10
581.87750954566013
 20
483.94077238210548
 30
0.0
 11
581.87750954566013
 21
331.94077238208308
 31
0.0
  0
LINE
  5
A6E
  8
2
 10
580.37750954566013
 20
483.94077238210548
 30
0.0
 11
580.37750954566013
 21
331.94077238208308
 31
0.0
  0
LINE
  5
A6F
  8
2
 10
581.87750954566013
 20
331.94077238208308
 30
0.0
 11
602.56861314134881
 21
384.39031405486111
 31
0.0
  0
LINE
  5
A70
  8
0
 10
609.17300814476619
 20
381.21706254082181
 30
0.0
 11
598.87750954566013
 21
356.82120716468478
 31
0.0
  0
ARC
  5
A71
  8
2
 10
598.38750199235358
 20
329.94077238208308
 30
0.0
 40
10.0
 50
157.11936282358309
 51
262.77115408835942
  0
ARC
  5
A72
  8
2
 10
596.87750954566013
 20
318.03615467251677
 30
0.0
 40
2.0
 50
0.0
 51
82.77115408835941
  0
LINE
  5
A73
  8
2
 10
601.17326528865851
 20
386.44077238206921
 30
0.0
 11
600.37750954566013
 21
386.44077238206961
 31
0.0
  0
ARC
  5
A74
  8
2
 10
601.17326528865851
 20
384.94077238206921
 30
0.0
 40
1.5
 50
338.47099311815339
 51
90.0
  0
LINE
  5
A75
  8
2
 10
580.37750954566013
 20
483.94077238210548
 30
0.0
 11
578.87750954566013
 21
485.44077238210542
 31
0.0
  0
LINE
  5
A76
  8
2
 10
580.37750954566013
 20
483.94077238210548
 30
0.0
 11
581.87750954566013
 21
483.94077238210548
 31
0.0
  0
LINE
  5
A77
  8
2
 10
581.87750954566013
 20
483.94077238210548
 30
0.0
 11
602.56861314134881
 21
431.4912307093274
 31
0.0
  0
LINE
  5
A78
  8
0
 10
609.17300814476835
 20
434.66448222336197
 30
0.0
 11
598.87750954566013
 21
459.06033759950401
 31
0.0
  0
ARC
  5
A79
  8
2
 10
601.17326528865851
 20
430.94077238211929
 30
0.0
 40
1.5
 50
270.0
 51
21.52900688184663
  0
LINE
  5
A7A
  8
0
 10
613.87750954566013
 20
384.82741936137518
 30
0.0
 11
613.87750954566013
 21
431.05412540280281
 31
0.0
  0
LINE
  5
A7B
  8
0
 10
633.87750954566025
 20
429.44077238210548
 30
0.0
 11
614.27750954566022
 21
429.44077238210548
 31
0.0
  0
ARC
  5
A7C
  8
0
 10
614.27750954566022
 20
429.84077238210551
 30
0.0
 40
0.4
 50
180.0
 51
270.0
  0
LINE
  5
A7D
  8
2
 10
596.87750954566013
 20
485.94077238209559
 30
0.0
 11
593.5631579004887
 21
485.94077238209559
 31
0.0
  0
ARC
  5
A7E
  8
2
 10
596.87750954566013
 20
487.9407723820957
 30
0.0
 40
2.0
 50
270.0
 51
0.0
  0
ARC
  5
A7F
  8
2
 10
593.5631579004887
 20
481.94077238209559
 30
0.0
 40
4.0
 50
90.0
 51
202.88063717641691
  0
ARC
  5
A80
  8
0
 10
614.70090927754632
 20
436.99735793077349
 30
0.0
 40
6.0
 50
202.88063717642191
 51
262.11221995169552
  0
LINE
  5
A82
  8
0
 10
633.87750954566002
 20
386.44077238207961
 30
0.0
 11
614.27750954566659
 21
386.44077238207359
 31
0.0
  0
ARC
  5
A83
  8
0
 10
614.27750954566682
 20
386.04077238207361
 30
0.0
 40
0.4
 50
90.000000000013031
 51
180.00000000001299
  0
ARC
  5
A85
  8
0
 10
614.70090927755518
 20
378.88418683340569
 30
0.0
 40
6.0
 50
97.887780048330313
 51
157.11936282359511
  0
ARC
  5
A86
  8
2
 10
600.37750954566025
 20
386.94077238206961
 30
0.0
 40
0.5
 50
180.0
 51
269.99999999997391
  0
LINE
  5
A87
  8
2
 10
635.87750954566047
 20
410.94077238209672
 30
0.0
 11
620.87750954566013
 21
410.94077238209672
 31
0.0
  0
ARC
  5
A88
  8
0
 10
502.35332228784722
 20
506.69077238209428
 30
0.0
 40
2.2499999999994569
 50
90.0
 51
166.98942491454929
  0
ARC
  5
A89
  8
0
 10
502.35332228784722
 20
485.19077238209462
 30
0.0
 40
2.2499999999994569
 50
193.01057508545071
 51
270.0
  0
ARC
  5
A8A
  8
0
 10
548.87750954566013
 20
495.94077238209428
 30
0.0
 40
50.0
 50
166.98942491454929
 51
193.01057508545071
  0
LINE
  5
A8B
  8
0
 10
502.35332228784722
 20
507.44077238209428
 30
0.0
 11
502.35332228784722
 21
484.44077238209428
 31
0.0
  0
LINE
  5
A8C
  8
0
 10
502.35332228784722
 20
508.94077238209383
 30
0.0
 11
548.87750954566013
 21
508.94077238209428
 31
0.0
  0
LINE
  5
A8D
  8
0
 10
502.35332228784722
 20
482.94077238209502
 30
0.0
 11
548.87750954566013
 21
482.94077238209428
 31
0.0
  0
LINE
  5
A8E
  8
1
 10
488.87750954566008
 20
495.94077238209428
 30
0.0
 11
608.87750954566013
 21
495.94077238209439
 31
0.0
  0
LINE
  5
A8F
  8
0
 10
577.6613879962872
 20
506.5178869906274
 30
0.0
 11
548.87750954566013
 21
508.94077238209428
 31
0.0
  0
LINE
  5
A90
  8
0
 10
548.87750954566013
 20
508.94077238209428
 30
0.0
 11
548.87750954566013
 21
482.94077238209428
 31
0.0
  0
LINE
  5
A91
  8
0
 10
577.6613879962872
 20
485.36365777356121
 30
0.0
 11
548.87750954566013
 21
482.94077238209428
 31
0.0
  0
ARC
  5
A92
  8
0
 10
577.57750954565995
 20
505.52141099717841
 30
0.0
 40
1.0
 50
0.0
 51
85.188465498322444
  0
LINE
  5
A93
  8
0
 10
578.57750954565995
 20
505.52141099717841
 30
0.0
 11
578.57750954565995
 21
486.36013376701038
 31
0.0
  0
LINE
  5
A94
  8
0
 10
578.57750954565995
 20
501.94077238209428
 30
0.0
 11
578.87750954566013
 21
501.94077238209428
 31
0.0
  0
LINE
  5
A95
  8
0
 10
578.87750954566013
 20
489.94077238209428
 30
0.0
 11
578.57750954565995
 21
489.94077238209428
 31
0.0
  0
ARC
  5
A96
  8
0
 10
577.57750954565995
 20
486.36013376701038
 30
0.0
 40
1.0
 50
274.8115345016775
 51
0.0
  0
ARC
  5
A97
  8
2
 10
600.37750954566025
 20
428.94077238211912
 30
0.0
 40
0.5
 50
90.000000000026048
 51
180.0
  0
LINE
  5
A98
  8
2
 10
601.17326528865851
 20
429.44077238211941
 30
0.0
 11
600.37750954566013
 21
429.44077238211912
 31
0.0
  0
LINE
  5
A99
  8
2
 10
602.67326528865851
 20
430.94077238211929
 30
0.0
 11
602.67326528865851
 21
384.94077238206921
 31
0.0
  0
LINE
  5
A9A
  8
2
 10
600.37750954566013
 20
429.44077238211912
 30
0.0
 11
600.37750954566013
 21
386.44077238206961
 31
0.0
  0
LINE
  5
A9B
  8
2
 10
598.87750954566013
 20
356.82120716468512
 30
0.0
 11
589.17433343772359
 21
333.82889856110228
 31
0.0
  0
LINE
  5
A9C
  8
2
 10
598.87750954566013
 20
459.06033759950429
 30
0.0
 11
589.87789047863669
 21
480.38552191048802
 31
0.0
  0
ARC
  5
AA5
  8
2
 10
598.38750199235358
 20
755.9407723821073
 30
0.0
 40
10.0
 50
97.228845911640363
 51
202.88063717641089
  0
ARC
  5
AA6
  8
2
 10
596.87750954566013
 20
767.84539009167361
 30
0.0
 40
2.0
 50
277.22884591164041
 51
0.0
  0
LINE
  5
AA7
  8
2
 10
598.87750954566013
 20
729.06033759950515
 30
0.0
 11
589.17433343772359
 21
752.0526462030881
 31
0.0
  0
LINE
  5
AAA
  8
0
 10
580.87750954566013
 20
237.94077238210721
 30
0.0
 11
596.87750954566013
 21
237.94077238210721
 31
0.0
  0
ARC
  5
AAB
  8
0
 10
580.87750954566013
 20
235.94077238210721
 30
0.0
 40
2.0
 50
90.0
 51
180.0
  0
ARC
  5
AAC
  8
0
 10
596.87750954566013
 20
235.94077238210721
 30
0.0
 40
2.0
 50
0.0
 51
90.0
  0
ARC
  5
AAD
  8
0
 10
596.87750954566013
 20
39.940772382084788
 30
0.0
 40
2.0
 50
270.0
 51
0.0
  0
ARC
  5
AAE
  8
0
 10
580.87750954566013
 20
39.940772382084788
 30
0.0
 40
2.0
 50
180.0
 51
270.0
  0
LINE
  5
AAF
  8
0
 10
580.87750954566013
 20
37.940772382084788
 30
0.0
 11
596.87750954566013
 21
37.940772382084788
 31
0.0
  0
LINE
  5
AB0
  8
0
 10
578.87750954566013
 20
235.94077238210721
 30
0.0
 11
578.87750954566013
 21
39.940772382084788
 31
0.0
  0
LINE
  5
AB1
  8
0
 10
598.87750954566013
 20
235.94077238210721
 30
0.0
 11
598.87750954566025
 21
39.940772382084788
 31
0.0
  0
LINE
  5
AB2
  8
0
 10
635.87750954566036
 20
157.44077238210539
 30
0.0
 11
635.87750954566036
 21
118.44077238208
 31
0.0
  0
LINE
  5
AB3
  8
1
 10
488.87750954566008
 20
137.94077238209599
 30
0.0
 11
645.87750954566025
 21
137.94077238209599
 31
0.0
  0
LINE
  5
AB4
  8
2
 10
620.87750954566025
 20
140.94077238209849
 30
0.0
 11
620.87750954566025
 21
134.94077238209351
 31
0.0
  0
LINE
  5
AB5
  8
2
 10
635.87750954566036
 20
134.94077238209351
 30
0.0
 11
620.87750954566025
 21
134.94077238209351
 31
0.0
  0
LINE
  5
AB6
  8
2
 10
620.87750954566025
 20
134.94077238209351
 30
0.0
 11
619.14545873808993
 21
137.94077238209599
 31
0.0
  0
LINE
  5
AB7
  8
2
 10
620.87750954566025
 20
140.94077238209849
 30
0.0
 11
619.14545873808993
 21
137.94077238209599
 31
0.0
  0
LINE
  5
AB8
  8
2
 10
599.87750954566025
 20
158.9407723821208
 30
0.0
 11
599.87750954566025
 21
116.9407723820712
 31
0.0
  0
LINE
  5
AB9
  8
2
 10
580.37750954566013
 20
61.940772382084781
 30
0.0
 11
581.87750954566013
 21
61.940772382084781
 31
0.0
  0
LINE
  5
ABA
  8
2
 10
580.37750954566013
 20
61.940772382084781
 30
0.0
 11
578.87750954566013
 21
60.440772382084788
 31
0.0
  0
LINE
  5
ABB
  8
2
 10
581.87750954566013
 20
213.94077238210721
 30
0.0
 11
581.87750954566013
 21
61.940772382084781
 31
0.0
  0
LINE
  5
ABC
  8
2
 10
580.37750954566013
 20
213.94077238210721
 30
0.0
 11
580.37750954566013
 21
61.940772382084781
 31
0.0
  0
LINE
  5
ABD
  8
2
 10
581.87750954566013
 20
61.940772382084781
 30
0.0
 11
602.56861314134881
 21
114.3903140548627
 31
0.0
  0
LINE
  5
ABE
  8
0
 10
609.17300814476619
 20
111.21706254082341
 30
0.0
 11
598.87750954566013
 21
86.821207164686484
 31
0.0
  0
ARC
  5
ABF
  8
2
 10
598.38750199235358
 20
59.940772382084788
 30
0.0
 40
10.0
 50
157.11936282358729
 51
262.77115408835948
  0
ARC
  5
AC0
  8
2
 10
596.87750954566013
 20
48.036154672518478
 30
0.0
 40
2.0
 50
0.0
 51
82.771154088359509
  0
LINE
  5
AC1
  8
2
 10
601.17326528865851
 20
116.4407723820709
 30
0.0
 11
600.37750954566013
 21
116.4407723820712
 31
0.0
  0
ARC
  5
AC2
  8
2
 10
601.17326528865851
 20
114.9407723820709
 30
0.0
 40
1.5
 50
338.47099311815469
 51
90.0
  0
LINE
  5
AC3
  8
2
 10
580.37750954566013
 20
213.94077238210721
 30
0.0
 11
578.87750954566013
 21
215.44077238210721
 31
0.0
  0
LINE
  5
AC4
  8
2
 10
580.37750954566013
 20
213.94077238210721
 30
0.0
 11
581.87750954566013
 21
213.94077238210721
 31
0.0
  0
LINE
  5
AC5
  8
2
 10
581.87750954566013
 20
213.94077238210721
 30
0.0
 11
602.56861314134881
 21
161.49123070932919
 31
0.0
  0
LINE
  5
AC6
  8
0
 10
609.17300814476835
 20
164.66448222336371
 30
0.0
 11
598.87750954566013
 21
189.06033759950569
 31
0.0
  0
ARC
  5
AC7
  8
2
 10
601.17326528865851
 20
160.940772382121
 30
0.0
 40
1.5
 50
270.0
 51
21.529006881845302
  0
LINE
  5
AC8
  8
0
 10
613.87750954566013
 20
114.8274193613769
 30
0.0
 11
613.87750954566013
 21
161.05412540280449
 31
0.0
  0
LINE
  5
AC9
  8
0
 10
633.87750954565865
 20
159.44077238210721
 30
0.0
 11
614.27750954566022
 21
159.44077238210721
 31
0.0
  0
ARC
  5
ACA
  8
0
 10
614.27750954566022
 20
159.8407723821073
 30
0.0
 40
0.4
 50
180.0
 51
270.0
  0
ARC
  5
ACB
  8
0
 10
614.70090927754632
 20
166.99735793077519
 30
0.0
 40
6.0
 50
202.88063717642589
 51
262.11221995169541
  0
LINE
  5
ACD
  8
0
 10
633.87750954566172
 20
116.44077238208131
 30
0.0
 11
614.27750954566659
 21
116.44077238207529
 31
0.0
  0
ARC
  5
ACE
  8
0
 10
614.27750954566682
 20
116.0407723820752
 30
0.0
 40
0.4
 50
90.000000000013017
 51
180.00000000001299
  0
ARC
  5
AD0
  8
0
 10
614.70090927755518
 20
108.8841868334074
 30
0.0
 40
6.0
 50
97.887780048330313
 51
157.11936282359491
  0
ARC
  5
AD1
  8
2
 10
600.37750954566025
 20
116.9407723820712
 30
0.0
 40
0.5
 50
180.0
 51
269.99999999997391
  0
LINE
  5
AD2
  8
2
 10
635.87750954566047
 20
140.9407723820984
 30
0.0
 11
620.87750954566013
 21
140.9407723820984
 31
0.0
  0
ARC
  5
AD3
  8
0
 10
502.35332228784722
 20
148.69077238209599
 30
0.0
 40
2.2499999999994569
 50
90.0
 51
166.98942491454949
  0
ARC
  5
AD4
  8
0
 10
502.35332228784722
 20
127.1907723820962
 30
0.0
 40
2.2499999999994569
 50
193.0105750854504
 51
270.0
  0
ARC
  5
AD5
  8
0
 10
548.87750954566013
 20
137.94077238209599
 30
0.0
 40
50.0
 50
166.98942491454949
 51
193.0105750854504
  0
LINE
  5
AD6
  8
0
 10
502.35332228784722
 20
149.44077238209599
 30
0.0
 11
502.35332228784722
 21
126.440772382096
 31
0.0
  0
LINE
  5
AD7
  8
0
 10
502.35332228784722
 20
150.94077238209559
 30
0.0
 11
548.87750954566013
 21
150.94077238209599
 31
0.0
  0
LINE
  5
AD8
  8
0
 10
502.35332228784722
 20
124.9407723820967
 30
0.0
 11
548.87750954566013
 21
124.940772382096
 31
0.0
  0
LINE
  5
AD9
  8
0
 10
577.6613879962872
 20
148.51788699062911
 30
0.0
 11
548.87750954566013
 21
150.94077238209599
 31
0.0
  0
LINE
  5
ADA
  8
0
 10
548.87750954566013
 20
150.94077238209599
 30
0.0
 11
548.87750954566013
 21
124.940772382096
 31
0.0
  0
LINE
  5
ADB
  8
0
 10
577.6613879962872
 20
127.36365777356291
 30
0.0
 11
548.87750954566013
 21
124.940772382096
 31
0.0
  0
ARC
  5
ADC
  8
0
 10
577.57750954565995
 20
147.52141099718011
 30
0.0
 40
1.0
 50
0.0
 51
85.188465498322387
  0
LINE
  5
ADD
  8
0
 10
578.57750954565995
 20
147.52141099718011
 30
0.0
 11
578.57750954565995
 21
128.36013376701209
 31
0.0
  0
LINE
  5
ADE
  8
0
 10
578.57750954565995
 20
143.94077238209599
 30
0.0
 11
578.87750954566013
 21
143.94077238209599
 31
0.0
  0
LINE
  5
ADF
  8
0
 10
578.87750954566013
 20
131.94077238209599
 30
0.0
 11
578.57750954565995
 21
131.94077238209599
 31
0.0
  0
ARC
  5
AE0
  8
0
 10
577.57750954565995
 20
128.36013376701209
 30
0.0
 40
1.0
 50
274.81153450167761
 51
0.0
  0
ARC
  5
AE1
  8
2
 10
600.37750954566025
 20
158.9407723821208
 30
0.0
 40
0.5
 50
90.000000000026048
 51
180.0
  0
LINE
  5
AE2
  8
2
 10
601.17326528865851
 20
159.4407723821212
 30
0.0
 11
600.37750954566013
 21
159.4407723821208
 31
0.0
  0
LINE
  5
AE3
  8
2
 10
602.67326528865851
 20
160.940772382121
 30
0.0
 11
602.67326528865851
 21
114.9407723820709
 31
0.0
  0
LINE
  5
AE4
  8
2
 10
600.37750954566013
 20
159.4407723821208
 30
0.0
 11
600.37750954566013
 21
116.4407723820712
 31
0.0
  0
LINE
  5
AE5
  8
2
 10
598.87750954566013
 20
86.821207164686825
 30
0.0
 11
589.17433343772359
 21
63.828898561103991
 31
0.0
  0
ARC
  5
AE6
  8
2
 10
598.38750199235358
 20
215.9407723821073
 30
0.0
 40
10.0
 50
97.228845911640491
 51
202.88063717641199
  0
ARC
  5
AE7
  8
2
 10
596.87750954566013
 20
227.84539009167361
 30
0.0
 40
2.0
 50
277.22884591164052
 51
0.0
  0
LINE
  5
AE8
  8
2
 10
598.87750954566013
 20
189.0603375995052
 30
0.0
 11
589.17433343772359
 21
212.0526462030881
 31
0.0
  0
LINE
  5
BE7
  8
0
 10
633.87750954566025
 20
429.44077238210542
 30
0.0
 11
635.87750954566036
 21
427.44077238210542
 31
0.0
  0
LINE
  5
BE8
  8
0
 10
635.87750954566036
 20
388.44077238208013
 30
0.0
 11
633.8775095456599
 21
386.44077238207961
 31
0.0
  0
LINE
  5
BE9
  8
0
 10
633.87750954566025
 20
699.44077238210548
 30
0.0
 11
635.87750954566036
 21
697.44077238210537
 31
0.0
  0
LINE
  5
BEA
  8
0
 10
635.87750954566036
 20
658.44077238208013
 30
0.0
 11
633.8775095456599
 21
656.44077238207944
 31
0.0
  0
LINE
  5
BEB
  8
0
 10
633.87750954566025
 20
159.44077238210539
 30
0.0
 11
635.87750954566036
 21
157.44077238210539
 31
0.0
  0
LINE
  5
BEC
  8
0
 10
635.87750954566036
 20
118.4407723820801
 30
0.0
 11
633.8775095456599
 21
116.4407723820795
 31
0.0
  0
LINE
  5
BF0
  8
0
 10
633.87750954566025
 20
699.44077238210718
 30
0.0
 11
633.87750954566025
 21
656.44077238208138
 31
0.0
  0
LINE
  5
BF1
  8
0
 10
633.87750954566025
 20
159.4407723821071
 30
0.0
 11
633.87750954566025
 21
116.44077238208131
 31
0.0
  0
LINE
  5
BF2
  8
0
 10
633.87750954566036
 20
429.44077238210548
 30
0.0
 11
633.87750954566025
 21
386.44077238207961
 31
0.0
  0
TEXT
  5
C60
  8
0
 62
     3
 10
0.0
 20
0.0
 30
0.0
 40
10.0
  1
DA200RG
  7
STANDARD1
  0
ENDSEC
  0
EOF
