  0
SECTION
  2
HEADER
  9
$ACADVER
  1
AC1009
  9
$INSBASE
 10
0.0
 20
0.0
 30
0.0
  9
$EXTMIN
 10
0.0
 20
-2.960436562073669
 30
0.0
  9
$EXTMAX
 10
138.297450889381
 20
83.499999999999133
 30
0.0
  9
$LIMMIN
 10
0.0
 20
0.0
  9
$LIMMAX
 10
375.0
 20
270.0
  9
$ORTHOMODE
 70
     1
  9
$REGENMODE
 70
     1
  9
$FILLMODE
 70
     1
  9
$QTEXTMODE
 70
     0
  9
$MIRRTEXT
 70
     0
  9
$DRAGMODE
 70
     2
  9
$LTSCALE
 40
5.0
  9
$OSMODE
 70
  3071
  9
$ATTMODE
 70
     1
  9
$TEXTSIZE
 40
5.0
  9
$TRACEWID
 40
0.05
  9
$TEXTSTYLE
  7
STANDARD
  9
$CLAYER
  8
0
  9
$CELTYPE
  6
BYLAYER
  9
$CECOLOR
 62
   256
  9
$DIMSCALE
 40
1.0
  9
$DIMASZ
 40
3.0
  9
$DIMEXO
 40
2.0
  9
$DIMDLI
 40
0.3799999999999999
  9
$DIMRND
 40
0.0
  9
$DIMDLE
 40
0.0
  9
$DIMEXE
 40
2.0
  9
$DIMTP
 40
0.0
  9
$DIMTM
 40
0.0
  9
$DIMTXT
 40
3.2000000000000002
  9
$DIMCEN
 40
0.0
  9
$DIMTSZ
 40
0.0
  9
$DIMTOL
 70
     0
  9
$DIMLIM
 70
     0
  9
$DIMTIH
 70
     0
  9
$DIMTOH
 70
     0
  9
$DIMSE1
 70
     0
  9
$DIMSE2
 70
     0
  9
$DIMTAD
 70
     1
  9
$DIMZIN
 70
     0
  9
$DIMBLK
  1

  9
$DIMASO
 70
     0
  9
$DIMSHO
 70
     0
  9
$DIMPOST
  1

  9
$DIMAPOST
  1

  9
$DIMALT
 70
     0
  9
$DIMALTD
 70
     2
  9
$DIMALTF
 40
25.399999999999999
  9
$DIMLFAC
 40
1.0
  9
$DIMTOFL
 70
     1
  9
$DIMTVP
 40
0.0
  9
$DIMTIX
 70
     1
  9
$DIMSOXD
 70
     0
  9
$DIMSAH
 70
     0
  9
$DIMBLK1
  1

  9
$DIMBLK2
  1

  9
$DIMSTYLE
  2
STANDARD
  9
$DIMCLRD
 70
     0
  9
$DIMCLRE
 70
     0
  9
$DIMCLRT
 70
     0
  9
$DIMTFAC
 40
1.0
  9
$DIMGAP
 40
0.09
  9
$LUNITS
 70
     2
  9
$LUPREC
 70
     4
  9
$SKETCHINC
 40
0.1
  9
$FILLETRAD
 40
0.0
  9
$AUNITS
 70
     0
  9
$AUPREC
 70
     0
  9
$MENU
  1
E:\r13\win\SUPPORT\ACAD
  9
$ELEVATION
 40
0.0
  9
$PELEVATION
 40
0.0
  9
$THICKNESS
 40
0.0
  9
$LIMCHECK
 70
     0
  9
$BLIPMODE
 70
     0
  9
$CHAMFERA
 40
0.0
  9
$CHAMFERB
 40
0.0
  9
$SKPOLY
 70
     0
  9
$TDCREATE
 40
2449840.6505208332
  9
$TDUPDATE
 40
2456598.602347685
  9
$TDINDWG
 40
0.0132834606
  9
$TDUSRTIMER
 40
0.0132834606
  9
$USRTIMER
 70
     1
  9
$ANGBASE
 50
0.0
  9
$ANGDIR
 70
     0
  9
$PDMODE
 70
     0
  9
$PDSIZE
 40
0.0
  9
$PLINEWID
 40
0.0
  9
$COORDS
 70
     1
  9
$SPLFRAME
 70
     0
  9
$SPLINETYPE
 70
     6
  9
$SPLINESEGS
 70
     8
  9
$ATTDIA
 70
     0
  9
$ATTREQ
 70
     1
  9
$HANDLING
 70
     1
  9
$HANDSEED
  5
3FE
  9
$SURFTAB1
 70
     6
  9
$SURFTAB2
 70
     6
  9
$SURFTYPE
 70
     6
  9
$SURFU
 70
     6
  9
$SURFV
 70
     6
  9
$UCSNAME
  2

  9
$UCSORG
 10
0.0
 20
0.0
 30
0.0
  9
$UCSXDIR
 10
1.0
 20
0.0
 30
0.0
  9
$UCSYDIR
 10
0.0
 20
1.0
 30
0.0
  9
$PUCSNAME
  2

  9
$PUCSORG
 10
0.0
 20
0.0
 30
0.0
  9
$PUCSXDIR
 10
1.0
 20
0.0
 30
0.0
  9
$PUCSYDIR
 10
0.0
 20
1.0
 30
0.0
  9
$USERI1
 70
     0
  9
$USERI2
 70
     1
  9
$USERI3
 70
     0
  9
$USERI4
 70
     0
  9
$USERI5
 70
     0
  9
$USERR1
 40
0.0
  9
$USERR2
 40
0.0
  9
$USERR3
 40
0.0
  9
$USERR4
 40
0.0
  9
$USERR5
 40
0.0
  9
$WORLDVIEW
 70
     1
  9
$SHADEDGE
 70
     3
  9
$SHADEDIF
 70
    70
  9
$TILEMODE
 70
     1
  9
$MAXACTVP
 70
    16
  9
$PLIMCHECK
 70
     0
  9
$PEXTMIN
 10
1.0000000000000000E+020
 20
1.0000000000000000E+020
 30
1.0000000000000000E+020
  9
$PEXTMAX
 10
-1.0000000000000000E+020
 20
-1.0000000000000000E+020
 30
-1.0000000000000000E+020
  9
$PLIMMIN
 10
0.0
 20
0.0
  9
$PLIMMAX
 10
12.0
 20
9.0
  9
$UNITMODE
 70
     0
  9
$VISRETAIN
 70
     0
  9
$PLINEGEN
 70
     0
  9
$PSLTSCALE
 70
     0
  0
ENDSEC
  0
SECTION
  2
TABLES
  0
TABLE
  2
VPORT
 70
     1
  0
VPORT
  2
*ACTIVE
 70
     0
 10
0.0
 20
0.0
 11
1.0
 21
1.0
 12
195.0581083320873
 22
133.5127261426681
 13
0.0
 23
0.0
 14
10.0
 24
10.0
 15
10.0
 25
10.0
 16
0.0
 26
0.0
 36
1.0
 17
0.0
 27
0.0
 37
0.0
 40
275.42274993631997
 41
1.831871345029239
 42
50.0
 43
0.0
 44
0.0
 50
0.0
 51
0.0
 71
     0
 72
   500
 73
     1
 74
     0
 75
     0
 76
     0
 77
     0
 78
     0
  0
ENDTAB
  0
TABLE
  2
LTYPE
 70
     4
  0
LTYPE
  2
CONTINUOUS
 70
     0
  3
Solid Line
 72
    65
 73
     0
 40
0.0
  0
LTYPE
  2
CENTER
 70
     0
  3
____ _ ____ _ ____ _ ____ _ ____ _ ____ _ ____
 72
    65
 73
     4
 40
2.0
 49
1.25
 49
-0.25
 49
0.25
 49
-0.25
  0
LTYPE
  2
HIDDEN
 70
     0
  3
_ _ _ _ _ _ _ _ _ _ _ _ _ _ _ _ _ _ _ _ _ _ _
 72
    65
 73
     2
 40
0.375
 49
0.25
 49
-0.125
  0
LTYPE
  2
PHANTOM2
 70
     0
  3
___ _ _ ___ _ _ ___ _ _ ___ _ _
 72
    65
 73
     6
 40
1.25
 49
0.625
 49
-0.125
 49
0.125
 49
-0.125
 49
0.125
 49
-0.125
  0
ENDTAB
  0
TABLE
  2
LAYER
 70
     4
  0
LAYER
  2
0
 70
     0
 62
     7
  6
CONTINUOUS
  0
LAYER
  2
1
 70
     0
 62
     1
  6
CENTER
  0
LAYER
  2
2
 70
     0
 62
     2
  6
HIDDEN
  0
LAYER
  2
3
 70
     0
 62
     3
  6
CONTINUOUS
  0
ENDTAB
  0
TABLE
  2
STYLE
 70
     2
  0
STYLE
  2
STANDARD
 70
     0
 40
0.0
 41
1.0
 50
0.0
 71
     0
 42
5.0
  3
TXT
  4
BIGFONT
  0
STYLE
  2
STANDARD1
 70
     0
 40
0.0
 41
1.0
 50
0.0
 71
     0
 42
3.0
  3
txt
  4

  0
ENDTAB
  0
TABLE
  2
VIEW
 70
     1
  0
VIEW
  2
ALL
 70
     0
 40
270.0
 10
220.99159663865549
 20
135.0
 41
0.0
 11
0.0
 21
0.0
 31
1.0
 12
0.0
 22
0.0
 32
0.0
 42
0.0
 43
0.0
 44
0.0
 50
0.0
 71
     0
  0
ENDTAB
  0
TABLE
  2
UCS
 70
     0
  0
ENDTAB
  0
TABLE
  2
APPID
 70
     6
  0
APPID
  2
ACAD
 70
     0
  0
APPID
  2
GENIUS_GENODEF_13
 70
     0
  0
APPID
  2
GENIUS_GENOREF_13
 70
     0
  0
APPID
  2
GENIUS_GENOBJ-N-FIL_13
 70
     0
  0
APPID
  2
ACAD_MLEADERVER
 70
     0
  0
APPID
  2
ACAD_NAV_VCDISPLAY
 70
     0
  0
ENDTAB
  0
TABLE
  2
DIMSTYLE
 70
     1
  0
DIMSTYLE
  2
STANDARD
 70
     0
  3

  4

  5

  6

  7

 40
1.0
 41
0.18
 42
0.0625
 43
0.38
 44
0.18
 45
0.0
 46
0.0
 47
0.0
 48
0.0
140
0.18
141
0.09
142
0.0
143
25.399999999999999
144
1.0
145
0.0
146
1.0
147
0.09
 71
     0
 72
     0
 73
     1
 74
     1
 75
     0
 76
     0
 77
     0
 78
     0
170
     0
171
     2
172
     0
173
     0
174
     0
175
     0
176
     0
177
     0
178
     0
  0
ENDTAB
  0
ENDSEC
  0
SECTION
  2
BLOCKS
  0
BLOCK
  8
0
  2
$MODEL_SPACE
 70
     0
 10
0.0
 20
0.0
 30
0.0
  3
$MODEL_SPACE
  1

  0
ENDBLK
  5
28A
  8
0
  0
BLOCK
 67
     1
  8
0
  2
$PAPER_SPACE
 70
     0
 10
0.0
 20
0.0
 30
0.0
  3
$PAPER_SPACE
  1

  0
ENDBLK
  5
288
 67
     1
  8
0
  0
BLOCK
  8
0
  2
STDGX5
 70
     0
 10
0.0
 20
0.0
 30
0.0
  3
STDGX5
  1

  0
ENDBLK
  5
19D
  8
0
  0
ENDSEC
  0
SECTION
  2
ENTITIES
  0
LINE
  5
161
  8
1
 10
138.297450889381
 20
71.500000000000355
 30
0.0
 11
101.0474508893757
 21
71.499999999989996
 31
0.0
  0
LINE
  5
162
  8
3
 10
133.24745088938141
 20
69.113499999997373
 30
0.0
 11
123.74745088939081
 21
69.113499999996037
 31
0.0
  0
LINE
  5
163
  8
3
 10
133.24745088938059
 20
73.886499999997341
 30
0.0
 11
123.74745088939009
 21
73.886499999996005
 31
0.0
  0
LINE
  5
164
  8
0
 10
132.74745088938141
 20
68.499999999997243
 30
0.0
 11
123.74745088939081
 21
68.499999999995993
 31
0.0
  0
LINE
  5
165
  8
0
 10
123.74745088939
 20
74.499999999996021
 30
0.0
 11
132.74745088938059
 21
74.499999999997243
 31
0.0
  0
LINE
  5
166
  8
1
 10
61.276464843406472
 20
59.49999999999914
 30
0.0
 11
61.276464843406472
 21
83.499999999999133
 31
0.0
1001
GENIUS_GENOREF_13
1005
0
  0
LINE
  5
167
  8
1
 10
73.276464843406472
 20
71.499999999999147
 30
0.0
 11
49.276464843406472
 21
71.499999999999147
 31
0.0
1001
GENIUS_GENOREF_13
1005
0
  0
LINE
  5
168
  8
0
 10
63.27647215725878
 20
72.654704761032974
 30
0.0
 11
61.276464843406472
 21
73.809409522066872
 31
0.0
  0
LINE
  5
169
  8
0
 10
61.276464843406472
 20
69.190590477931451
 30
0.0
 11
63.27647215725878
 21
70.345295238965321
 31
0.0
  0
CIRCLE
  5
16A
  8
0
 10
61.276464843406472
 20
71.499999999999147
 30
0.0
 40
7.0
  0
LINE
  5
16B
  8
0
 10
59.276457529554158
 20
70.345295238965363
 30
0.0
 11
61.276464843406472
 21
69.190590477931451
 31
0.0
  0
LINE
  5
16C
  8
0
 10
59.276457529554158
 20
72.654704761032974
 30
0.0
 11
59.276457529554158
 21
70.345295238965363
 31
0.0
  0
LINE
  5
16D
  8
0
 10
61.276464843406472
 20
73.809409522066872
 30
0.0
 11
59.276457529554158
 21
72.654704761032974
 31
0.0
  0
LINE
  5
172
  8
0
 10
109.7474508893677
 20
78.499999999991758
 30
0.0
 11
106.3474508893737
 21
78.499999999989086
 31
0.0
  0
LINE
  5
173
  8
0
 10
109.7474508893804
 20
64.499999999991743
 30
0.0
 11
106.3474508893776
 21
64.499999999989086
 31
0.0
  0
LINE
  5
174
  8
0
 10
106.04745088937381
 20
78.199999999988833
 30
0.0
 11
106.0474508893777
 21
64.79999999998887
 31
0.0
  0
LINE
  5
175
  8
0
 10
106.3474508893737
 20
78.499999999989086
 30
0.0
 11
106.3474508893776
 21
64.499999999989086
 31
0.0
  0
LINE
  5
176
  8
0
 10
63.27647215725878
 20
70.345295238965321
 30
0.0
 11
63.27647215725878
 21
72.654704761032974
 31
0.0
  0
LINE
  5
177
  8
0
 10
106.0474508893777
 20
64.79999999998887
 30
0.0
 11
106.3474508893776
 21
64.499999999989086
 31
0.0
  0
LINE
  5
178
  8
0
 10
106.04745088937381
 20
78.199999999988833
 30
0.0
 11
106.3474508893737
 21
78.499999999989086
 31
0.0
  0
LINE
  5
179
  8
0
 10
110.0474508893801
 20
64.799999999991996
 30
0.0
 11
110.04745088936789
 21
78.199999999991974
 31
0.0
  0
LINE
  5
17A
  8
0
 10
109.7474508893677
 20
78.499999999991758
 30
0.0
 11
109.7474508893804
 21
64.499999999991743
 31
0.0
  0
LINE
  5
17B
  8
0
 10
121.4474508893782
 20
67.499999999995666
 30
0.0
 11
112.0474508893776
 21
67.499999999993037
 31
0.0
  0
LINE
  5
17C
  8
0
 10
121.44745088938031
 20
75.499999999995595
 30
0.0
 11
112.0474508893704
 21
75.499999999992994
 31
0.0
  0
LINE
  5
17D
  8
0
 10
112.0474508893776
 20
67.499999999993037
 30
0.0
 11
112.0474508893704
 21
75.499999999992994
 31
0.0
  0
ARC
  5
17E
  8
0
 10
111.2483797288231
 20
67.299999999992849
 30
0.0
 40
0.4
 50
75.000000000031491
 51
90.000000000016215
1001
GENIUS_GENODEF_13
1002
{
1000
HIER
1070
     0
1002
}
1002
{
1000
MANEDIT
1070
     0
1002
}
1002
{
1000
NOSEL
1070
     0
1002
}
1002
{
1000
BEHIND
1070
     0
1002
}
1002
{
1000
REACTOR
1002
}
1001
GENIUS_GENOBJ-N-FIL_13
1002
{
1000
OWNER
1000
GEN
1002
}
  0
LINE
  5
17F
  8
0
 10
112.0474508893726
 20
67.499999999993094
 30
0.0
 11
111.3519073468639
 21
67.686370330508538
 31
0.0
  0
LINE
  5
180
  8
0
 10
110.0474508893801
 20
64.799999999991996
 30
0.0
 11
109.7474508893804
 21
64.499999999991743
 31
0.0
  0
LINE
  5
181
  8
0
 10
111.248379728823
 20
67.699999999992855
 30
0.0
 11
110.0474508893726
 21
67.699999999992514
 31
0.0
  0
ARC
  5
185
  8
0
 10
111.24837972882089
 20
75.699999999992784
 30
0.0
 40
0.4
 50
270.00000000001558
 51
285.00000000000119
1001
GENIUS_GENODEF_13
1002
{
1000
HIER
1070
     0
1002
}
1002
{
1000
MANEDIT
1070
     0
1002
}
1002
{
1000
NOSEL
1070
     0
1002
}
1002
{
1000
BEHIND
1070
     0
1002
}
1002
{
1000
REACTOR
1002
}
1001
GENIUS_GENOBJ-N-FIL_13
1002
{
1000
OWNER
1000
GEN
1002
}
  0
LINE
  5
186
  8
0
 10
112.0474508893704
 20
75.499999999992994
 30
0.0
 11
111.35190734686201
 21
75.313629669477166
 31
0.0
  0
LINE
  5
187
  8
0
 10
111.24837972882111
 20
75.299999999992792
 30
0.0
 11
110.04745088937059
 21
75.299999999992451
 31
0.0
  0
LINE
  5
188
  8
0
 10
123.7474508893893
 20
74.499999999996035
 30
0.0
 11
123.7474508893912
 21
68.499999999996021
 31
0.0
  0
LINE
  5
189
  8
0
 10
121.7474508893805
 20
75.19999999999564
 30
0.0
 11
121.7474508893812
 21
67.799999999995606
 31
0.0
  0
ARC
  5
18A
  8
0
 10
123.4974508893911
 20
69.049999999996231
 30
0.0
 40
0.25
 50
0.0000000000119589
 51
89.999999999999048
  0
ARC
  5
18B
  8
0
 10
121.997450889381
 20
69.049999999996274
 30
0.0
 40
0.25
 50
90.0
 51
180.0000000000048
  0
ARC
  5
18C
  8
0
 10
121.4474508893781
 20
67.799999999995563
 30
0.0
 40
0.3
 50
270.00000000001489
 51
0.0
1001
GENIUS_GENODEF_13
1002
{
1000
HIER
1070
     0
1002
}
1002
{
1000
MANEDIT
1070
     0
1002
}
1002
{
1000
NOSEL
1070
     0
1002
}
1002
{
1000
BEHIND
1070
     0
1002
}
1002
{
1000
REACTOR
1002
}
1001
GENIUS_GENOBJ-N-FIL_13
1002
{
1000
OWNER
1000
GEN
1002
}
  0
LINE
  5
18D
  8
0
 10
121.997450889381
 20
69.299999999996288
 30
0.0
 11
123.4974508893911
 21
69.299999999996231
 31
0.0
  0
LINE
  5
18E
  8
0
 10
121.9974508893806
 20
73.699999999996237
 30
0.0
 11
123.49745088939009
 21
73.699999999996265
 31
0.0
  0
ARC
  5
18F
  8
0
 10
121.9974508893806
 20
73.949999999996237
 30
0.0
 40
0.25
 50
180.0000000000079
 51
269.9999999999992
  0
ARC
  5
190
  8
0
 10
121.44745088938041
 20
75.199999999995612
 30
0.0
 40
0.3
 50
0.0000000000081422
 51
90.000000000015547
1001
GENIUS_GENODEF_13
1002
{
1000
HIER
1070
     0
1002
}
1002
{
1000
MANEDIT
1070
     0
1002
}
1002
{
1000
NOSEL
1070
     0
1002
}
1002
{
1000
BEHIND
1070
     0
1002
}
1002
{
1000
REACTOR
1002
}
1001
GENIUS_GENOBJ-N-FIL_13
1002
{
1000
OWNER
1000
GEN
1002
}
  0
ARC
  5
191
  8
0
 10
123.49745088939009
 20
73.949999999996265
 30
0.0
 40
0.25
 50
270.0
 51
0.0000000000075952
  0
LINE
  5
192
  8
0
 10
109.7474508893677
 20
78.499999999991758
 30
0.0
 11
110.04745088936789
 21
78.199999999991974
 31
0.0
  0
LINE
  5
193
  8
0
 10
132.74745088938059
 20
74.499999999997243
 30
0.0
 11
132.74745088938141
 21
68.499999999997243
 31
0.0
  0
LINE
  5
194
  8
0
 10
133.2474508893807
 20
73.999999999999915
 30
0.0
 11
133.2474508893813
 21
68.999999999997186
 31
0.0
  0
LINE
  5
195
  8
0
 10
132.74745088938141
 20
68.499999999997243
 30
0.0
 11
133.2474508893813
 21
68.999999999997186
 31
0.0
  0
LINE
  5
196
  8
0
 10
132.74745088937971
 20
74.500000000000426
 30
0.0
 11
133.2474508893807
 21
73.999999999999915
 31
0.0
  0
CIRCLE
  5
197
  8
0
 10
61.276464843406472
 20
71.499999999999147
 30
0.0
 40
6.6999999999896849
  0
INSERT
  5
23F
  8
0
  2
STDGX5
 10
0.0
 20
0.0
 30
0.0
 41
0.5
 42
0.5
 43
0.5
  0
INSERT
  5
240
  8
0
  2
STDGX5
 10
0.0
 20
0.0
 30
0.0
 41
0.5
 42
0.5
 43
0.5
  0
INSERT
  5
241
  8
0
  2
STDGX5
 10
137.5
 20
0.0
 30
0.0
 41
0.5
 42
0.5
 43
0.5
  0
INSERT
  5
242
  8
0
  2
STDGX5
 10
137.5
 20
0.0
 30
0.0
 41
0.5
 42
0.5
 43
0.5
  0
LINE
  5
2B1
  8
2
 10
110.0474508893757
 20
73.809401074870294
 30
0.0
 11
111.380784221624
 21
71.499999999991331
 31
0.0
  0
LINE
  5
2B2
  8
2
 10
110.0474508893757
 20
69.190598925112369
 30
0.0
 11
111.3807842216239
 21
71.499999999991331
 31
0.0
  0
LINE
  5
2BD
  8
2
 10
110.0474508893757
 20
69.190598925112425
 30
0.0
 11
110.0474508893757
 21
73.809401074870237
 31
0.0
  0
LINE
  5
2C0
  8
2
 10
106.0474508893757
 20
69.190598925112425
 30
0.0
 11
110.0474508893757
 21
69.190598925112425
 31
0.0
  0
LINE
  5
2C1
  8
2
 10
106.0474508893757
 20
70.345299462552603
 30
0.0
 11
110.0474508893757
 21
70.345299462552603
 31
0.0
  0
LINE
  5
2C2
  8
2
 10
106.0474508893757
 20
72.654700537429989
 30
0.0
 11
110.0474508893757
 21
72.654700537429989
 31
0.0
  0
LINE
  5
2C3
  8
2
 10
106.0474508893757
 20
73.809401074870237
 30
0.0
 11
110.0474508893757
 21
73.809401074870237
 31
0.0
  0
TEXT
  5
36D
  8
0
 62
     3
 10
0.0
 20
0.0
 30
0.0
 40
10.0
  1
DE-BL10-C
  7
STANDARD1
  0
ENDSEC
  0
EOF
