  0
SECTION
  2
HEADER
  9
$ACADVER
  1
AC1009
  9
$INSBASE
 10
0.0
 20
0.0
 30
0.0
  9
$EXTMIN
 10
0.0
 20
-2.960436562073669
 30
0.0
  9
$EXTMAX
 10
129.29944878344429
 20
97.101361652694166
 30
0.0
  9
$LIMMIN
 10
0.0
 20
0.0
  9
$LIMMAX
 10
187.5
 20
135.0
  9
$ORTHOMODE
 70
     0
  9
$REGENMODE
 70
     1
  9
$FILLMODE
 70
     1
  9
$QTEXTMODE
 70
     0
  9
$MIRRTEXT
 70
     0
  9
$DRAGMODE
 70
     2
  9
$LTSCALE
 40
5.0
  9
$OSMODE
 70
  3071
  9
$ATTMODE
 70
     1
  9
$TEXTSIZE
 40
6.0
  9
$TRACEWID
 40
0.05
  9
$TEXTSTYLE
  7
STANDARD
  9
$CLAYER
  8
0
  9
$CELTYPE
  6
BYLAYER
  9
$CECOLOR
 62
   256
  9
$DIMSCALE
 40
0.5
  9
$DIMASZ
 40
3.0
  9
$DIMEXO
 40
2.0
  9
$DIMDLI
 40
0.3799999999999999
  9
$DIMRND
 40
0.0
  9
$DIMDLE
 40
0.0
  9
$DIMEXE
 40
2.0
  9
$DIMTP
 40
0.0
  9
$DIMTM
 40
0.0
  9
$DIMTXT
 40
3.2000000000000002
  9
$DIMCEN
 40
0.0
  9
$DIMTSZ
 40
0.0
  9
$DIMTOL
 70
     0
  9
$DIMLIM
 70
     0
  9
$DIMTIH
 70
     0
  9
$DIMTOH
 70
     0
  9
$DIMSE1
 70
     0
  9
$DIMSE2
 70
     0
  9
$DIMTAD
 70
     1
  9
$DIMZIN
 70
     0
  9
$DIMBLK
  1

  9
$DIMASO
 70
     0
  9
$DIMSHO
 70
     0
  9
$DIMPOST
  1

  9
$DIMAPOST
  1

  9
$DIMALT
 70
     0
  9
$DIMALTD
 70
     2
  9
$DIMALTF
 40
25.399999999999999
  9
$DIMLFAC
 40
1.0
  9
$DIMTOFL
 70
     1
  9
$DIMTVP
 40
0.0
  9
$DIMTIX
 70
     1
  9
$DIMSOXD
 70
     0
  9
$DIMSAH
 70
     0
  9
$DIMBLK1
  1

  9
$DIMBLK2
  1

  9
$DIMSTYLE
  2
STANDARD
  9
$DIMCLRD
 70
     0
  9
$DIMCLRE
 70
     0
  9
$DIMCLRT
 70
     0
  9
$DIMTFAC
 40
1.0
  9
$DIMGAP
 40
0.09
  9
$LUNITS
 70
     2
  9
$LUPREC
 70
     4
  9
$SKETCHINC
 40
0.1
  9
$FILLETRAD
 40
0.0
  9
$AUNITS
 70
     0
  9
$AUPREC
 70
     0
  9
$MENU
  1
E:\r13\win\SUPPORT\ACAD
  9
$ELEVATION
 40
0.0
  9
$PELEVATION
 40
0.0
  9
$THICKNESS
 40
0.0
  9
$LIMCHECK
 70
     0
  9
$BLIPMODE
 70
     0
  9
$CHAMFERA
 40
0.0
  9
$CHAMFERB
 40
0.0
  9
$SKPOLY
 70
     0
  9
$TDCREATE
 40
2449840.6505324072
  9
$TDUPDATE
 40
2456598.6023724312
  9
$TDINDWG
 40
0.0393782292
  9
$TDUSRTIMER
 40
0.0393782292
  9
$USRTIMER
 70
     1
  9
$ANGBASE
 50
0.0
  9
$ANGDIR
 70
     0
  9
$PDMODE
 70
     0
  9
$PDSIZE
 40
0.0
  9
$PLINEWID
 40
0.0
  9
$COORDS
 70
     1
  9
$SPLFRAME
 70
     0
  9
$SPLINETYPE
 70
     6
  9
$SPLINESEGS
 70
     8
  9
$ATTDIA
 70
     0
  9
$ATTREQ
 70
     1
  9
$HANDLING
 70
     1
  9
$HANDSEED
  5
645
  9
$SURFTAB1
 70
     6
  9
$SURFTAB2
 70
     6
  9
$SURFTYPE
 70
     6
  9
$SURFU
 70
     6
  9
$SURFV
 70
     6
  9
$UCSNAME
  2

  9
$UCSORG
 10
0.0
 20
0.0
 30
0.0
  9
$UCSXDIR
 10
1.0
 20
0.0
 30
0.0
  9
$UCSYDIR
 10
0.0
 20
1.0
 30
0.0
  9
$PUCSNAME
  2

  9
$PUCSORG
 10
0.0
 20
0.0
 30
0.0
  9
$PUCSXDIR
 10
1.0
 20
0.0
 30
0.0
  9
$PUCSYDIR
 10
0.0
 20
1.0
 30
0.0
  9
$USERI1
 70
     0
  9
$USERI2
 70
     1
  9
$USERI3
 70
     0
  9
$USERI4
 70
     0
  9
$USERI5
 70
     0
  9
$USERR1
 40
0.0
  9
$USERR2
 40
0.0
  9
$USERR3
 40
0.0
  9
$USERR4
 40
0.0
  9
$USERR5
 40
0.0
  9
$WORLDVIEW
 70
     1
  9
$SHADEDGE
 70
     3
  9
$SHADEDIF
 70
    70
  9
$TILEMODE
 70
     1
  9
$MAXACTVP
 70
    16
  9
$PLIMCHECK
 70
     0
  9
$PEXTMIN
 10
1.0000000000000000E+020
 20
1.0000000000000000E+020
 30
1.0000000000000000E+020
  9
$PEXTMAX
 10
-1.0000000000000000E+020
 20
-1.0000000000000000E+020
 30
-1.0000000000000000E+020
  9
$PLIMMIN
 10
0.0
 20
0.0
  9
$PLIMMAX
 10
12.0
 20
9.0
  9
$UNITMODE
 70
     0
  9
$VISRETAIN
 70
     0
  9
$PLINEGEN
 70
     0
  9
$PSLTSCALE
 70
     0
  0
ENDSEC
  0
SECTION
  2
TABLES
  0
TABLE
  2
VPORT
 70
     1
  0
VPORT
  2
*ACTIVE
 70
     0
 10
0.0
 20
0.0
 11
1.0
 21
1.0
 12
97.570150770051072
 22
66.014785922033241
 13
0.0
 23
0.0
 14
5.0
 24
5.0
 15
5.0
 25
5.0
 16
0.0
 26
0.0
 36
1.0
 17
0.0
 27
0.0
 37
0.0
 40
139.20783109903601
 41
1.831871345029239
 42
50.0
 43
0.0
 44
0.0
 50
0.0
 51
0.0
 71
     0
 72
   500
 73
     1
 74
     0
 75
     0
 76
     0
 77
     0
 78
     0
  0
ENDTAB
  0
TABLE
  2
LTYPE
 70
     4
  0
LTYPE
  2
CONTINUOUS
 70
     0
  3
Solid Line
 72
    65
 73
     0
 40
0.0
  0
LTYPE
  2
CENTER
 70
     0
  3
____ _ ____ _ ____ _ ____ _ ____ _ ____ _ ____
 72
    65
 73
     4
 40
2.0
 49
1.25
 49
-0.25
 49
0.25
 49
-0.25
  0
LTYPE
  2
HIDDEN
 70
     0
  3
_ _ _ _ _ _ _ _ _ _ _ _ _ _ _ _ _ _ _ _ _ _ _
 72
    65
 73
     2
 40
0.375
 49
0.25
 49
-0.125
  0
LTYPE
  2
PHANTOM2
 70
     0
  3
___ _ _ ___ _ _ ___ _ _ ___ _ _
 72
    65
 73
     6
 40
1.25
 49
0.625
 49
-0.125
 49
0.125
 49
-0.125
 49
0.125
 49
-0.125
  0
ENDTAB
  0
TABLE
  2
LAYER
 70
     4
  0
LAYER
  2
0
 70
     0
 62
     7
  6
CONTINUOUS
  0
LAYER
  2
1
 70
     0
 62
     1
  6
CENTER
  0
LAYER
  2
2
 70
     0
 62
     2
  6
HIDDEN
  0
LAYER
  2
3
 70
     0
 62
     3
  6
CONTINUOUS
  0
ENDTAB
  0
TABLE
  2
STYLE
 70
     2
  0
STYLE
  2
STANDARD
 70
     0
 40
0.0
 41
1.0
 50
0.0
 71
     0
 42
6.0
  3
TXT
  4
BIGFONT
  0
STYLE
  2
STANDARD1
 70
     0
 40
0.0
 41
1.0
 50
0.0
 71
     0
 42
3.0
  3
txt
  4

  0
ENDTAB
  0
TABLE
  2
VIEW
 70
     1
  0
VIEW
  2
ALL
 70
     0
 40
398.51054788224542
 10
326.17586019941763
 20
199.25527394112271
 41
0.0
 11
0.0
 21
0.0
 31
1.0
 12
0.0
 22
0.0
 32
0.0
 42
0.0
 43
0.0
 44
0.0
 50
0.0
 71
     0
  0
ENDTAB
  0
TABLE
  2
UCS
 70
     0
  0
ENDTAB
  0
TABLE
  2
APPID
 70
     6
  0
APPID
  2
ACAD
 70
     0
  0
APPID
  2
GENIUS_GENODEF_13
 70
     0
  0
APPID
  2
GENIUS_GENOREF_13
 70
     0
  0
APPID
  2
GENIUS_GENOBJ-N-FIL_13
 70
     0
  0
APPID
  2
ACAD_MLEADERVER
 70
     0
  0
APPID
  2
ACAD_NAV_VCDISPLAY
 70
     0
  0
ENDTAB
  0
TABLE
  2
DIMSTYLE
 70
     1
  0
DIMSTYLE
  2
STANDARD
 70
     0
  3

  4

  5

  6

  7

 40
1.0
 41
0.18
 42
0.0625
 43
0.38
 44
0.18
 45
0.0
 46
0.0
 47
0.0
 48
0.0
140
0.18
141
0.09
142
0.0
143
25.399999999999999
144
1.0
145
0.0
146
1.0
147
0.09
 71
     0
 72
     0
 73
     1
 74
     1
 75
     0
 76
     0
 77
     0
 78
     0
170
     0
171
     2
172
     0
173
     0
174
     0
175
     0
176
     0
177
     0
178
     0
  0
ENDTAB
  0
ENDSEC
  0
SECTION
  2
BLOCKS
  0
BLOCK
  8
0
  2
$MODEL_SPACE
 70
     0
 10
0.0
 20
0.0
 30
0.0
  3
$MODEL_SPACE
  1

  0
ENDBLK
  5
4F9
  8
0
  0
BLOCK
 67
     1
  8
0
  2
$PAPER_SPACE
 70
     0
 10
0.0
 20
0.0
 30
0.0
  3
$PAPER_SPACE
  1

  0
ENDBLK
  5
4F7
 67
     1
  8
0
  0
BLOCK
  8
0
  2
STDGX5
 70
     0
 10
0.0
 20
0.0
 30
0.0
  3
STDGX5
  1

  0
ENDBLK
  5
3A3
  8
0
  0
ENDSEC
  0
SECTION
  2
ENTITIES
  0
CIRCLE
  5
178
  8
0
 10
60.061609486544292
 20
87.101361652704227
 30
0.0
 40
6.9999999999899236
  0
CIRCLE
  5
179
  8
0
 10
60.061609486544292
 20
87.101361652704227
 30
0.0
 40
6.6999999999896849
  0
CIRCLE
  5
1BC
  8
3
 10
60.061609486544292
 20
87.101361652704227
 30
0.0
 40
3.0
  0
CIRCLE
  5
1E7
  8
0
 10
60.061609486544292
 20
87.101361652704227
 30
0.0
 40
2.3864999999999981
  0
LINE
  5
20D
  8
1
 10
106.0494487834315
 20
87.192087255984674
 30
0.0
 11
96.049448783433164
 21
87.192087255981889
 31
0.0
  0
LINE
  5
212
  8
0
 10
103.0494487834376
 20
80.492087255983336
 30
0.0
 11
103.04944878342531
 21
93.892087255983313
 31
0.0
  0
LINE
  5
213
  8
0
 10
99.049448783431259
 20
93.892087255980186
 30
0.0
 11
99.049448783435125
 21
80.492087255980195
 31
0.0
  0
LINE
  5
214
  8
0
 10
102.74944878342509
 20
94.192087255983097
 30
0.0
 11
102.7494487834379
 21
80.192087255983097
 31
0.0
  0
LINE
  5
215
  8
0
 10
99.349448783431214
 20
94.192087255980425
 30
0.0
 11
99.349448783435065
 21
80.192087255980425
 31
0.0
  0
LINE
  5
217
  8
1
 10
102.2081609007451
 20
82.189106477998024
 30
0.0
 11
97.549448783434613
 21
82.189106477998024
 31
0.0
  0
LINE
  5
218
  8
0
 10
102.7494487834379
 20
80.192087255983097
 30
0.0
 11
99.349448783435065
 21
80.192087255980425
 31
0.0
  0
LINE
  5
219
  8
0
 10
99.049448783435125
 20
80.492087255980195
 30
0.0
 11
99.349448783435065
 21
80.192087255980425
 31
0.0
  0
LINE
  5
21B
  8
0
 10
103.0494487834376
 20
80.492087255983336
 30
0.0
 11
102.7494487834379
 21
80.192087255983097
 31
0.0
  0
LINE
  5
227
  8
1
 10
102.2081609007451
 20
92.195068033966976
 30
0.0
 11
97.549448783431743
 21
92.195068033966976
 31
0.0
  0
LINE
  5
22C
  8
0
 10
102.74944878342509
 20
94.192087255983097
 30
0.0
 11
99.349448783431214
 21
94.192087255980425
 31
0.0
  0
LINE
  5
22D
  8
0
 10
99.049448783431259
 20
93.892087255980186
 30
0.0
 11
99.349448783431214
 21
94.192087255980425
 31
0.0
  0
LINE
  5
22E
  8
0
 10
102.74944878342509
 20
94.192087255983097
 30
0.0
 11
103.04944878342531
 21
93.892087255983313
 31
0.0
  0
CIRCLE
  5
234
  8
0
 10
60.061609486544249
 20
50.192087255985108
 30
0.0
 40
3.0
  0
LINE
  5
235
  8
1
 10
67.061609486545422
 20
51.192087255984042
 30
0.0
 11
53.061609486543091
 21
51.192087255984042
 31
0.0
  0
LINE
  5
236
  8
1
 10
54.061609486544249
 20
50.192087255985108
 30
0.0
 11
66.061609486544256
 21
50.192087255985108
 31
0.0
  0
CIRCLE
  5
237
  8
0
 10
60.061609486544249
 20
51.192087255984042
 30
0.0
 40
4.0000000000011786
  0
LINE
  5
24E
  8
1
 10
60.061609486544249
 20
44.192087255982869
 30
0.0
 11
60.061609486544249
 21
58.192087255985193
 31
0.0
  0
LINE
  5
24F
  8
0
 10
61.561609486544491
 20
49.326061852200752
 30
0.0
 11
61.561609486544491
 21
51.058112659769897
 31
0.0
  0
LINE
  5
250
  8
0
 10
58.561609486544761
 20
49.326061852200752
 30
0.0
 11
60.061609486544768
 21
48.460036448416297
 31
0.0
  0
LINE
  5
251
  8
0
 10
60.061609486544768
 20
48.460036448416297
 30
0.0
 11
61.561609486544491
 21
49.326061852200752
 31
0.0
  0
LINE
  5
252
  8
0
 10
58.561609486544192
 20
51.058112659769357
 30
0.0
 11
58.561609486544761
 21
49.326061852200752
 31
0.0
  0
LINE
  5
253
  8
0
 10
61.561609486544491
 20
51.058112659769897
 30
0.0
 11
60.061609486544477
 21
51.924138063554011
 31
0.0
  0
LINE
  5
254
  8
0
 10
60.061609486544477
 20
51.924138063554011
 30
0.0
 11
58.561609486544192
 21
51.058112659769357
 31
0.0
  0
LINE
  5
255
  8
1
 10
127.7994487834444
 20
50.192087255999269
 30
0.0
 11
97.549448783439132
 21
50.19208725599298
 31
0.0
  0
LINE
  5
256
  8
1
 10
129.29944878344429
 20
51.192087256000207
 30
0.0
 11
96.049448783438862
 21
51.19208725599097
 31
0.0
  0
LINE
  5
257
  8
0
 10
114.4494487834416
 20
47.192087255996057
 30
0.0
 11
104.84944878344101
 21
47.192087255993378
 31
0.0
  0
LINE
  5
258
  8
0
 10
114.4494487834437
 20
55.192087255995993
 30
0.0
 11
104.8494487834389
 21
55.192087255993407
 31
0.0
  0
LINE
  5
259
  8
0
 10
104.54944878344099
 20
47.492087255993283
 30
0.0
 11
104.5494487834389
 21
54.892087255993317
 31
0.0
  0
ARC
  5
25A
  8
0
 10
104.84944878344101
 20
47.492087255993397
 30
0.0
 40
0.3
 50
180.00000000003089
 51
270.00000000001597
1001
GENIUS_GENODEF_13
1002
{
1000
HIER
1070
     0
1002
}
1002
{
1000
MANEDIT
1070
     0
1002
}
1002
{
1000
NOSEL
1070
     0
1002
}
1002
{
1000
BEHIND
1070
     0
1002
}
1002
{
1000
REACTOR
1002
}
1001
GENIUS_GENOBJ-N-FIL_13
1002
{
1000
OWNER
1000
GEN
1002
}
  0
LINE
  5
25B
  8
0
 10
99.049448783439544
 20
47.692087255991851
 30
0.0
 11
99.549448783439601
 21
47.192087255992298
 31
0.0
  0
LINE
  5
25C
  8
0
 10
99.549448783439203
 20
50.192087255991908
 30
0.0
 11
99.549448783439601
 21
47.192087255992298
 31
0.0
  0
LINE
  5
25D
  8
0
 10
102.5494487834418
 20
47.192087255995368
 30
0.0
 11
102.54944878343549
 21
53.192087255995432
 31
0.0
  0
LINE
  5
25E
  8
0
 10
102.5494487834418
 20
47.192087255995368
 30
0.0
 11
99.549448783439601
 21
47.192087255992298
 31
0.0
  0
LINE
  5
25F
  8
0
 10
102.79944878343071
 20
52.392087255993289
 30
0.0
 11
104.2994487834401
 21
52.392087255993317
 31
0.0
  0
LINE
  5
260
  8
0
 10
102.7994487834311
 20
47.99208725599334
 30
0.0
 11
104.29944878344109
 21
47.992087255993283
 31
0.0
  0
LINE
  5
261
  8
2
 10
99.049448783437555
 20
51.062087255991798
 30
0.0
 11
101.34944878343759
 21
51.062087255995969
 31
0.0
  0
LINE
  5
262
  8
2
 10
101.3494487834359
 20
51.942087255995972
 30
0.0
 11
99.04944878343602
 21
51.942087255991787
 31
0.0
  0
LINE
  5
263
  8
2
 10
101.3494487834386
 20
51.942087255992497
 30
0.0
 11
102.0994487834391
 21
50.192087255992618
 31
0.0
  0
LINE
  5
264
  8
2
 10
101.3494487834386
 20
51.942087255992497
 30
0.0
 11
101.3494487834396
 21
48.442087255992497
 31
0.0
  0
LINE
  5
265
  8
2
 10
101.3494487834396
 20
48.442087255992497
 30
0.0
 11
99.049448783439658
 21
48.442087255991851
 31
0.0
  0
LINE
  5
266
  8
2
 10
99.049448783439431
 20
49.322087255991853
 30
0.0
 11
101.3494487834395
 21
49.3220872559925
 31
0.0
  0
LINE
  5
267
  8
2
 10
102.0994487834391
 20
50.192087255992618
 30
0.0
 11
101.3494487834396
 21
48.442087255992497
 31
0.0
  0
LINE
  5
268
  8
3
 10
102.54944878344131
 20
47.805587255988172
 30
0.0
 11
99.049448783440113
 21
47.805587255986659
 31
0.0
  0
LINE
  5
269
  8
3
 10
102.5494487834363
 20
52.578587256002862
 30
0.0
 11
99.049448783438436
 21
52.578587255996922
 31
0.0
  0
LINE
  5
26A
  8
0
 10
99.049448783438763
 20
52.692087255995489
 30
0.0
 11
99.549448783433974
 21
53.192087255992313
 31
0.0
  0
LINE
  5
26B
  8
0
 10
99.549448783434002
 20
53.192087255992327
 30
0.0
 11
102.54944878343549
 21
53.192087255995432
 31
0.0
  0
LINE
  5
26C
  8
0
 10
99.549448783439203
 20
50.192087255992703
 30
0.0
 11
99.549448783433292
 21
53.192087255992327
 31
0.0
  0
LINE
  5
26D
  8
0
 10
99.049448783438393
 20
52.692087255995233
 30
0.0
 11
99.049448783439885
 21
47.692087255991368
 31
0.0
  0
ARC
  5
26E
  8
0
 10
102.79944878343071
 20
52.642087255993289
 30
0.0
 40
0.25
 50
180.0000000000079
 51
269.9999999999992
  0
ARC
  5
26F
  8
0
 10
102.7994487834311
 20
47.74208725599334
 30
0.0
 40
0.25
 50
90.0
 51
180.0000000000048
  0
ARC
  5
270
  8
0
 10
104.2994487834401
 20
52.64208725599331
 30
0.0
 40
0.25
 50
270.0
 51
0.0000000000075952
  0
ARC
  5
271
  8
0
 10
104.29944878344109
 20
47.742087255993283
 30
0.0
 40
0.25
 50
0.0000000000119589
 51
89.999999999999048
  0
ARC
  5
272
  8
0
 10
104.849448783439
 20
54.892087255993431
 30
0.0
 40
0.3
 50
90.000000000015405
 51
180.0000000000158
1001
GENIUS_GENODEF_13
1002
{
1000
HIER
1070
     0
1002
}
1002
{
1000
MANEDIT
1070
     0
1002
}
1002
{
1000
NOSEL
1070
     0
1002
}
1002
{
1000
BEHIND
1070
     0
1002
}
1002
{
1000
REACTOR
1002
}
1001
GENIUS_GENOBJ-N-FIL_13
1002
{
1000
OWNER
1000
GEN
1002
}
  0
LINE
  5
273
  8
0
 10
114.7494487834438
 20
54.892087255996067
 30
0.0
 11
114.749448783445
 21
47.492087255996033
 31
0.0
  0
LINE
  5
274
  8
3
 10
126.2494487834449
 20
47.805587255997771
 30
0.0
 11
116.7494487834541
 21
47.805587255996407
 31
0.0
  0
LINE
  5
275
  8
3
 10
126.24944878344409
 20
52.578587255997739
 30
0.0
 11
116.7494487834535
 21
52.57858725599646
 31
0.0
  0
LINE
  5
276
  8
0
 10
125.7494487834449
 20
47.192087255997649
 30
0.0
 11
116.7494487834542
 21
47.192087255996391
 31
0.0
  0
LINE
  5
277
  8
0
 10
116.7494487834534
 20
53.192087255996427
 30
0.0
 11
125.74944878344409
 21
53.192087255997642
 31
0.0
  0
ARC
  5
278
  8
0
 10
114.4494487834415
 20
47.492087255995983
 30
0.0
 40
0.3
 50
270.00000000001489
 51
0.0
1001
GENIUS_GENODEF_13
1002
{
1000
HIER
1070
     0
1002
}
1002
{
1000
MANEDIT
1070
     0
1002
}
1002
{
1000
NOSEL
1070
     0
1002
}
1002
{
1000
BEHIND
1070
     0
1002
}
1002
{
1000
REACTOR
1002
}
1001
GENIUS_GENOBJ-N-FIL_13
1002
{
1000
OWNER
1000
GEN
1002
}
  0
LINE
  5
279
  8
0
 10
116.7494487834534
 20
53.192087255996427
 30
0.0
 11
116.7494487834542
 21
47.192087255996391
 31
0.0
  0
LINE
  5
27A
  8
0
 10
116.7494487834408
 20
47.19208725599924
 30
0.0
 11
116.7494487834411
 21
47.992087255996687
 31
0.0
  0
LINE
  5
27B
  8
0
 10
114.99944878344419
 20
52.392087255996671
 30
0.0
 11
116.4994487834536
 21
52.392087255996699
 31
0.0
  0
ARC
  5
27C
  8
0
 10
116.4994487834546
 20
47.742087255996658
 30
0.0
 40
0.25
 50
0.0000000000119589
 51
89.999999999999048
  0
ARC
  5
27D
  8
0
 10
114.99944878344461
 20
47.742087255996722
 30
0.0
 40
0.25
 50
90.0
 51
180.0000000000048
  0
LINE
  5
27E
  8
0
 10
114.99944878344461
 20
47.992087255996722
 30
0.0
 11
116.4994487834546
 21
47.992087255996658
 31
0.0
  0
ARC
  5
27F
  8
0
 10
114.99944878344419
 20
52.642087255996671
 30
0.0
 40
0.25
 50
180.0000000000079
 51
269.9999999999992
  0
ARC
  5
280
  8
0
 10
116.4994487834536
 20
52.642087255996699
 30
0.0
 40
0.25
 50
270.0
 51
0.0000000000075952
  0
LINE
  5
281
  8
0
 10
125.74944878344409
 20
53.192087255997642
 30
0.0
 11
125.7494487834449
 21
47.192087255997649
 31
0.0
  0
LINE
  5
282
  8
0
 10
125.7494487834449
 20
47.192087255997649
 30
0.0
 11
126.24944878344481
 21
47.692087255997592
 31
0.0
  0
LINE
  5
283
  8
0
 10
126.24944878344409
 20
52.69208725600032
 30
0.0
 11
126.24944878344481
 21
47.692087255997592
 31
0.0
  0
LINE
  5
284
  8
0
 10
125.7494487834432
 20
53.192087256000832
 30
0.0
 11
126.24944878344409
 21
52.69208725600032
 31
0.0
  0
ARC
  5
285
  8
0
 10
114.4494487834438
 20
54.892087255996017
 30
0.0
 40
0.3
 50
0.0000000000081422
 51
90.000000000015547
1001
GENIUS_GENODEF_13
1002
{
1000
HIER
1070
     0
1002
}
1002
{
1000
MANEDIT
1070
     0
1002
}
1002
{
1000
NOSEL
1070
     0
1002
}
1002
{
1000
BEHIND
1070
     0
1002
}
1002
{
1000
REACTOR
1002
}
1001
GENIUS_GENOBJ-N-FIL_13
1002
{
1000
OWNER
1000
GEN
1002
}
  0
CIRCLE
  5
2E7
  8
0
 10
60.061609486544249
 20
50.192087255985108
 30
0.0
 40
1.7499999999925251
  0
CIRCLE
  5
2E8
  8
3
 10
60.061609486544249
 20
50.192087255985108
 30
0.0
 40
2.3864999999946681
  0
LINE
  5
2F4
  8
1
 10
62.811609486544278
 20
82.101361652704227
 30
0.0
 11
57.311609486544278
 21
82.101361652704227
 31
0.0
  0
LINE
  5
2F7
  8
1
 10
55.061609486544292
 20
89.851361652704227
 30
0.0
 11
55.061609486544292
 21
84.351361652704227
 31
0.0
  0
LINE
  5
2F8
  8
1
 10
62.811609486544278
 20
92.101361652704227
 30
0.0
 11
57.311609486544278
 21
92.101361652704227
 31
0.0
  0
LINE
  5
2FB
  8
1
 10
65.061609486544285
 20
89.851361652704227
 30
0.0
 11
65.061609486544285
 21
84.351361652704227
 31
0.0
  0
LINE
  5
2FC
  8
1
 10
70.061609486534209
 20
87.101361652704227
 30
0.0
 11
50.06160948655436
 21
87.101361652704227
 31
0.0
  0
LINE
  5
2FD
  8
1
 10
60.061609486544292
 20
97.101361652694166
 30
0.0
 11
60.061609486544292
 21
77.101361652714303
 31
0.0
  0
INSERT
  5
43C
  8
0
  2
STDGX5
 10
0.0
 20
0.0
 30
0.0
 41
0.5
 42
0.5
 43
0.5
  0
INSERT
  5
43D
  8
0
  2
STDGX5
 10
0.0
 20
0.0
 30
0.0
 41
0.5
 42
0.5
 43
0.5
  0
INSERT
  5
43E
  8
0
  2
STDGX5
 10
137.5
 20
0.0
 30
0.0
 41
0.5
 42
0.5
 43
0.5
  0
INSERT
  5
43F
  8
0
  2
STDGX5
 10
137.5
 20
0.0
 30
0.0
 41
0.5
 42
0.5
 43
0.5
  0
CIRCLE
  5
44F
  8
0
 10
65.061609486544285
 20
87.101361652704227
 30
0.0
 40
1.25
  0
CIRCLE
  5
450
  8
0
 10
60.061609486544292
 20
92.101361652704227
 30
0.0
 40
1.25
  0
CIRCLE
  5
451
  8
0
 10
55.061609486544292
 20
87.101361652704227
 30
0.0
 40
1.25
  0
CIRCLE
  5
452
  8
0
 10
60.061609486544292
 20
82.101361652704227
 30
0.0
 40
1.25
  0
TEXT
  5
5B4
  8
0
 62
     3
 10
0.0
 20
0.0
 30
0.0
 40
10.0
  1
DE-BL10-E
  7
STANDARD1
  0
ENDSEC
  0
EOF
