  0
SECTION
  2
HEADER
  9
$ACADVER
  1
AC1009
  9
$INSBASE
 10
0.0
 20
0.0
 30
0.0
  9
$EXTMIN
 10
0.0
 20
-2.960436562073669
 30
0.0
  9
$EXTMAX
 10
507.74015938841211
 20
422.59476583070091
 30
0.0
  9
$LIMMIN
 10
0.0
 20
0.0
  9
$LIMMAX
 10
750.0
 20
540.0
  9
$ORTHOMODE
 70
     0
  9
$REGENMODE
 70
     1
  9
$FILLMODE
 70
     1
  9
$QTEXTMODE
 70
     0
  9
$MIRRTEXT
 70
     0
  9
$DRAGMODE
 70
     2
  9
$LTSCALE
 40
20.0
  9
$OSMODE
 70
    37
  9
$ATTMODE
 70
     1
  9
$TEXTSIZE
 40
0.2
  9
$TRACEWID
 40
0.05
  9
$TEXTSTYLE
  7
STANDARD
  9
$CLAYER
  8
0
  9
$CELTYPE
  6
BYLAYER
  9
$CECOLOR
 62
   256
  9
$DIMSCALE
 40
2.0
  9
$DIMASZ
 40
3.0
  9
$DIMEXO
 40
2.0
  9
$DIMDLI
 40
0.38
  9
$DIMRND
 40
0.0
  9
$DIMDLE
 40
0.0
  9
$DIMEXE
 40
2.0
  9
$DIMTP
 40
0.0
  9
$DIMTM
 40
0.0
  9
$DIMTXT
 40
3.2000000000000002
  9
$DIMCEN
 40
0.0
  9
$DIMTSZ
 40
0.0
  9
$DIMTOL
 70
     0
  9
$DIMLIM
 70
     0
  9
$DIMTIH
 70
     0
  9
$DIMTOH
 70
     0
  9
$DIMSE1
 70
     0
  9
$DIMSE2
 70
     0
  9
$DIMTAD
 70
     1
  9
$DIMZIN
 70
     0
  9
$DIMBLK
  1

  9
$DIMASO
 70
     0
  9
$DIMSHO
 70
     0
  9
$DIMPOST
  1

  9
$DIMAPOST
  1

  9
$DIMALT
 70
     0
  9
$DIMALTD
 70
     2
  9
$DIMALTF
 40
25.399999999999999
  9
$DIMLFAC
 40
1.0
  9
$DIMTOFL
 70
     1
  9
$DIMTVP
 40
1.6000000000000001
  9
$DIMTIX
 70
     1
  9
$DIMSOXD
 70
     0
  9
$DIMSAH
 70
     0
  9
$DIMBLK1
  1

  9
$DIMBLK2
  1

  9
$DIMSTYLE
  2
STANDARD
  9
$DIMCLRD
 70
     0
  9
$DIMCLRE
 70
     0
  9
$DIMCLRT
 70
     0
  9
$DIMTFAC
 40
1.0
  9
$DIMGAP
 40
0.09
  9
$LUNITS
 70
     2
  9
$LUPREC
 70
     8
  9
$SKETCHINC
 40
0.1
  9
$FILLETRAD
 40
0.0
  9
$AUNITS
 70
     0
  9
$AUPREC
 70
     4
  9
$MENU
  1
ACAD
  9
$ELEVATION
 40
0.0
  9
$PELEVATION
 40
0.0
  9
$THICKNESS
 40
0.0
  9
$LIMCHECK
 70
     0
  9
$BLIPMODE
 70
     0
  9
$CHAMFERA
 40
0.0
  9
$CHAMFERB
 40
0.0
  9
$SKPOLY
 70
     0
  9
$TDCREATE
 40
2448295.556909028
  9
$TDUPDATE
 40
2456689.436400834
  9
$TDINDWG
 40
0.0227713657
  9
$TDUSRTIMER
 40
0.0227713657
  9
$USRTIMER
 70
     1
  9
$ANGBASE
 50
0.0
  9
$ANGDIR
 70
     0
  9
$PDMODE
 70
     0
  9
$PDSIZE
 40
0.0
  9
$PLINEWID
 40
0.0
  9
$COORDS
 70
     1
  9
$SPLFRAME
 70
     0
  9
$SPLINETYPE
 70
     6
  9
$SPLINESEGS
 70
     8
  9
$ATTDIA
 70
     0
  9
$ATTREQ
 70
     1
  9
$HANDLING
 70
     1
  9
$HANDSEED
  5
6D4
  9
$SURFTAB1
 70
     6
  9
$SURFTAB2
 70
     6
  9
$SURFTYPE
 70
     6
  9
$SURFU
 70
     6
  9
$SURFV
 70
     6
  9
$UCSNAME
  2

  9
$UCSORG
 10
0.0
 20
0.0
 30
0.0
  9
$UCSXDIR
 10
1.0
 20
0.0
 30
0.0
  9
$UCSYDIR
 10
0.0
 20
1.0
 30
0.0
  9
$PUCSNAME
  2

  9
$PUCSORG
 10
0.0
 20
0.0
 30
0.0
  9
$PUCSXDIR
 10
1.0
 20
0.0
 30
0.0
  9
$PUCSYDIR
 10
0.0
 20
1.0
 30
0.0
  9
$USERI1
 70
     0
  9
$USERI2
 70
     1
  9
$USERI3
 70
     0
  9
$USERI4
 70
     0
  9
$USERI5
 70
     0
  9
$USERR1
 40
0.0
  9
$USERR2
 40
0.0
  9
$USERR3
 40
0.0
  9
$USERR4
 40
0.0
  9
$USERR5
 40
0.0
  9
$WORLDVIEW
 70
     1
  9
$SHADEDGE
 70
     3
  9
$SHADEDIF
 70
    70
  9
$TILEMODE
 70
     1
  9
$MAXACTVP
 70
    16
  9
$PLIMCHECK
 70
     0
  9
$PEXTMIN
 10
1.0000000000000000E+020
 20
1.0000000000000000E+020
 30
1.0000000000000000E+020
  9
$PEXTMAX
 10
-1.0000000000000000E+020
 20
-1.0000000000000000E+020
 30
-1.0000000000000000E+020
  9
$PLIMMIN
 10
0.0
 20
0.0
  9
$PLIMMAX
 10
12.0
 20
9.0
  9
$UNITMODE
 70
     0
  9
$VISRETAIN
 70
     0
  9
$PLINEGEN
 70
     1
  9
$PSLTSCALE
 70
     0
  0
ENDSEC
  0
SECTION
  2
TABLES
  0
TABLE
  2
VPORT
 70
     1
  0
VPORT
  2
*ACTIVE
 70
     0
 10
0.0
 20
0.0
 11
1.0
 21
1.0
 12
340.51862849226592
 22
209.82113342380549
 13
0.0
 23
0.0
 14
20.0
 24
20.0
 15
20.0
 25
20.0
 16
0.0
 26
0.0
 36
1.0
 17
0.0
 27
0.0
 37
0.0
 40
429.28109337063171
 41
2.3805970149253728
 42
50.0
 43
0.0
 44
0.0
 50
0.0
 51
0.0
 71
     0
 72
   500
 73
     1
 74
     0
 75
     0
 76
     0
 77
     0
 78
     2
  0
ENDTAB
  0
TABLE
  2
LTYPE
 70
     3
  0
LTYPE
  2
CONTINUOUS
 70
     0
  3
Solid Line
 72
    65
 73
     0
 40
0.0
  0
LTYPE
  2
CENTER
 70
     0
  3
____ _ ____ _ ____ _ ____ _ ____ _ ____ _ ____
 72
    65
 73
     4
 40
2.0
 49
1.25
 49
-0.25
 49
0.25
 49
-0.25
  0
LTYPE
  2
PHANTOM2
 70
     0
  3
___ _ _ ___ _ _ ___ _ _ ___ _ _
 72
    65
 73
     6
 40
1.25
 49
0.625
 49
-0.125
 49
0.125
 49
-0.125
 49
0.125
 49
-0.125
  0
ENDTAB
  0
TABLE
  2
LAYER
 70
     3
  0
LAYER
  2
0
 70
     0
 62
     7
  6
CONTINUOUS
  0
LAYER
  2
1
 70
     0
 62
     1
  6
CENTER
  0
LAYER
  2
3
 70
     0
 62
     3
  6
CONTINUOUS
  0
ENDTAB
  0
TABLE
  2
STYLE
 70
     2
  0
STYLE
  2
STANDARD
 70
     0
 40
0.0
 41
1.0
 50
0.0
 71
     0
 42
0.2
  3
SIMPLEX
  4
BIGFONT
  0
STYLE
  2
STANDARD1
 70
     0
 40
0.0
 41
1.0
 50
0.0
 71
     0
 42
3.0
  3
txt
  4

  0
ENDTAB
  0
TABLE
  2
VIEW
 70
     1
  0
VIEW
  2
ALL
 70
     0
 40
540.0
 10
441.98319327731082
 20
270.0
 41
0.0
 11
0.0
 21
0.0
 31
1.0
 12
0.0
 22
0.0
 32
0.0
 42
50.0
 43
0.0
 44
0.0
 50
0.0
 71
     0
  0
ENDTAB
  0
TABLE
  2
UCS
 70
     0
  0
ENDTAB
  0
TABLE
  2
APPID
 70
     4
  0
APPID
  2
ACAD
 70
     0
  0
APPID
  2
ACAD_MLEADERVER
 70
     0
  0
APPID
  2
ACAD_NAV_VCDISPLAY
 70
     0
  0
APPID
  2
ACAD_EXEMPT_FROM_CAD_STANDARDS
 70
     0
  0
ENDTAB
  0
TABLE
  2
DIMSTYLE
 70
     1
  0
DIMSTYLE
  2
STANDARD
 70
     0
  3

  4

  5

  6

  7

 40
1.0
 41
0.18
 42
0.0625
 43
0.38
 44
0.18
 45
0.0
 46
0.0
 47
0.0
 48
0.0
140
0.18
141
0.09
142
0.0
143
25.399999999999999
144
1.0
145
0.0
146
1.0
147
0.09
 71
     0
 72
     0
 73
     1
 74
     1
 75
     0
 76
     0
 77
     0
 78
     0
170
     0
171
     2
172
     0
173
     0
174
     0
175
     0
176
     0
177
     0
178
     0
  0
ENDTAB
  0
ENDSEC
  0
SECTION
  2
BLOCKS
  0
BLOCK
  8
0
  2
$MODEL_SPACE
 70
     0
 10
0.0
 20
0.0
 30
0.0
  3
$MODEL_SPACE
  1

  0
ENDBLK
  5
3F0
  8
0
  0
BLOCK
 67
     1
  8
0
  2
$PAPER_SPACE
 70
     0
 10
0.0
 20
0.0
 30
0.0
  3
$PAPER_SPACE
  1

  0
ENDBLK
  5
3EE
 67
     1
  8
0
  0
BLOCK
  8
0
  2
A$C573E503C
 70
     0
 10
0.0
 20
0.0
 30
0.0
  3
A$C573E503C
  1

  0
LINE
  5
62D
  8
0
 10
-5.3284271247462121
 20
-2.1715728752535011
 30
0.0
 11
-3.6715728752537871
 21
-3.8284271247459269
 31
0.0
  0
LINE
  5
62E
  8
0
 10
-5.694847824498197
 20
-1.7499999999997711
 30
0.0
 11
-6.000000000000111
 21
-1.7499999999997711
 31
0.0
  0
LINE
  5
62F
  8
0
 10
-13.00000000000011
 20
-1.7499999999997711
 30
0.0
 11
-13.30515217550203
 21
-1.7499999999997711
 31
0.0
  0
LINE
  5
630
  8
0
 10
-8.8397332347115007
 20
-4.749999999999714
 30
0.0
 11
-10.160266765288609
 21
-4.749999999999714
 31
0.0
  0
LINE
  5
631
  8
0
 10
-13.00000000000011
 20
-6.249999999999714
 30
0.0
 11
-12.3024887754018
 21
-6.249999999999714
 31
0.0
  0
LINE
  5
632
  8
0
 10
-10.160266765288609
 20
-4.749999999999714
 30
0.0
 11
-12.3024887754018
 21
-6.249999999999714
 31
0.0
  0
LINE
  5
633
  8
0
 10
-8.8397332347115007
 20
-4.749999999999714
 30
0.0
 11
-6.6975112245983164
 21
-6.249999999999714
 31
0.0
  0
LINE
  5
634
  8
0
 10
-6.0
 20
-1.279637423610779
 30
0.0
 11
-6.0
 21
-6.249999999999714
 31
0.0
  0
LINE
  5
635
  8
0
 10
-13.0
 20
-1.27963742361095
 30
0.0
 11
-13.0
 21
-6.249999999999714
 31
0.0
  0
LINE
  5
636
  8
0
 10
-6.0
 20
-6.249999999999714
 30
0.0
 11
-6.6975112245983164
 21
-6.249999999999714
 31
0.0
  0
ENDBLK
  5
638
  8
0
  0
ENDSEC
  0
SECTION
  2
ENTITIES
  0
LINE
  5
A3
  8
1
 10
337.48826685493572
 20
175.99219405823379
 30
0.0
 11
337.48826685493572
 21
105.99219405823381
 31
0.0
  0
LINE
  5
A4
  8
1
 10
315.4882668549356
 20
175.99219405823359
 30
0.0
 11
315.4882668549356
 21
105.99219405823369
 31
0.0
  0
LINE
  5
A5
  8
0
 10
330.98826685493538
 20
129.6247038664462
 30
0.0
 11
330.98826685493538
 21
110.99219405823369
 31
0.0
  0
LINE
  5
A6
  8
0
 10
324.98826685493538
 20
129.62470386644429
 30
0.0
 11
324.98826685493538
 21
110.99219405823369
 31
0.0
  0
ARC
  5
A7
  8
0
 10
327.98826685493538
 20
132.49219405823379
 30
0.0
 40
4.1500000000000341
 50
180.0
 51
0.0
  0
ARC
  5
A8
  8
0
 10
327.98826685493538
 20
149.49219405823371
 30
0.0
 40
4.1500000000000341
 50
0.0
 51
180.0
  0
LINE
  5
A9
  8
1
 10
377.9882668549356
 20
140.99219405823379
 30
0.0
 11
299.98826685493549
 21
140.99219405823371
 31
0.0
  0
LINE
  5
AA
  8
0
 10
332.13826685493552
 20
132.49219405823379
 30
0.0
 11
332.13826685493552
 21
149.49219405823371
 31
0.0
  0
LINE
  5
AB
  8
0
 10
323.8382668549354
 20
132.49219405823379
 30
0.0
 11
323.8382668549354
 21
149.49219405823371
 31
0.0
  0
LINE
  5
AC
  8
0
 10
330.98826685493538
 20
170.99219405823371
 30
0.0
 11
330.98826685493538
 21
152.35968425002159
 31
0.0
  0
LINE
  5
AD
  8
0
 10
324.98826685493538
 20
170.99219405823371
 30
0.0
 11
324.98826685493538
 21
152.35968425002349
 31
0.0
  0
LINE
  5
AE
  8
1
 10
327.98826685493538
 20
180.99219405823359
 30
0.0
 11
327.98826685493538
 21
100.99219405823369
 31
0.0
  0
LINE
  5
B0
  8
0
 10
367.98826685493572
 20
110.99219405823369
 30
0.0
 11
367.98826685493549
 21
170.99219405823379
 31
0.0
  0
LINE
  5
B1
  8
0
 10
309.98826685493549
 20
110.99219405823369
 30
0.0
 11
309.98826685493549
 21
170.99219405823371
 31
0.0
  0
LINE
  5
B2
  8
0
 10
309.98826685493549
 20
170.99219405823371
 30
0.0
 11
367.98826685493549
 21
170.99219405823379
 31
0.0
  0
LINE
  5
B3
  8
0
 10
309.98826685493549
 20
110.99219405823369
 30
0.0
 11
367.98826685493572
 21
110.99219405823369
 31
0.0
  0
LINE
  5
B4
  8
1
 10
347.98826685493572
 20
100.99219405823369
 30
0.0
 11
347.98826685493549
 21
180.99219405823359
 31
0.0
  0
LINE
  5
B5
  8
1
 10
355.48826685493572
 20
160.99219405823379
 30
0.0
 11
340.4882668549356
 21
160.99219405823379
 31
0.0
  0
LINE
  5
B6
  8
1
 10
355.48826685493572
 20
120.99219405823369
 30
0.0
 11
340.4882668549356
 21
120.99219405823369
 31
0.0
  0
CIRCLE
  5
B9
  8
0
 10
347.98826685493572
 20
120.99219405823369
 30
0.0
 40
3.5
  0
CIRCLE
  5
BA
  8
0
 10
347.98826685493572
 20
160.99219405823379
 30
0.0
 40
3.5
  0
LINE
  5
C6
  8
0
 10
323.9882668549356
 20
145.99219405823359
 30
0.0
 11
323.9882668549356
 21
135.99219405823359
 31
0.0
  0
ARC
  5
C7
  8
0
 10
320.98826685493572
 20
139.39904830772619
 30
0.0
 40
4.0
 50
318.5903778907209
 51
323.00727865981082
  0
LINE
  5
D4
  8
0
 10
323.98826685493538
 20
136.99219405823379
 30
0.0
 11
324.48826685493549
 21
136.99219405823379
 31
0.0
  0
LINE
  5
D5
  8
0
 10
323.9882668549356
 20
144.99219405823379
 30
0.0
 11
324.48826685493572
 21
144.99219405823379
 31
0.0
  0
LINE
  5
DA
  8
0
 10
331.48826685493538
 20
136.99219405823379
 30
0.0
 11
332.13826685493552
 21
136.99219405823379
 31
0.0
  0
LINE
  5
DB
  8
0
 10
331.48826685493572
 20
144.99219405823379
 30
0.0
 11
332.13826685493552
 21
144.99219405823379
 31
0.0
  0
LINE
  5
DC
  8
0
 10
323.9882668549356
 20
145.99219405823359
 30
0.0
 11
323.83826685493551
 21
145.99219405823359
 31
0.0
  0
LINE
  5
DD
  8
0
 10
323.9882668549356
 20
135.99219405823359
 30
0.0
 11
323.83826685493551
 21
135.99219405823359
 31
0.0
  0
ARC
  5
261
  8
0
 10
369.78580423327372
 20
271.0426243376894
 30
0.0
 40
20.0
 50
206.71531611785491
 51
225.0
  0
LINE
  5
262
  8
0
 10
362.05933466680102
 20
252.55589046856559
 30
0.0
 11
363.9882668549356
 21
252.55589046856559
 31
0.0
  0
ARC
  5
263
  8
0
 10
363.9882668549356
 20
256.55589046856562
 30
0.0
 40
4.0
 50
270.0
 51
360.0
  0
ARC
  5
264
  8
0
 10
362.05933466680119
 20
257.55589046856562
 30
0.0
 40
5.0
 50
225.0
 51
270.0
  0
LINE
  5
265
  8
0
 10
358.52380076086843
 20
254.0203565626328
 30
0.0
 11
355.64366860954277
 21
256.9004887139584
 31
0.0
  0
LINE
  5
266
  8
1
 10
382.88826685493569
 20
264.55589046856562
 30
0.0
 11
345.27969528347768
 21
264.55589046856562
 31
0.0
  0
ARC
  5
27D
  8
0
 10
366.4882668549356
 20
259.05589046856562
 30
0.0
 40
1.5
 50
0.0000000000000509
 51
90.0
  0
ARC
  5
27E
  8
0
 10
366.4882668549356
 20
270.05589046856562
 30
0.0
 40
1.5
 50
270.00000000000011
 51
0.0
  0
ARC
  5
27F
  8
0
 10
342.4882668549356
 20
283.05589046856562
 30
0.0
 40
1.5
 50
0.0000000000000509
 51
90.0
  0
ARC
  5
280
  8
0
 10
353.4882668549356
 20
283.05589046856562
 30
0.0
 40
1.5
 50
90.0
 51
180.0
  0
LINE
  5
281
  8
0
 10
366.4882668549356
 20
268.55589046856562
 30
0.0
 11
364.4882668549356
 21
268.55589046856562
 31
0.0
  0
LINE
  5
282
  8
0
 10
366.4882668549356
 20
260.55589046856562
 30
0.0
 11
364.4882668549356
 21
260.55589046856562
 31
0.0
  0
ARC
  5
283
  8
0
 10
376.58826685493551
 20
274.92959046856572
 30
0.0
 40
25.0
 50
216.6419281412137
 51
233.06989397484111
  0
ARC
  5
284
  8
0
 10
376.58826685493551
 20
254.18219046856561
 30
0.0
 40
25.0
 50
126.93010602515891
 51
143.35807185878619
  0
ARC
  5
285
  8
0
 10
359.7382668549356
 20
266.71524675982988
 30
0.0
 40
4.0
 50
143.3580718587861
 51
180.0
  0
ARC
  5
286
  8
0
 10
359.7382668549356
 20
262.39653417730131
 30
0.0
 40
4.0
 50
180.0
 51
216.6419281412139
  0
LINE
  5
287
  8
0
 10
355.7382668549356
 20
266.71524675982988
 30
0.0
 11
355.7382668549356
 21
262.39653417730131
 31
0.0
  0
ARC
  5
288
  8
0
 10
364.4882668549356
 20
259.55589046856562
 30
0.0
 40
1.0
 50
90.0
 51
180.0
  0
LINE
  5
289
  8
0
 10
363.4882668549356
 20
269.55589046856562
 30
0.0
 11
363.4882668549356
 21
273.20717404280242
 31
0.0
  0
ARC
  5
28A
  8
0
 10
364.4882668549356
 20
269.55589046856562
 30
0.0
 40
1.0
 50
180.0
 51
270.0
  0
ARC
  5
28B
  8
0
 10
362.28826685493561
 20
273.20717404280242
 30
0.0
 40
1.1999999999999991
 50
0.0
 51
126.93010602515849
  0
ARC
  5
28C
  8
0
 10
362.28826685493561
 20
255.90460689432891
 30
0.0
 40
1.1999999999999991
 50
233.06989397484139
 51
360.0
  0
LINE
  5
28D
  8
0
 10
363.4882668549356
 20
259.55589046856562
 30
0.0
 11
363.4882668549356
 21
255.90460689432891
 31
0.0
  0
LINE
  5
28E
  8
0
 10
343.9882668549356
 20
283.05589046856562
 30
0.0
 11
343.9882668549356
 21
281.05589046856562
 31
0.0
  0
LINE
  5
28F
  8
0
 10
351.9882668549356
 20
283.05589046856562
 30
0.0
 11
351.9882668549356
 21
281.05589046856562
 31
0.0
  0
ARC
  5
290
  8
0
 10
337.6145668549355
 20
293.15589046856559
 30
0.0
 40
25.0
 50
306.64192814121378
 51
323.06989397484108
  0
ARC
  5
291
  8
0
 10
358.3619668549357
 20
293.15589046856559
 30
0.0
 40
25.0
 50
216.93010602515889
 51
233.35807185878619
  0
ARC
  5
292
  8
0
 10
345.82891056367129
 20
276.30589046856562
 30
0.0
 40
4.0
 50
233.3580718587861
 51
270.0
  0
ARC
  5
293
  8
0
 10
350.14762314619981
 20
276.30589046856562
 30
0.0
 40
4.0
 50
269.99999999999989
 51
306.6419281412139
  0
LINE
  5
294
  8
0
 10
345.82891056367129
 20
272.30589046856562
 30
0.0
 11
350.14762314619981
 21
272.30589046856562
 31
0.0
  0
ARC
  5
295
  8
0
 10
352.9882668549356
 20
281.05589046856562
 30
0.0
 40
1.0
 50
180.0
 51
270.0
  0
LINE
  5
296
  8
0
 10
342.9882668549356
 20
280.05589046856562
 30
0.0
 11
339.33698328069892
 21
280.05589046856562
 31
0.0
  0
ARC
  5
297
  8
0
 10
342.9882668549356
 20
281.05589046856562
 30
0.0
 40
1.0
 50
270.00000000000011
 51
0.0
  0
ARC
  5
298
  8
0
 10
339.33698328069892
 20
278.85589046856558
 30
0.0
 40
1.1999999999999991
 50
90.0
 51
216.93010602515849
  0
ARC
  5
299
  8
0
 10
356.63955042917229
 20
278.85589046856558
 30
0.0
 40
1.1999999999999991
 50
323.06989397484142
 51
89.999999999999986
  0
LINE
  5
29A
  8
0
 10
352.9882668549356
 20
280.05589046856562
 30
0.0
 11
356.63955042917229
 21
280.05589046856562
 31
0.0
  0
LINE
  5
29B
  8
1
 10
327.9882668549356
 20
289.55589046856562
 30
0.0
 11
327.98826685493538
 21
262.80589046856568
 31
0.0
  0
LINE
  5
29C
  8
1
 10
337.4882668549356
 20
279.30589046856539
 30
0.0
 11
337.4882668549356
 21
265.80589046856539
 31
0.0
  0
LINE
  5
29D
  8
1
 10
330.7382668549356
 20
272.55589046856539
 30
0.0
 11
344.2382668549356
 21
272.55589046856539
 31
0.0
  0
ARC
  5
29E
  8
0
 10
320.9882668549356
 20
273.21274471805822
 30
0.0
 40
4.0
 50
314.99999999999892
 51
359.99999999999881
  0
ARC
  5
29F
  8
0
 10
319.33141260544318
 20
271.55589046856568
 30
0.0
 40
4.0
 50
270.00000000000011
 51
314.99999999999932
  0
ARC
  5
2A0
  8
0
 10
336.64512110442797
 20
271.55589046856568
 30
0.0
 40
4.0
 50
225.0000000000006
 51
269.99999999999977
  0
ARC
  5
2A1
  8
0
 10
334.9882668549356
 20
273.21274471805799
 30
0.0
 40
4.0
 50
179.9999999999994
 51
225.0
  0
LINE
  5
2A2
  8
0
 10
332.15983973018939
 20
270.38431759331201
 30
0.0
 11
333.81669397968182
 21
268.72746334381952
 31
0.0
  0
LINE
  5
2A3
  8
0
 10
323.81669397968182
 20
270.38431759331201
 30
0.0
 11
322.15983973018922
 21
268.72746334381952
 31
0.0
  0
LINE
  5
2A4
  8
0
 10
319.33141260544318
 20
267.55589046856579
 30
0.0
 11
313.9882668549356
 21
267.55589046856579
 31
0.0
  0
ARC
  5
2A5
  8
0
 10
326.4882668549356
 20
277.05589046856562
 30
0.0
 40
1.5
 50
90.0
 51
179.9999999999994
  0
ARC
  5
2A6
  8
0
 10
329.4882668549356
 20
277.05589046856562
 30
0.0
 40
1.5
 50
359.99999999999977
 51
89.999999999999758
  0
LINE
  5
2A7
  8
0
 10
329.4882668549356
 20
278.55589046856562
 30
0.0
 11
326.4882668549356
 21
278.55589046856562
 31
0.0
  0
LINE
  5
2A8
  8
0
 10
324.9882668549356
 20
277.05589046856568
 30
0.0
 11
324.9882668549356
 21
273.2127447180581
 31
0.0
  0
LINE
  5
2A9
  8
0
 10
330.9882668549356
 20
277.05589046856562
 30
0.0
 11
330.9882668549356
 21
273.2127447180581
 31
0.0
  0
CIRCLE
  5
2AA
  8
0
 10
363.4882668549356
 20
280.05589046856562
 30
0.0
 40
2.5
  0
LINE
  5
2AB
  8
0
 10
342.4882668549356
 20
284.55589046856562
 30
0.0
 11
313.9882668549356
 21
284.55589046856562
 31
0.0
  0
LINE
  5
2AC
  8
0
 10
363.9882668549356
 20
284.55589046856562
 30
0.0
 11
353.4882668549356
 21
284.55589046856562
 31
0.0
  0
LINE
  5
2AD
  8
0
 10
367.9882668549356
 20
270.05589046856562
 30
0.0
 11
367.9882668549356
 21
280.55589046856562
 31
0.0
  0
LINE
  5
2AE
  8
0
 10
367.9882668549356
 20
259.05589046856562
 30
0.0
 11
367.9882668549356
 21
256.55589046856562
 31
0.0
  0
ARC
  5
2AF
  8
0
 10
363.9882668549356
 20
280.55589046856562
 30
0.0
 40
4.0
 50
0.0
 51
90.0
  0
LINE
  5
2B0
  8
0
 10
309.9882668549356
 20
271.55589046856568
 30
0.0
 11
309.9882668549356
 21
280.55589046856562
 31
0.0
  0
ARC
  5
2B1
  8
0
 10
313.9882668549356
 20
280.55589046856562
 30
0.0
 40
4.0
 50
90.0
 51
180.0
  0
LINE
  5
2B2
  8
0
 10
342.9882668549356
 20
267.55589046856562
 30
0.0
 11
336.64512110442797
 21
267.55589046856568
 31
0.0
  0
ARC
  5
2B3
  8
0
 10
313.9882668549356
 20
271.55589046856568
 30
0.0
 40
4.0
 50
180.0
 51
270.0
  0
ARC
  5
2B4
  8
0
 10
342.9882668549356
 20
257.55589046856562
 30
0.0
 40
10.0
 50
26.715316117854819
 51
89.999999999999758
  0
LINE
  5
2B5
  8
1
 10
322.9882668549356
 20
276.05589046856562
 30
0.0
 11
307.98826685493538
 21
276.05589046856562
 31
0.0
  0
LINE
  5
2B6
  8
1
 10
315.4882668549356
 20
283.55589046856568
 30
0.0
 11
315.4882668549356
 21
268.55589046856562
 31
0.0
  0
CIRCLE
  5
2B7
  8
3
 10
315.4882668549356
 20
276.05589046856562
 30
0.0
 40
3.0
  0
CIRCLE
  5
2B8
  8
0
 10
315.4882668549356
 20
276.05589046856562
 30
0.0
 40
2.458499999999999
  0
CIRCLE
  5
2C6
  8
0
 10
337.4882668549356
 20
272.55589046856539
 30
0.0
 40
1.6209999999999991
  0
CIRCLE
  5
2C7
  8
3
 10
337.4882668549356
 20
272.55589046856539
 30
0.0
 40
2.0
  0
CIRCLE
  5
39B
  8
0
 10
492.74015938841222
 20
264.55589046856562
 30
0.0
 40
3.5
  0
CIRCLE
  5
39C
  8
0
 10
452.740159388412
 20
264.55589046856562
 30
0.0
 40
3.5
  0
LINE
  5
39D
  8
0
 10
442.740159388412
 20
268.55589046856562
 30
0.0
 11
502.740159388412
 21
268.55589046856562
 31
0.0
  0
LINE
  5
39E
  8
0
 10
442.740159388412
 20
260.55589046856562
 30
0.0
 11
502.740159388412
 21
260.55589046856562
 31
0.0
  0
LINE
  5
39F
  8
0
 10
442.74015938841222
 20
284.55589046856562
 30
0.0
 11
442.74015938841222
 21
252.55589046856559
 31
0.0
  0
LINE
  5
3A0
  8
0
 10
502.740159388412
 20
284.55589046856562
 30
0.0
 11
502.740159388412
 21
252.55589046856559
 31
0.0
  0
LINE
  5
3A1
  8
0
 10
442.74015938841222
 20
284.55589046856562
 30
0.0
 11
502.740159388412
 21
284.55589046856562
 31
0.0
  0
LINE
  5
3A2
  8
0
 10
442.74015938841222
 20
252.55589046856559
 30
0.0
 11
502.740159388412
 21
252.55589046856559
 31
0.0
  0
LINE
  5
3A3
  8
1
 10
492.74015938841222
 20
272.05589046856551
 30
0.0
 11
492.74015938841222
 21
257.05589046856551
 31
0.0
  0
LINE
  5
3A4
  8
1
 10
452.740159388412
 20
272.05589046856551
 30
0.0
 11
452.740159388412
 21
257.05589046856551
 31
0.0
  0
LINE
  5
3A5
  8
1
 10
437.74015938841222
 20
264.55589046856562
 30
0.0
 11
507.74015938841211
 21
264.55589046856562
 31
0.0
  0
LINE
  5
3A6
  8
1
 10
347.98826685493572
 20
381.09476583070091
 30
0.0
 11
347.98826685493572
 21
364.09476583070091
 31
0.0
  0
LINE
  5
3A7
  8
1
 10
356.48826685493572
 20
372.59476583070091
 30
0.0
 11
339.48826685493572
 21
372.59476583070091
 31
0.0
  0
LINE
  5
3A8
  8
1
 10
347.98826685493572
 20
421.09476583070079
 30
0.0
 11
347.98826685493572
 21
404.09476583070079
 31
0.0
  0
LINE
  5
3A9
  8
1
 10
356.48826685493572
 20
412.59476583070079
 30
0.0
 11
339.48826685493572
 21
412.59476583070079
 31
0.0
  0
CIRCLE
  5
3AA
  8
0
 10
347.98826685493572
 20
372.59476583070091
 30
0.0
 40
3.5
  0
CIRCLE
  5
3AB
  8
0
 10
347.98826685493572
 20
412.59476583070079
 30
0.0
 40
3.5
  0
LINE
  5
3AC
  8
0
 10
343.9882668549356
 20
422.59476583070091
 30
0.0
 11
343.9882668549356
 21
362.59476583070079
 31
0.0
  0
LINE
  5
3AD
  8
0
 10
351.9882668549356
 20
422.59476583070091
 30
0.0
 11
351.9882668549356
 21
362.59476583070079
 31
0.0
  0
LINE
  5
3AE
  8
0
 10
309.9882668549356
 20
422.59476583070091
 30
0.0
 11
367.98826685493572
 21
422.59476583070091
 31
0.0
  0
LINE
  5
3AF
  8
0
 10
309.9882668549356
 20
362.59476583070079
 30
0.0
 11
367.9882668549356
 21
362.59476583070079
 31
0.0
  0
LINE
  5
3B0
  8
0
 10
309.9882668549356
 20
422.59476583070091
 30
0.0
 11
309.9882668549356
 21
362.59476583070079
 31
0.0
  0
LINE
  5
3B1
  8
0
 10
367.98826685493572
 20
422.59476583070091
 30
0.0
 11
367.9882668549356
 21
362.59476583070079
 31
0.0
  0
LINE
  5
3B2
  8
0
 10
174.6094963057144
 20
252.55589046856559
 30
0.0
 11
234.60949630571471
 21
252.55589046856559
 31
0.0
  0
LINE
  5
3B3
  8
0
 10
174.6094963057144
 20
284.55589046856562
 30
0.0
 11
234.60949630571449
 21
284.55589046856562
 31
0.0
  0
LINE
  5
3B4
  8
0
 10
234.60949630571449
 20
284.55589046856562
 30
0.0
 11
234.60949630571471
 21
252.55589046856559
 31
0.0
  0
LINE
  5
3B5
  8
0
 10
174.6094963057144
 20
284.55589046856562
 30
0.0
 11
174.6094963057144
 21
252.55589046856559
 31
0.0
  0
CIRCLE
  5
3B6
  8
0
 10
204.60949630571449
 20
274.80589046856562
 30
0.0
 40
5.0
  0
CIRCLE
  5
3B7
  8
0
 10
204.60949630571449
 20
274.80589046856562
 30
0.0
 40
3.5
  0
ARC
  5
3B8
  8
0
 10
224.60949630571471
 20
264.55589046856551
 30
0.0
 40
3.5
 50
121.0027191338699
 51
58.997280866130097
  0
ARC
  5
3B9
  8
0
 10
184.6094963057144
 20
264.55589046856551
 30
0.0
 40
3.5
 50
121.0027191338699
 51
58.997280866130097
  0
LINE
  5
3BA
  8
1
 10
204.60949630571449
 20
289.55589046856562
 30
0.0
 11
204.60949630571449
 21
247.55589046856559
 31
0.0
  0
LINE
  5
3BB
  8
1
 10
239.60949630571471
 20
264.55589046856562
 30
0.0
 11
169.6094963057144
 21
264.55589046856562
 31
0.0
  0
LINE
  5
3BC
  8
1
 10
197.1094963057144
 20
274.80589046856562
 30
0.0
 11
212.1094963057144
 21
274.80589046856562
 31
0.0
  0
LINE
  5
3BD
  8
1
 10
224.60949630571471
 20
270.55589046856551
 30
0.0
 11
224.60949630571471
 21
258.55589046856551
 31
0.0
  0
LINE
  5
3BE
  8
1
 10
184.6094963057144
 20
270.55589046856551
 30
0.0
 11
184.6094963057144
 21
258.55589046856551
 31
0.0
  0
LINE
  5
3BF
  8
0
 10
174.6094963057144
 20
267.55589046856562
 30
0.0
 11
234.60949630571449
 21
267.55589046856562
 31
0.0
  0
ARC
  5
3C0
  8
0
 10
204.60949630571449
 20
274.80589046856568
 30
0.0
 40
8.5
 50
238.53302370673401
 51
301.46697629326599
  0
LINE
  5
4D2
  8
0
 10
328.84182683921512
 20
267.80589046856551
 30
0.0
 11
327.13470687065592
 21
267.80589046856551
 31
0.0
  0
LINE
  5
4D3
  8
0
 10
324.48826685493549
 20
266.30589046856551
 30
0.0
 11
325.3470764817647
 21
266.30589046856551
 31
0.0
  0
LINE
  5
4D4
  8
0
 10
324.48826685493549
 20
270.80589046856562
 30
0.0
 11
324.18311467943357
 21
270.80589046856562
 31
0.0
  0
LINE
  5
4D6
  8
0
 10
331.79341903043752
 20
270.80589046856562
 30
0.0
 11
331.48826685493549
 21
270.80589046856562
 31
0.0
  0
LINE
  5
4DA
  8
0
 10
331.48826685493549
 20
271.27625304495439
 30
0.0
 11
331.48826685493549
 21
266.30589046856551
 31
0.0
  0
LINE
  5
4DB
  8
0
 10
324.48826685493549
 20
271.27625304495427
 30
0.0
 11
324.48826685493549
 21
266.30589046856551
 31
0.0
  0
LINE
  5
4DC
  8
0
 10
331.48826685493549
 20
266.30589046856551
 30
0.0
 11
330.6294572281065
 21
266.30589046856551
 31
0.0
  0
LINE
  5
4DF
  8
0
 10
327.13470687065592
 20
267.80589046856551
 30
0.0
 11
325.3470764817647
 21
266.30589046856551
 31
0.0
  0
LINE
  5
4E0
  8
0
 10
328.84182683921512
 20
267.80589046856551
 30
0.0
 11
330.6294572281065
 21
266.30589046856551
 31
0.0
  0
LINE
  5
4E6
  8
0
 10
327.13470687065592
 20
278.55589046856562
 30
0.0
 11
327.13470687065592
 21
267.80589046856551
 31
0.0
  0
LINE
  5
4E7
  8
0
 10
325.3470764817647
 20
278.0293813684624
 30
0.0
 11
325.3470764817647
 21
266.30589046856551
 31
0.0
  0
LINE
  5
4E8
  8
0
 10
328.84182683921512
 20
278.55589046856562
 30
0.0
 11
328.84182683921512
 21
267.80589046856551
 31
0.0
  0
LINE
  5
4E9
  8
0
 10
330.6294572281065
 20
278.02938136846262
 30
0.0
 11
330.6294572281065
 21
266.30589046856551
 31
0.0
  0
LINE
  5
5E7
  8
0
 10
328.84182683921529
 20
133.99219405823391
 30
0.0
 11
327.13470687065598
 21
133.99219405823391
 31
0.0
  0
LINE
  5
5E8
  8
0
 10
324.4882668549356
 20
132.49219405823391
 30
0.0
 11
325.3470764817647
 21
132.49219405823391
 31
0.0
  0
LINE
  5
5E9
  8
0
 10
331.4882668549356
 20
140.99219405823391
 30
0.0
 11
331.48826685493572
 21
132.49219405823391
 31
0.0
  0
LINE
  5
5EA
  8
0
 10
324.48826685493572
 20
140.99219405823391
 30
0.0
 11
324.48826685493572
 21
132.49219405823391
 31
0.0
  0
LINE
  5
5EB
  8
0
 10
331.48826685493572
 20
132.49219405823391
 30
0.0
 11
330.6294572281065
 21
132.49219405823391
 31
0.0
  0
LINE
  5
5EC
  8
0
 10
327.13470687065598
 20
133.99219405823391
 30
0.0
 11
325.3470764817647
 21
132.49219405823391
 31
0.0
  0
LINE
  5
5ED
  8
0
 10
328.84182683921529
 20
133.99219405823391
 30
0.0
 11
330.6294572281065
 21
132.49219405823391
 31
0.0
  0
LINE
  5
5EE
  8
0
 10
327.13470687065598
 20
140.99219405823391
 30
0.0
 11
327.13470687065598
 21
133.99219405823391
 31
0.0
  0
LINE
  5
5EF
  8
0
 10
325.3470764817647
 20
140.99219405823391
 30
0.0
 11
325.3470764817647
 21
132.49219405823391
 31
0.0
  0
LINE
  5
5F0
  8
0
 10
328.84182683921529
 20
140.99219405823391
 30
0.0
 11
328.84182683921529
 21
133.99219405823391
 31
0.0
  0
LINE
  5
5F1
  8
0
 10
330.62945722810662
 20
140.99219405823391
 30
0.0
 11
330.6294572281065
 21
132.49219405823391
 31
0.0
  0
LINE
  5
5F2
  8
0
 10
328.84182683921529
 20
147.99219405823379
 30
0.0
 11
327.13470687065598
 21
147.99219405823391
 31
0.0
  0
LINE
  5
5F3
  8
0
 10
324.4882668549356
 20
149.49219405823391
 30
0.0
 11
325.3470764817647
 21
149.49219405823391
 31
0.0
  0
LINE
  5
5F4
  8
0
 10
331.4882668549356
 20
140.99219405823391
 30
0.0
 11
331.48826685493572
 21
149.49219405823391
 31
0.0
  0
LINE
  5
5F5
  8
0
 10
324.48826685493572
 20
140.99219405823391
 30
0.0
 11
324.48826685493572
 21
149.49219405823391
 31
0.0
  0
LINE
  5
5F6
  8
0
 10
331.48826685493572
 20
149.49219405823391
 30
0.0
 11
330.6294572281065
 21
149.49219405823391
 31
0.0
  0
LINE
  5
5F7
  8
0
 10
327.13470687065598
 20
147.99219405823391
 30
0.0
 11
325.3470764817647
 21
149.49219405823391
 31
0.0
  0
LINE
  5
5F8
  8
0
 10
328.84182683921529
 20
147.99219405823391
 30
0.0
 11
330.6294572281065
 21
149.49219405823391
 31
0.0
  0
LINE
  5
5F9
  8
0
 10
327.13470687065598
 20
140.99219405823391
 30
0.0
 11
327.13470687065598
 21
147.99219405823391
 31
0.0
  0
LINE
  5
5FA
  8
0
 10
325.3470764817647
 20
140.99219405823391
 30
0.0
 11
325.3470764817647
 21
149.49219405823391
 31
0.0
  0
LINE
  5
5FB
  8
0
 10
328.84182683921529
 20
140.99219405823391
 30
0.0
 11
328.84182683921529
 21
147.99219405823391
 31
0.0
  0
LINE
  5
5FC
  8
0
 10
330.62945722810662
 20
140.99219405823391
 30
0.0
 11
330.6294572281065
 21
149.49219405823391
 31
0.0
  0
TEXT
  5
611
  8
0
 62
     3
 10
0.0
 20
0.0
 30
0.0
 40
10.0
  1
DE-BU6-C-N
  7
STANDARD1
  0
ENDSEC
  0
EOF
