  0
SECTION
  2
HEADER
  9
$ACADVER
  1
AC1009
  9
$INSBASE
 10
105.0
 20
0.0
 30
0.0
  9
$EXTMIN
 10
0.0
 20
-2.960436562073669
 30
0.0
  9
$EXTMAX
 10
614.89523963496526
 20
443.54361668091337
 30
0.0
  9
$LIMMIN
 10
0.0
 20
0.0
  9
$LIMMAX
 10
375.0
 20
270.0
  9
$ORTHOMODE
 70
     0
  9
$REGENMODE
 70
     1
  9
$FILLMODE
 70
     1
  9
$QTEXTMODE
 70
     0
  9
$MIRRTEXT
 70
     0
  9
$DRAGMODE
 70
     2
  9
$LTSCALE
 40
10.0
  9
$OSMODE
 70
  3071
  9
$ATTMODE
 70
     1
  9
$TEXTSIZE
 40
5.0
  9
$TRACEWID
 40
0.05
  9
$TEXTSTYLE
  7
STANDARD
  9
$CLAYER
  8
0
  9
$CELTYPE
  6
BYLAYER
  9
$CECOLOR
 62
   256
  9
$DIMSCALE
 40
1.0
  9
$DIMASZ
 40
3.0
  9
$DIMEXO
 40
2.0
  9
$DIMDLI
 40
0.3799999999999999
  9
$DIMRND
 40
0.0
  9
$DIMDLE
 40
0.0
  9
$DIMEXE
 40
2.0
  9
$DIMTP
 40
0.0
  9
$DIMTM
 40
0.0
  9
$DIMTXT
 40
3.2000000000000002
  9
$DIMCEN
 40
0.0
  9
$DIMTSZ
 40
0.0
  9
$DIMTOL
 70
     0
  9
$DIMLIM
 70
     0
  9
$DIMTIH
 70
     0
  9
$DIMTOH
 70
     0
  9
$DIMSE1
 70
     0
  9
$DIMSE2
 70
     0
  9
$DIMTAD
 70
     1
  9
$DIMZIN
 70
     0
  9
$DIMBLK
  1

  9
$DIMASO
 70
     0
  9
$DIMSHO
 70
     0
  9
$DIMPOST
  1

  9
$DIMAPOST
  1

  9
$DIMALT
 70
     0
  9
$DIMALTD
 70
     2
  9
$DIMALTF
 40
25.399999999999999
  9
$DIMLFAC
 40
1.0
  9
$DIMTOFL
 70
     1
  9
$DIMTVP
 40
0.0
  9
$DIMTIX
 70
     1
  9
$DIMSOXD
 70
     0
  9
$DIMSAH
 70
     0
  9
$DIMBLK1
  1

  9
$DIMBLK2
  1

  9
$DIMSTYLE
  2
STANDARD
  9
$DIMCLRD
 70
     0
  9
$DIMCLRE
 70
     0
  9
$DIMCLRT
 70
     0
  9
$DIMTFAC
 40
1.0
  9
$DIMGAP
 40
0.09
  9
$LUNITS
 70
     2
  9
$LUPREC
 70
     4
  9
$SKETCHINC
 40
0.1
  9
$FILLETRAD
 40
1.5
  9
$AUNITS
 70
     0
  9
$AUPREC
 70
     0
  9
$MENU
  1
E:\r13\win\SUPPORT\ACAD
  9
$ELEVATION
 40
0.0
  9
$PELEVATION
 40
0.0
  9
$THICKNESS
 40
0.0
  9
$LIMCHECK
 70
     0
  9
$BLIPMODE
 70
     0
  9
$CHAMFERA
 40
0.0
  9
$CHAMFERB
 40
0.0
  9
$SKPOLY
 70
     0
  9
$TDCREATE
 40
2449840.6503240741
  9
$TDUPDATE
 40
2456598.6029195492
  9
$TDINDWG
 40
0.1109990162
  9
$TDUSRTIMER
 40
0.1109990162
  9
$USRTIMER
 70
     1
  9
$ANGBASE
 50
0.0
  9
$ANGDIR
 70
     0
  9
$PDMODE
 70
     0
  9
$PDSIZE
 40
0.0
  9
$PLINEWID
 40
0.0
  9
$COORDS
 70
     1
  9
$SPLFRAME
 70
     0
  9
$SPLINETYPE
 70
     6
  9
$SPLINESEGS
 70
     8
  9
$ATTDIA
 70
     0
  9
$ATTREQ
 70
     1
  9
$HANDLING
 70
     1
  9
$HANDSEED
  5
D99
  9
$SURFTAB1
 70
     6
  9
$SURFTAB2
 70
     6
  9
$SURFTYPE
 70
     6
  9
$SURFU
 70
     6
  9
$SURFV
 70
     6
  9
$UCSNAME
  2

  9
$UCSORG
 10
0.0
 20
0.0
 30
0.0
  9
$UCSXDIR
 10
1.0
 20
0.0
 30
0.0
  9
$UCSYDIR
 10
0.0
 20
1.0
 30
0.0
  9
$PUCSNAME
  2

  9
$PUCSORG
 10
0.0
 20
0.0
 30
0.0
  9
$PUCSXDIR
 10
1.0
 20
0.0
 30
0.0
  9
$PUCSYDIR
 10
0.0
 20
1.0
 30
0.0
  9
$USERI1
 70
     0
  9
$USERI2
 70
     1
  9
$USERI3
 70
     0
  9
$USERI4
 70
     0
  9
$USERI5
 70
     0
  9
$USERR1
 40
0.0
  9
$USERR2
 40
0.0
  9
$USERR3
 40
0.0
  9
$USERR4
 40
0.0
  9
$USERR5
 40
0.0
  9
$WORLDVIEW
 70
     1
  9
$SHADEDGE
 70
     3
  9
$SHADEDIF
 70
    70
  9
$TILEMODE
 70
     1
  9
$MAXACTVP
 70
    16
  9
$PLIMCHECK
 70
     0
  9
$PEXTMIN
 10
1.0000000000000000E+020
 20
1.0000000000000000E+020
 30
1.0000000000000000E+020
  9
$PEXTMAX
 10
-1.0000000000000000E+020
 20
-1.0000000000000000E+020
 30
-1.0000000000000000E+020
  9
$PLIMMIN
 10
0.0
 20
0.0
  9
$PLIMMAX
 10
12.0
 20
9.0
  9
$UNITMODE
 70
     0
  9
$VISRETAIN
 70
     0
  9
$PLINEGEN
 70
     0
  9
$PSLTSCALE
 70
     0
  0
ENDSEC
  0
SECTION
  2
TABLES
  0
TABLE
  2
VPORT
 70
     1
  0
VPORT
  2
*ACTIVE
 70
     0
 10
0.0
 20
0.0
 11
1.0
 21
1.0
 12
319.82100022667038
 22
220.28286290429921
 13
0.0
 23
0.0
 14
5.0
 24
5.0
 15
10.0
 25
10.0
 16
0.0
 26
0.0
 36
1.0
 17
0.0
 27
0.0
 37
0.0
 40
450.55350138492889
 41
1.831871345029239
 42
50.0
 43
0.0
 44
0.0
 50
0.0
 51
0.0
 71
     0
 72
   500
 73
     1
 74
     0
 75
     0
 76
     0
 77
     0
 78
     0
  0
ENDTAB
  0
TABLE
  2
LTYPE
 70
     3
  0
LTYPE
  2
CONTINUOUS
 70
     0
  3
Solid Line
 72
    65
 73
     0
 40
0.0
  0
LTYPE
  2
CENTER
 70
     0
  3
____ _ ____ _ ____ _ ____ _ ____ _ ____ _ ____
 72
    65
 73
     4
 40
2.0
 49
1.25
 49
-0.25
 49
0.25
 49
-0.25
  0
LTYPE
  2
PHANTOM2
 70
     0
  3
___ _ _ ___ _ _ ___ _ _ ___ _ _
 72
    65
 73
     6
 40
1.25
 49
0.625
 49
-0.125
 49
0.125
 49
-0.125
 49
0.125
 49
-0.125
  0
ENDTAB
  0
TABLE
  2
LAYER
 70
     3
  0
LAYER
  2
0
 70
     0
 62
     7
  6
CONTINUOUS
  0
LAYER
  2
1
 70
     0
 62
     1
  6
CENTER
  0
LAYER
  2
3
 70
     0
 62
     3
  6
CONTINUOUS
  0
ENDTAB
  0
TABLE
  2
STYLE
 70
     2
  0
STYLE
  2
STANDARD
 70
     0
 40
0.0
 41
1.0
 50
0.0
 71
     0
 42
5.0
  3
TXT
  4
BIGFONT
  0
STYLE
  2
STANDARD1
 70
     0
 40
0.0
 41
1.0
 50
0.0
 71
     0
 42
3.0
  3
txt
  4

  0
ENDTAB
  0
TABLE
  2
VIEW
 70
     1
  0
VIEW
  2
ALL
 70
     0
 40
450.59960692618819
 10
368.81009844210701
 20
225.29980346309409
 41
0.0
 11
0.0
 21
0.0
 31
1.0
 12
0.0
 22
0.0
 32
0.0
 42
0.0
 43
0.0
 44
0.0
 50
0.0
 71
     0
  0
ENDTAB
  0
TABLE
  2
UCS
 70
     0
  0
ENDTAB
  0
TABLE
  2
APPID
 70
     6
  0
APPID
  2
ACAD
 70
     0
  0
APPID
  2
GENIUS_GENODEF_13
 70
     0
  0
APPID
  2
GENIUS_GENOREF_13
 70
     0
  0
APPID
  2
GENIUS_GENOBJ-N-FIL_13
 70
     0
  0
APPID
  2
ACAD_MLEADERVER
 70
     0
  0
APPID
  2
ACAD_NAV_VCDISPLAY
 70
     0
  0
ENDTAB
  0
TABLE
  2
DIMSTYLE
 70
     1
  0
DIMSTYLE
  2
STANDARD
 70
     0
  3

  4

  5

  6

  7

 40
1.0
 41
0.18
 42
0.0625
 43
0.38
 44
0.18
 45
0.0
 46
0.0
 47
0.0
 48
0.0
140
0.18
141
0.09
142
0.0
143
25.399999999999999
144
1.0
145
0.0
146
1.0
147
0.09
 71
     0
 72
     0
 73
     1
 74
     1
 75
     0
 76
     0
 77
     0
 78
     0
170
     0
171
     2
172
     0
173
     0
174
     0
175
     0
176
     0
177
     0
178
     0
  0
ENDTAB
  0
ENDSEC
  0
SECTION
  2
BLOCKS
  0
BLOCK
  8
0
  2
$MODEL_SPACE
 70
     0
 10
0.0
 20
0.0
 30
0.0
  3
$MODEL_SPACE
  1

  0
ENDBLK
  5
C4F
  8
0
  0
BLOCK
 67
     1
  8
0
  2
$PAPER_SPACE
 70
     0
 10
0.0
 20
0.0
 30
0.0
  3
$PAPER_SPACE
  1

  0
ENDBLK
  5
C4D
 67
     1
  8
0
  0
BLOCK
  8
0
  2
STDGX5
 70
     0
 10
0.0
 20
0.0
 30
0.0
  3
STDGX5
  1

  0
ENDBLK
  5
8D8
  8
0
  0
ENDSEC
  0
SECTION
  2
ENTITIES
  0
ARC
  5
45E
  8
0
 10
388.89523963497533
 20
232.94043377400911
 30
0.0
 40
1.000000000000085
 50
323.69081172756751
 51
0.0000000000020356
  0
ARC
  5
45F
  8
0
 10
370.89523963495839
 20
232.9404337740061
 30
0.0
 40
1.0000000000000571
 50
180.00000000000969
 51
216.3091882724442
  0
LINE
  5
462
  8
0
 10
399.76386229777222
 20
224.0830738026967
 30
0.0
 11
399.89492619145619
 21
234.55177727591609
 31
0.0
  0
LINE
  5
464
  8
0
 10
366.19523963496448
 20
234.1018517187496
 30
0.0
 11
366.1952396349659
 21
208.1018517187494
 31
0.0
  0
LINE
  5
465
  8
0
 10
351.89523963495981
 20
234.10185171874971
 30
0.0
 11
351.89523963495981
 21
201.10185171874971
 31
0.0
  0
LINE
  5
466
  8
0
 10
349.39523963495981
 20
234.60185171874971
 30
0.0
 11
349.39523963495981
 21
202.10185171874971
 31
0.0
  0
LINE
  5
46A
  8
1
 10
370.19523963496528
 20
220.30185171874709
 30
0.0
 11
347.89523963495981
 21
220.30185171874709
 31
0.0
1001
GENIUS_GENOREF_13
1005
0
  0
LINE
  5
46B
  8
0
 10
369.39523963496498
 20
200.60185171874949
 30
0.0
 11
395.89523963496532
 21
200.60185171874949
 31
0.0
  0
ARC
  5
46C
  8
0
 10
390.23523963495842
 20
247.1518517187437
 30
0.0
 40
25.000000000000188
 50
216.3091882724357
 51
233.13010235415689
  0
LINE
  5
46D
  8
0
 10
354.39523963496657
 20
233.20185171872549
 30
0.0
 11
354.39523963496458
 21
207.40185171877019
 31
0.0
  0
LINE
  5
46E
  8
0
 10
358.313739182174
 20
231.9047358487197
 30
0.0
 11
358.31373918217309
 21
208.6989675887736
 31
0.0
  0
LINE
  5
46F
  8
0
 10
354.89523963496657
 20
233.70185171873271
 30
0.0
 11
354.89523963496458
 21
206.90185171876109
 31
0.0
  0
LINE
  5
470
  8
0
 10
356.0494073562329
 20
233.70185171875369
 30
0.0
 11
356.04940735622017
 21
206.90185171874001
 31
0.0
  0
LINE
  5
471
  8
0
 10
365.39523963497868
 20
233.2018517187108
 30
0.0
 11
365.39523963496208
 21
207.4018517187663
 31
0.0
  0
LINE
  5
472
  8
0
 10
361.4767400877692
 20
231.90473584872549
 30
0.0
 11
361.47674008776841
 21
208.6989675887686
 31
0.0
  0
LINE
  5
473
  8
0
 10
364.89523963496413
 20
233.7018517187345
 30
0.0
 11
364.895239634966
 21
206.90185171876109
 31
0.0
  0
LINE
  5
474
  8
0
 10
363.7410719136854
 20
233.70185171874471
 30
0.0
 11
363.74107191367631
 21
206.90185171876001
 31
0.0
  0
ARC
  5
477
  8
0
 10
350.89523963495981
 20
202.10185171874971
 30
0.0
 40
1.5
 50
179.99999999999989
 51
270.0
1001
GENIUS_GENODEF_13
1002
{
1000
HIER
1070
     0
1002
}
1002
{
1000
MANEDIT
1070
     0
1002
}
1002
{
1000
NOSEL
1070
     0
1002
}
1002
{
1000
BEHIND
1070
     0
1002
}
1002
{
1000
REACTOR
1002
}
1001
GENIUS_GENOBJ-N-FIL_13
1002
{
1000
OWNER
1000
GEN
1002
}
  0
ARC
  5
478
  8
0
 10
351.39523963495981
 20
201.10185171874971
 30
0.0
 40
0.5
 50
270.0
 51
0.0
1001
GENIUS_GENODEF_13
1002
{
1000
HIER
1070
     0
1002
}
1002
{
1000
MANEDIT
1070
     0
1002
}
1002
{
1000
NOSEL
1070
     0
1002
}
1002
{
1000
BEHIND
1070
     0
1002
}
1002
{
1000
REACTOR
1002
}
1001
GENIUS_GENOBJ-N-FIL_13
1002
{
1000
OWNER
1000
GEN
1002
}
  0
LINE
  5
479
  8
0
 10
351.39523963495981
 20
200.60185171874971
 30
0.0
 11
350.89523963495981
 21
200.60185171874971
 31
0.0
  0
LINE
  5
47C
  8
0
 10
361.8949661508982
 20
208.45091838342091
 30
0.0
 11
363.74107191368262
 21
206.90185171875129
 31
0.0
  0
ARC
  5
47D
  8
0
 10
358.8596945335687
 20
207.30185171874621
 30
0.0
 40
1.5
 50
89.999999999921727
 51
129.99999999980449
1001
GENIUS_GENODEF_13
1002
{
1000
HIER
1070
     0
1002
}
1002
{
1000
MANEDIT
1070
     0
1002
}
1002
{
1000
NOSEL
1070
     0
1002
}
1002
{
1000
BEHIND
1070
     0
1002
}
1002
{
1000
REACTOR
1002
}
1001
GENIUS_GENOBJ-N-FIL_13
1002
{
1000
OWNER
1000
GEN
1002
}
  0
LINE
  5
47E
  8
0
 10
354.89523963496458
 20
206.90185171876109
 30
0.0
 11
356.04940735622017
 21
206.90185171874001
 31
0.0
  0
LINE
  5
47F
  8
0
 10
354.89523963496458
 20
206.90185171876109
 30
0.0
 11
354.39523963496458
 21
207.40185171877019
 31
0.0
  0
LINE
  5
480
  8
0
 10
356.04940735622017
 20
206.90185171874001
 30
0.0
 11
357.89551311904279
 21
208.4509183834279
 31
0.0
  0
LINE
  5
481
  8
0
 10
358.85969453357069
 20
208.80185171874621
 30
0.0
 11
360.9307847363695
 21
208.80185171874319
 31
0.0
  0
ARC
  5
482
  8
0
 10
360.93078473636751
 20
207.30185171874331
 30
0.0
 40
1.5
 50
49.999999999946823
 51
89.999999999921272
1001
GENIUS_GENODEF_13
1002
{
1000
HIER
1070
     0
1002
}
1002
{
1000
MANEDIT
1070
     0
1002
}
1002
{
1000
NOSEL
1070
     0
1002
}
1002
{
1000
BEHIND
1070
     0
1002
}
1002
{
1000
REACTOR
1002
}
1001
GENIUS_GENOBJ-N-FIL_13
1002
{
1000
OWNER
1000
GEN
1002
}
  0
LINE
  5
483
  8
0
 10
367.89523963496549
 20
207.10185171874949
 30
0.0
 11
367.89523963496509
 21
202.10185171874971
 31
0.0
  0
ARC
  5
484
  8
0
 10
369.39523963496498
 20
202.10185171874949
 30
0.0
 40
1.5
 50
179.99999999999659
 51
269.99999999999989
1001
GENIUS_GENODEF_13
1002
{
1000
HIER
1070
     0
1002
}
1002
{
1000
MANEDIT
1070
     0
1002
}
1002
{
1000
NOSEL
1070
     0
1002
}
1002
{
1000
BEHIND
1070
     0
1002
}
1002
{
1000
REACTOR
1002
}
1001
GENIUS_GENOBJ-N-FIL_13
1002
{
1000
OWNER
1000
GEN
1002
}
  0
ARC
  5
485
  8
0
 10
366.6952396349659
 20
208.1018517187494
 30
0.0
 40
0.5
 50
180.00000000000301
 51
269.99999999999858
1001
GENIUS_GENODEF_13
1002
{
1000
HIER
1070
     0
1002
}
1002
{
1000
MANEDIT
1070
     0
1002
}
1002
{
1000
NOSEL
1070
     0
1002
}
1002
{
1000
BEHIND
1070
     0
1002
}
1002
{
1000
REACTOR
1002
}
1001
GENIUS_GENOBJ-N-FIL_13
1002
{
1000
OWNER
1000
GEN
1002
}
  0
LINE
  5
486
  8
0
 10
363.74107191368262
 20
206.90185171875129
 30
0.0
 11
364.89523963495122
 21
206.9018517187462
 31
0.0
  0
LINE
  5
487
  8
0
 10
364.89523963495122
 20
206.9018517187462
 30
0.0
 11
365.39523963496208
 21
207.4018517187663
 31
0.0
  0
ARC
  5
488
  8
0
 10
367.39523963496549
 20
207.10185171874949
 30
0.0
 40
0.5
 50
359.99999999999528
 51
89.999999999998636
1001
GENIUS_GENODEF_13
1002
{
1000
HIER
1070
     0
1002
}
1002
{
1000
MANEDIT
1070
     0
1002
}
1002
{
1000
NOSEL
1070
     0
1002
}
1002
{
1000
BEHIND
1070
     0
1002
}
1002
{
1000
REACTOR
1002
}
1001
GENIUS_GENOBJ-N-FIL_13
1002
{
1000
OWNER
1000
GEN
1002
}
  0
LINE
  5
489
  8
0
 10
366.6952396349659
 20
207.6018517187494
 30
0.0
 11
367.39523963496549
 21
207.6018517187494
 31
0.0
  0
LINE
  5
48A
  8
0
 10
354.39523963496691
 20
215.05185171874689
 30
0.0
 11
353.69523963496488
 21
215.0518517187472
 31
0.0
  0
LINE
  5
48B
  8
0
 10
354.39523963496691
 20
225.55185171874689
 30
0.0
 11
353.69523963496488
 21
225.55185171874641
 31
0.0
  0
LINE
  5
48C
  8
0
 10
353.39523963496617
 20
213.30185171873219
 30
0.0
 11
353.39523963496492
 21
227.30185171873219
 31
0.0
  0
ARC
  5
48D
  8
0
 10
353.69523963496511
 20
215.3518517187473
 30
0.0
 40
0.3
 50
179.99999999999471
 51
269.99999999996737
1001
GENIUS_GENODEF_13
1002
{
1000
HIER
1070
     0
1002
}
1002
{
1000
MANEDIT
1070
     0
1002
}
1002
{
1000
NOSEL
1070
     0
1002
}
1002
{
1000
BEHIND
1070
     0
1002
}
1002
{
1000
REACTOR
1002
}
1001
GENIUS_GENOBJ-N-FIL_13
1002
{
1000
OWNER
1000
GEN
1002
}
  0
ARC
  5
48F
  8
0
 10
353.69523963496511
 20
225.25185171874651
 30
0.0
 40
0.3
 50
90.000000000032571
 51
180.0000000000052
1001
GENIUS_GENODEF_13
1002
{
1000
HIER
1070
     0
1002
}
1002
{
1000
MANEDIT
1070
     0
1002
}
1002
{
1000
NOSEL
1070
     0
1002
}
1002
{
1000
BEHIND
1070
     0
1002
}
1002
{
1000
REACTOR
1002
}
1001
GENIUS_GENOBJ-N-FIL_13
1002
{
1000
OWNER
1000
GEN
1002
}
  0
ARC
  5
499
  8
0
 10
366.09523963496758
 20
215.3518517187434
 30
0.0
 40
0.3
 50
270.0
 51
289.47122063409228
1001
GENIUS_GENODEF_13
1002
{
1000
HIER
1070
     0
1002
}
1002
{
1000
MANEDIT
1070
     0
1002
}
1002
{
1000
NOSEL
1070
     0
1002
}
1002
{
1000
BEHIND
1070
     0
1002
}
1002
{
1000
REACTOR
1002
}
1001
GENIUS_GENOBJ-N-FIL_13
1002
{
1000
OWNER
1000
GEN
1002
}
  0
LINE
  5
49A
  8
0
 10
365.39523963496549
 20
215.05185171874351
 30
0.0
 11
366.09523963496758
 21
215.05185171874351
 31
0.0
  0
LINE
  5
49B
  8
0
 10
361.8949661508982
 20
232.15278505407281
 30
0.0
 11
363.74107191368262
 21
233.7018517187424
 31
0.0
  0
ARC
  5
49C
  8
0
 10
358.8596945335687
 20
233.30185171874751
 30
0.0
 40
1.5
 50
230.00000000019551
 51
270.00000000007827
1001
GENIUS_GENODEF_13
1002
{
1000
HIER
1070
     0
1002
}
1002
{
1000
MANEDIT
1070
     0
1002
}
1002
{
1000
NOSEL
1070
     0
1002
}
1002
{
1000
BEHIND
1070
     0
1002
}
1002
{
1000
REACTOR
1002
}
1001
GENIUS_GENOBJ-N-FIL_13
1002
{
1000
OWNER
1000
GEN
1002
}
  0
LINE
  5
49D
  8
0
 10
354.89523963496458
 20
233.70185171873271
 30
0.0
 11
354.39523963496458
 21
233.2018517187235
 31
0.0
  0
LINE
  5
49E
  8
0
 10
354.89523963496458
 20
233.70185171873271
 30
0.0
 11
356.04940735622017
 21
233.70185171875369
 31
0.0
  0
LINE
  5
49F
  8
0
 10
356.04940735622017
 20
233.70185171875369
 30
0.0
 11
357.89551311904279
 21
232.15278505406579
 31
0.0
  0
LINE
  5
4A0
  8
0
 10
358.85969453357069
 20
231.80185171874751
 30
0.0
 11
360.9307847363695
 21
231.8018517187505
 31
0.0
  0
ARC
  5
4A1
  8
0
 10
360.93078473636751
 20
233.3018517187505
 30
0.0
 40
1.5
 50
270.00000000007873
 51
310.00000000005321
1001
GENIUS_GENODEF_13
1002
{
1000
HIER
1070
     0
1002
}
1002
{
1000
MANEDIT
1070
     0
1002
}
1002
{
1000
NOSEL
1070
     0
1002
}
1002
{
1000
BEHIND
1070
     0
1002
}
1002
{
1000
REACTOR
1002
}
1001
GENIUS_GENOBJ-N-FIL_13
1002
{
1000
OWNER
1000
GEN
1002
}
  0
ARC
  5
4A2
  8
0
 10
366.09523963496758
 20
225.2518517187502
 30
0.0
 40
0.3
 50
70.528779366017645
 51
90.0
1001
GENIUS_GENODEF_13
1002
{
1000
HIER
1070
     0
1002
}
1002
{
1000
MANEDIT
1070
     0
1002
}
1002
{
1000
NOSEL
1070
     0
1002
}
1002
{
1000
BEHIND
1070
     0
1002
}
1002
{
1000
REACTOR
1002
}
1001
GENIUS_GENOBJ-N-FIL_13
1002
{
1000
OWNER
1000
GEN
1002
}
  0
LINE
  5
4A3
  8
0
 10
365.39523963496549
 20
225.5518517187503
 30
0.0
 11
366.09523963496758
 21
225.5518517187503
 31
0.0
  0
LINE
  5
4A4
  8
0
 10
364.89523963495122
 20
233.70185171874749
 30
0.0
 11
365.39523963496208
 21
233.20185171872751
 31
0.0
  0
LINE
  5
4A5
  8
0
 10
363.74107191368262
 20
233.7018517187424
 30
0.0
 11
364.89523963495122
 21
233.70185171874749
 31
0.0
  0
ARC
  5
4A6
  8
0
 10
394.34523963496213
 20
209.60185171875921
 30
0.0
 40
1.0
 50
270.0
 51
0.0
  0
ARC
  5
4A8
  8
0
 10
408.44523963496238
 20
228.94185171875961
 30
0.0
 40
25.00000000000043
 50
216.86989764584371
 51
233.69081172756489
  0
LINE
  5
4A9
  8
0
 10
371.59523963496582
 20
213.77769376114199
 30
0.0
 11
371.59523963496531
 21
205.60185171875059
 31
0.0
  0
LINE
  5
4AA
  8
0
 10
384.38645686323099
 20
210.55895849994229
 30
0.0
 11
388.63645686323588
 21
206.30895849993701
 31
0.0
  0
LINE
  5
4AB
  8
0
 10
399.77366471617069
 20
213.12332199940079
 30
0.0
 11
399.89482986024183
 21
204.65910580046011
 31
0.0
  0
LINE
  5
4AC
  8
0
 10
387.9293500820495
 20
204.60185171875059
 30
0.0
 11
372.59523963496531
 21
204.60185171875059
 31
0.0
  0
ARC
  5
4AD
  8
0
 10
372.59523963496531
 20
205.60185171875059
 30
0.0
 40
1.0
 50
179.99999999999679
 51
270.0
1001
GENIUS_GENODEF_13
1002
{
1000
HIER
1070
     0
1002
}
1002
{
1000
MANEDIT
1070
     0
1002
}
1002
{
1000
NOSEL
1070
     0
1002
}
1002
{
1000
BEHIND
1070
     0
1002
}
1002
{
1000
REACTOR
1002
}
1001
GENIUS_GENOBJ-N-FIL_13
1002
{
1000
OWNER
1000
GEN
1002
}
  0
ARC
  5
4AE
  8
0
 10
387.9293500820495
 20
205.6018517187504
 30
0.0
 40
0.9999999999999275
 50
270.0000000000025
 51
45.000000000001172
  0
LINE
  5
4AF
  8
0
 10
394.23382169022489
 20
208.60185171875921
 30
0.0
 11
394.34523963496213
 21
208.60185171875921
 31
0.0
  0
ARC
  5
4B0
  8
0
 10
394.23382169022489
 20
209.60185171875921
 30
0.0
 40
0.999999999999998
 50
233.6908117275658
 51
270.0000000000004
  0
ARC
  5
4B1
  8
0
 10
395.89523963496532
 20
204.60185171874949
 30
0.0
 40
4.0
 50
270.0
 51
0.8201323164617624
  0
LINE
  5
4B3
  8
1
 10
344.39523963495981
 20
218.60185171874949
 30
0.0
 11
414.89523963496538
 21
218.60185171874949
 31
0.0
1001
GENIUS_GENOREF_13
1005
0
  0
ARC
  5
4B4
  8
0
 10
369.55523963497541
 20
247.15185171874671
 30
0.0
 40
25.000000000000188
 50
306.86989764584308
 51
323.69081172756432
  0
CIRCLE
  5
4B5
  8
0
 10
379.89523963496521
 20
218.60185171874949
 30
0.0
 40
3.399999999999999
  0
ARC
  5
4B8
  8
0
 10
379.89523963496521
 20
218.60185171874949
 30
0.0
 40
7.7499999999968159
 50
213.45846501863181
 51
270.0
  0
ARC
  5
4B9
  8
0
 10
372.59523963496582
 20
213.77769376114179
 30
0.0
 40
1.0
 50
33.458465018631848
 51
179.9999999999967
1001
GENIUS_GENODEF_13
1002
{
1000
HIER
1070
     0
1002
}
1002
{
1000
MANEDIT
1070
     0
1002
}
1002
{
1000
NOSEL
1070
     0
1002
}
1002
{
1000
BEHIND
1070
     0
1002
}
1002
{
1000
REACTOR
1002
}
1001
GENIUS_GENOBJ-N-FIL_13
1002
{
1000
OWNER
1000
GEN
1002
}
  0
LINE
  5
4BA
  8
0
 10
379.89523963496498
 20
210.8518517187558
 30
0.0
 11
383.67935008204432
 21
210.8518517187558
 31
0.0
  0
ARC
  5
4BB
  8
0
 10
383.67935008204432
 20
209.8518517187558
 30
0.0
 40
1.0
 50
44.999999999998352
 51
89.999999999998167
1001
GENIUS_GENODEF_13
1002
{
1000
HIER
1070
     0
1002
}
1002
{
1000
MANEDIT
1070
     0
1002
}
1002
{
1000
NOSEL
1070
     0
1002
}
1002
{
1000
BEHIND
1070
     0
1002
}
1002
{
1000
REACTOR
1002
}
1001
GENIUS_GENOBJ-N-FIL_13
1002
{
1000
OWNER
1000
GEN
1002
}
  0
LINE
  5
4BD
  8
0
 10
379.89523963496521
 20
226.35185171874309
 30
0.0
 11
377.63523963495868
 21
226.35185171874329
 31
0.0
  0
LINE
  5
4BE
  8
0
 10
382.15523963497498
 20
226.3518517187463
 30
0.0
 11
377.63523963497499
 21
226.3518517187463
 31
0.0
  0
ARC
  5
4BF
  8
0
 10
377.63523963495868
 20
230.35185171874329
 30
0.0
 40
3.9999999999999432
 50
233.1301023541568
 51
270.0000000000008
  0
ARC
  5
4C0
  8
0
 10
382.15523963497498
 20
230.3518517187463
 30
0.0
 40
3.9999999999999631
 50
270.0000000000004
 51
306.8698976458445
  0
ARC
  5
4C3
  8
0
 10
391.64523963496208
 20
220.8618517187592
 30
0.0
 40
3.9999999999999631
 50
143.1301023541555
 51
179.9999999999996
  0
ARC
  5
4C4
  8
0
 10
396.34523963496213
 20
213.60185171875921
 30
0.0
 40
1.0
 50
90.0
 51
180.0
  0
ARC
  5
4C5
  8
0
 10
391.64523963496191
 20
216.34185171875919
 30
0.0
 40
3.9999999999997611
 50
180.0
 51
216.86989764584411
  0
LINE
  5
4C6
  8
0
 10
387.64523963496208
 20
220.8618517187592
 30
0.0
 11
387.64523963496208
 21
216.34185171875919
 31
0.0
  0
ARC
  5
4C7
  8
0
 10
398.27381838169202
 20
213.10185171875921
 30
0.0
 40
1.5
 50
0.820132316461896
 51
90.0
1001
GENIUS_GENODEF_13
1002
{
1000
HIER
1070
     0
1002
}
1002
{
1000
MANEDIT
1070
     0
1002
}
1002
{
1000
NOSEL
1070
     0
1002
}
1002
{
1000
BEHIND
1070
     0
1002
}
1002
{
1000
REACTOR
1002
}
1001
GENIUS_GENOBJ-N-FIL_13
1002
{
1000
OWNER
1000
GEN
1002
}
  0
LINE
  5
4C8
  8
0
 10
396.34523963496213
 20
214.60185171875921
 30
0.0
 11
398.27381838169202
 21
214.60185171875921
 31
0.0
  0
LINE
  5
4C9
  8
0
 10
395.34523963496213
 20
209.60185171875921
 30
0.0
 11
395.34523963496213
 21
213.60185171875921
 31
0.0
  0
ARC
  5
4CA
  8
0
 10
396.34523963496213
 20
223.60185171875921
 30
0.0
 40
1.0
 50
180.0
 51
270.0
  0
ARC
  5
4CB
  8
0
 10
394.34523963496213
 20
227.60185171875949
 30
0.0
 40
0.9999999999999431
 50
0.0000000000032569
 51
90.000000000003283
  0
ARC
  5
4CC
  8
0
 10
408.44523963496238
 20
208.26185171875949
 30
0.0
 40
25.000000000000188
 50
126.3091882724357
 51
143.13010235415689
  0
LINE
  5
4CD
  8
0
 10
394.34523963496213
 20
228.60185171875921
 30
0.0
 11
394.23382169022489
 21
228.60185171875949
 31
0.0
  0
ARC
  5
4CE
  8
0
 10
394.23382169022489
 20
227.60185171875949
 30
0.0
 40
1.000000000000085
 50
89.999999999997968
 51
126.30918827243261
  0
LINE
  5
4CF
  8
0
 10
395.34523963496213
 20
223.60185171875921
 30
0.0
 11
395.34523963496213
 21
227.60185171875949
 31
0.0
  0
ARC
  5
4D0
  8
0
 10
398.26397983908811
 20
224.10185171875921
 30
0.0
 40
1.5
 50
270.0
 51
359.28271770532342
1001
GENIUS_GENODEF_13
1002
{
1000
HIER
1070
     0
1002
}
1002
{
1000
MANEDIT
1070
     0
1002
}
1002
{
1000
NOSEL
1070
     0
1002
}
1002
{
1000
BEHIND
1070
     0
1002
}
1002
{
1000
REACTOR
1002
}
1001
GENIUS_GENOBJ-N-FIL_13
1002
{
1000
OWNER
1000
GEN
1002
}
  0
LINE
  5
4D1
  8
0
 10
398.26397983908811
 20
222.60185171875929
 30
0.0
 11
396.34523963496213
 21
222.60185171875929
 31
0.0
  0
LINE
  5
4E7
  8
0
 10
374.41027656707712
 20
238.45683915996139
 30
0.0
 11
359.99548584908558
 21
238.6013492409559
 31
0.0
  0
ARC
  5
4E8
  8
0
 10
370.89523963495839
 20
233.05185171874339
 30
0.0
 40
0.9999999999998863
 50
90.000000000006438
 51
180.00000000000651
  0
LINE
  5
4E9
  8
0
 10
359.89523963496532
 20
238.60185171874949
 30
0.0
 11
353.39523963495981
 21
238.60185171874949
 31
0.0
  0
LINE
  5
4EA
  8
0
 10
364.69523963496448
 20
235.60185171874949
 30
0.0
 11
353.39523963495981
 21
235.60185171874949
 31
0.0
  0
ARC
  5
4EB
  8
0
 10
353.39523963495981
 20
234.60185171874971
 30
0.0
 40
4.0
 50
90.0
 51
180.0
1001
GENIUS_GENODEF_13
1002
{
1000
HIER
1070
     0
1002
}
1002
{
1000
MANEDIT
1070
     0
1002
}
1002
{
1000
NOSEL
1070
     0
1002
}
1002
{
1000
BEHIND
1070
     0
1002
}
1002
{
1000
REACTOR
1002
}
1001
GENIUS_GENOBJ-N-FIL_13
1002
{
1000
OWNER
1000
GEN
1002
}
  0
ARC
  5
4ED
  8
0
 10
353.39523963495981
 20
234.10185171874971
 30
0.0
 40
1.5
 50
90.0
 51
180.0
1001
GENIUS_GENODEF_13
1002
{
1000
HIER
1070
     0
1002
}
1002
{
1000
MANEDIT
1070
     0
1002
}
1002
{
1000
NOSEL
1070
     0
1002
}
1002
{
1000
BEHIND
1070
     0
1002
}
1002
{
1000
REACTOR
1002
}
1001
GENIUS_GENOBJ-N-FIL_13
1002
{
1000
OWNER
1000
GEN
1002
}
  0
ARC
  5
4EE
  8
0
 10
364.69523963496448
 20
234.10185171874949
 30
0.0
 40
1.5
 50
0.0000000000029516
 51
90.0
1001
GENIUS_GENODEF_13
1002
{
1000
HIER
1070
     0
1002
}
1002
{
1000
MANEDIT
1070
     0
1002
}
1002
{
1000
NOSEL
1070
     0
1002
}
1002
{
1000
BEHIND
1070
     0
1002
}
1002
{
1000
REACTOR
1002
}
1001
GENIUS_GENOBJ-N-FIL_13
1002
{
1000
OWNER
1000
GEN
1002
}
  0
LINE
  5
4EF
  8
0
 10
369.89523963495839
 20
232.9404337740059
 30
0.0
 11
369.89523963495873
 21
233.05185171874319
 31
0.0
  0
LINE
  5
4F0
  8
0
 10
385.37646171891259
 20
238.47047438155639
 30
0.0
 11
395.84516519213179
 21
238.6015382752405
 31
0.0
  0
LINE
  5
4F1
  8
0
 10
384.89523963497498
 20
234.05185171874629
 30
0.0
 11
388.89523963497533
 21
234.05185171874629
 31
0.0
  0
ARC
  5
4F3
  8
0
 10
374.39523963495873
 20
236.9569145316309
 30
0.0
 40
1.5
 50
0.0
 51
89.425621881425329
1001
GENIUS_GENODEF_13
1002
{
1000
HIER
1070
     0
1002
}
1002
{
1000
MANEDIT
1070
     0
1002
}
1002
{
1000
NOSEL
1070
     0
1002
}
1002
{
1000
BEHIND
1070
     0
1002
}
1002
{
1000
REACTOR
1002
}
1001
GENIUS_GENOBJ-N-FIL_13
1002
{
1000
OWNER
1000
GEN
1002
}
  0
LINE
  5
4F4
  8
0
 10
370.89523963495839
 20
234.05185171874311
 30
0.0
 11
374.89523963495873
 21
234.05185171874311
 31
0.0
  0
LINE
  5
4F5
  8
0
 10
375.89523963495873
 20
235.05185171874311
 30
0.0
 11
375.89523963495873
 21
236.9569145316309
 31
0.0
  0
ARC
  5
4F6
  8
0
 10
374.89523963495873
 20
235.05185171874311
 30
0.0
 40
1.0
 50
270.0
 51
0.0
  0
ARC
  5
4F7
  8
0
 10
385.39523963497498
 20
236.9705919228723
 30
0.0
 40
1.5
 50
90.717282294676664
 51
180.0
1001
GENIUS_GENODEF_13
1002
{
1000
HIER
1070
     0
1002
}
1002
{
1000
MANEDIT
1070
     0
1002
}
1002
{
1000
NOSEL
1070
     0
1002
}
1002
{
1000
BEHIND
1070
     0
1002
}
1002
{
1000
REACTOR
1002
}
1001
GENIUS_GENOBJ-N-FIL_13
1002
{
1000
OWNER
1000
GEN
1002
}
  0
ARC
  5
4F8
  8
0
 10
384.89523963497498
 20
235.05185171874629
 30
0.0
 40
1.0
 50
180.0
 51
270.0
  0
LINE
  5
4F9
  8
0
 10
383.89523963497498
 20
236.9705919228723
 30
0.0
 11
383.89523963497498
 21
235.05185171874629
 31
0.0
  0
LINE
  5
4FA
  8
0
 10
389.89523963497498
 20
233.05185171874629
 30
0.0
 11
389.89523963497533
 21
232.94043377400911
 31
0.0
  0
ARC
  5
4FB
  8
0
 10
388.89523963497533
 20
233.05185171874629
 30
0.0
 40
0.9999999999999431
 50
359.99999999999682
 51
89.999999999996746
  0
ARC
  5
4FC
  8
0
 10
395.89523963496532
 20
234.6018517187494
 30
0.0
 40
4.0
 50
359.28271770532331
 51
90.717282294676764
1001
GENIUS_GENODEF_13
1002
{
1000
HIER
1070
     0
1002
}
1002
{
1000
MANEDIT
1070
     0
1002
}
1002
{
1000
NOSEL
1070
     0
1002
}
1002
{
1000
BEHIND
1070
     0
1002
}
1002
{
1000
REACTOR
1002
}
1001
GENIUS_GENOBJ-N-FIL_13
1002
{
1000
OWNER
1000
GEN
1002
}
  0
LINE
  5
501
  8
0
 10
609.89523963496515
 20
238.6018517187492
 30
0.0
 11
609.89523963496515
 21
200.60185171874949
 31
0.0
  0
LINE
  5
502
  8
0
 10
469.89523963496538
 20
238.6018517187492
 30
0.0
 11
469.89523963496538
 21
200.6018517187494
 31
0.0
  0
LINE
  5
505
  8
0
 10
609.89523963496515
 20
200.60185171874971
 30
0.0
 11
469.89523963496538
 21
200.6018517187494
 31
0.0
  0
LINE
  5
508
  8
0
 10
149.39523963495989
 20
200.60185171874949
 30
0.0
 11
289.39523963495981
 21
200.60185171874949
 31
0.0
  0
LINE
  5
50A
  8
0
 10
289.39523963495998
 20
238.60185171874949
 30
0.0
 11
149.39523963496021
 21
238.60185171874949
 31
0.0
  0
CIRCLE
  5
510
  8
0
 10
272.89523963495981
 20
230.9518517187594
 30
0.0
 40
2.3500000000000001
  0
LINE
  5
512
  8
0
 10
289.39523963495998
 20
238.60185171874949
 30
0.0
 11
289.39523963495981
 21
200.60185171874949
 31
0.0
  0
CIRCLE
  5
514
  8
0
 10
165.89523963495981
 20
230.9518517187594
 30
0.0
 40
2.3500000000000001
  0
LINE
  5
516
  8
0
 10
149.39523963496021
 20
238.60185171874949
 30
0.0
 11
149.39523963495989
 21
200.60185171874949
 31
0.0
  0
LINE
  5
51C
  8
0
 10
609.89523963496515
 20
222.6018517187494
 30
0.0
 11
469.89523963496538
 21
222.6018517187494
 31
0.0
  0
LINE
  5
51D
  8
0
 10
609.89523963496515
 20
214.6018517187494
 30
0.0
 11
469.89523963496538
 21
214.60185171874949
 31
0.0
  0
CIRCLE
  5
52B
  8
0
 10
179.39523963495981
 20
220.30185171874081
 30
0.0
 40
6.9999999999899236
  0
CIRCLE
  5
531
  8
0
 10
159.39523963495981
 20
218.60185171874949
 30
0.0
 40
3.5
  0
POLYLINE
  5
535
  8
0
 66
     1
 10
0.0
 20
0.0
 30
0.0
 70
     1
  0
VERTEX
  5
536
  8
0
 10
179.39523963495981
 20
222.05185171873339
 30
0.0
  0
VERTEX
  5
537
  8
0
 10
177.8796951783435
 20
221.17685171873711
 30
0.0
  0
VERTEX
  5
538
  8
0
 10
177.8796951783435
 20
219.4268517187445
 30
0.0
  0
VERTEX
  5
539
  8
0
 10
179.39523963495981
 20
218.55185171874831
 30
0.0
  0
VERTEX
  5
53A
  8
0
 10
180.9107840915762
 20
219.4268517187445
 30
0.0
  0
VERTEX
  5
53B
  8
0
 10
180.9107840915762
 20
221.17685171873711
 30
0.0
  0
SEQEND
  5
53C
  8
0
  0
CIRCLE
  5
53D
  8
0
 10
279.39523963495992
 20
218.60185171874949
 30
0.0
 40
3.5
  0
LINE
  5
5A8
  8
1
 10
359.89523963496538
 20
204.8018517187447
 30
0.0
 11
359.89523963496532
 21
235.80185171874891
 31
0.0
  0
CIRCLE
  5
5D0
  8
3
 10
379.89523963496521
 20
218.60185171874949
 30
0.0
 40
4.0
  0
LINE
  5
67E
  8
0
 10
351.89523963495981
 20
213.3018517187335
 30
0.0
 11
353.39523963496617
 21
213.30185171873219
 31
0.0
  0
LINE
  5
67F
  8
0
 10
351.89523963495981
 20
227.3018517187335
 30
0.0
 11
353.39523963496492
 21
227.30185171873219
 31
0.0
  0
LINE
  5
682
  8
0
 10
395.39523963496538
 20
211.10185171874849
 30
0.0
 11
395.39523963496538
 21
226.10185171874949
 31
0.0
  0
LINE
  5
68A
  8
0
 10
393.89523963496538
 20
226.10185171874949
 30
0.0
 11
393.89523963496538
 21
211.10185171874949
 31
0.0
  0
LINE
  5
68B
  8
0
 10
393.09523963496531
 20
225.60185171875031
 30
0.0
 11
393.09523963496531
 21
211.6018517187488
 31
0.0
  0
ARC
  5
68C
  8
0
 10
394.68170135319832
 20
219.8153900005166
 30
0.0
 40
6.0
 50
105.33191487118781
 51
164.66808512873089
  0
LINE
  5
6B9
  8
0
 10
395.39523963496538
 20
214.6018517187496
 30
0.0
 11
408.69523963496539
 21
214.60185171874949
 31
0.0
  0
LINE
  5
6BA
  8
0
 10
395.39523963496538
 20
222.6018517187494
 30
0.0
 11
408.69523963496539
 21
222.6018517187494
 31
0.0
  0
LINE
  5
6BB
  8
3
 10
395.39523963496538
 20
215.27835171874941
 30
0.0
 11
409.37173963496519
 21
215.27835171874941
 31
0.0
  0
LINE
  5
6BC
  8
3
 10
395.39523963496538
 20
221.9253517187496
 30
0.0
 11
409.37173963496519
 21
221.9253517187496
 31
0.0
  0
ARC
  5
6C1
  8
0
 10
394.68170135319832
 20
217.38831343698249
 30
0.0
 40
6.0
 50
195.33191487126899
 51
254.66808512881221
  0
LINE
  5
6C8
  8
0
 10
393.89523963496549
 20
211.60185171874949
 30
0.0
 11
393.09523963496531
 21
211.60185171874949
 31
0.0
  0
LINE
  5
6C9
  8
0
 10
393.89523963496538
 20
211.10185171874949
 30
0.0
 11
395.39523963496538
 21
211.10185171874849
 31
0.0
  0
LINE
  5
6CB
  8
0
 10
388.89523963496538
 20
221.4018517187512
 30
0.0
 11
388.89523963496538
 21
215.80185171874331
 31
0.0
  0
LINE
  5
6D2
  8
0
 10
409.89523963496549
 20
221.4018517187495
 30
0.0
 11
409.89523963496549
 21
215.8018517187495
 31
0.0
  0
LINE
  5
6D3
  8
0
 10
408.69523963496539
 20
214.60185171874949
 30
0.0
 11
408.69523963496539
 21
222.6018517187494
 31
0.0
  0
LINE
  5
6D4
  8
0
 10
409.89523963496549
 20
215.8018517187495
 30
0.0
 11
408.69523963496539
 21
214.60185171874949
 31
0.0
  0
LINE
  5
6D5
  8
0
 10
408.69523963496539
 20
222.6018517187494
 30
0.0
 11
409.89523963496549
 21
221.4018517187495
 31
0.0
  0
LINE
  5
6F6
  8
0
 10
393.89523963496549
 20
225.60185171874949
 30
0.0
 11
393.09523963496531
 21
225.60185171874949
 31
0.0
  0
LINE
  5
6F8
  8
0
 10
395.39523963496538
 20
226.10185171874949
 30
0.0
 11
393.89523963496538
 21
226.10185171874949
 31
0.0
  0
LINE
  5
848
  8
1
 10
277.74523963495989
 20
230.9518517187594
 30
0.0
 11
268.04523963495978
 21
230.9518517187594
 31
0.0
  0
LINE
  5
849
  8
1
 10
272.89523963495981
 20
235.80185171875939
 30
0.0
 11
272.89523963495981
 21
226.10185171875941
 31
0.0
  0
LINE
  5
84A
  8
1
 10
170.74523963495989
 20
230.9518517187594
 30
0.0
 11
161.04523963495981
 21
230.9518517187594
 31
0.0
  0
LINE
  5
84B
  8
1
 10
165.89523963495981
 20
235.80185171875939
 30
0.0
 11
165.89523963495981
 21
226.10185171875941
 31
0.0
  0
LINE
  5
84C
  8
1
 10
294.39523963495981
 20
218.60185171874949
 30
0.0
 11
144.39523963496009
 21
218.6018517187494
 31
0.0
  0
LINE
  5
84D
  8
1
 10
159.39523963495981
 20
224.6018517187494
 30
0.0
 11
159.39523963495981
 21
212.60185171874949
 31
0.0
  0
LINE
  5
84F
  8
1
 10
279.39523963495992
 20
224.6018517187494
 30
0.0
 11
279.39523963495992
 21
212.60185171874949
 31
0.0
  0
LINE
  5
88F
  8
0
 10
609.89523963496515
 20
238.60185171874909
 30
0.0
 11
469.89523963496572
 21
238.60185171874909
 31
0.0
  0
CIRCLE
  5
894
  8
0
 10
599.89523963496515
 20
218.60185171874949
 30
0.0
 40
4.0
  0
CIRCLE
  5
895
  8
3
 10
599.89523963496515
 20
218.60185171874949
 30
0.0
 40
3.3235000000000001
  0
ARC
  5
89A
  8
0
 10
599.89523963496515
 20
218.60185171874949
 30
0.0
 40
7.4999999999999849
 50
147.7690473644976
 51
212.23095263550209
  0
ARC
  5
89B
  8
0
 10
479.89523963496538
 20
218.60185171874949
 30
0.0
 40
7.4999999999999849
 50
327.76904736449802
 51
32.230952635502327
  0
ARC
  5
89C
  8
0
 10
479.89523963496538
 20
218.60185171874949
 30
0.0
 40
7.4999999999999849
 50
147.7690473644976
 51
212.23095263550209
  0
CIRCLE
  5
89D
  8
3
 10
479.89523963496538
 20
218.60185171874949
 30
0.0
 40
3.3235000000000001
  0
CIRCLE
  5
89E
  8
0
 10
479.89523963496538
 20
218.60185171874949
 30
0.0
 40
4.0
  0
LINE
  5
89F
  8
1
 10
479.89523963496538
 20
228.6018517187494
 30
0.0
 11
479.89523963496538
 21
208.60185171874949
 31
0.0
  0
LINE
  5
8A0
  8
1
 10
614.89523963496526
 20
218.60185171874949
 30
0.0
 11
464.89523963496538
 21
218.60185171874949
 31
0.0
  0
ARC
  5
8A4
  8
0
 10
599.89523963496515
 20
218.60185171874949
 30
0.0
 40
7.4999999999999849
 50
327.76904736449802
 51
32.230952635502327
  0
LINE
  5
8A5
  8
1
 10
599.89523963496515
 20
228.6018517187494
 30
0.0
 11
599.89523963496515
 21
208.60185171874949
 31
0.0
  0
LINE
  5
8AE
  8
0
 10
349.39523963495981
 20
438.54361668091337
 30
0.0
 11
349.39523963495981
 21
298.54361668091371
 31
0.0
  0
LINE
  5
8AF
  8
0
 10
349.39523963495981
 20
298.54361668091349
 30
0.0
 11
399.89523963495981
 21
298.54361668091332
 31
0.0
  0
LINE
  5
8B2
  8
0
 10
399.89523963495981
 20
438.54361668091337
 30
0.0
 11
399.89523963495981
 21
298.54361668091371
 31
0.0
  0
LINE
  5
8B3
  8
0
 10
375.89523963495873
 20
298.54361668091349
 30
0.0
 11
375.8952396349585
 21
438.54361668091337
 31
0.0
  0
LINE
  5
8BB
  8
0
 10
383.89523963497493
 20
298.54361668091349
 30
0.0
 11
383.89523963497521
 21
438.54361668091332
 31
0.0
  0
LINE
  5
8BF
  8
1
 10
379.89523963496521
 20
227.60185171874949
 30
0.0
 11
379.89523963496521
 21
209.6018517187494
 31
0.0
1001
GENIUS_GENOREF_13
1005
0
  0
LINE
  5
8CB
  8
1
 10
374.64523963495998
 20
443.54361668091337
 30
0.0
 11
374.64523963495981
 21
293.54361668091337
 31
0.0
  0
LINE
  5
8D0
  8
1
 10
374.64523963495981
 20
243.45473487732281
 30
0.0
 11
374.64523963495981
 21
195.6018517187494
 31
0.0
  0
INSERT
  5
96F
  8
0
  2
STDGX5
 10
0.0
 20
0.0
 30
0.0
  0
INSERT
  5
970
  8
0
  2
STDGX5
 10
0.0
 20
0.0
 30
0.0
  0
INSERT
  5
971
  8
0
  2
STDGX5
 10
275.0
 20
0.0
 30
0.0
  0
INSERT
  5
972
  8
0
  2
STDGX5
 10
275.0
 20
0.0
 30
0.0
  0
LINE
  5
987
  8
1
 10
188.8952396349498
 20
220.30185171874081
 30
0.0
 11
169.8952396349699
 21
220.30185171874081
 31
0.0
  0
LINE
  5
988
  8
1
 10
179.39523963495981
 20
229.80185171873069
 30
0.0
 11
179.39523963495981
 21
210.80185171875081
 31
0.0
  0
CIRCLE
  5
98A
  8
0
 10
259.39523963495998
 20
220.3018517187412
 30
0.0
 40
6.9999999999899236
  0
POLYLINE
  5
98B
  8
0
 66
     1
 10
0.0
 20
0.0
 30
0.0
 70
     1
  0
VERTEX
  5
98C
  8
0
 10
259.39523963495998
 20
222.05185171873379
 30
0.0
  0
VERTEX
  5
98D
  8
0
 10
257.8796951783437
 20
221.17685171873751
 30
0.0
  0
VERTEX
  5
98E
  8
0
 10
257.8796951783437
 20
219.4268517187449
 30
0.0
  0
VERTEX
  5
98F
  8
0
 10
259.39523963495998
 20
218.55185171874871
 30
0.0
  0
VERTEX
  5
990
  8
0
 10
260.91078409157637
 20
219.4268517187449
 30
0.0
  0
VERTEX
  5
991
  8
0
 10
260.91078409157637
 20
221.17685171873751
 30
0.0
  0
SEQEND
  5
992
  8
0
  0
LINE
  5
993
  8
1
 10
259.39523963495998
 20
229.80185171873109
 30
0.0
 11
259.39523963495998
 21
210.80185171875121
 31
0.0
  0
LINE
  5
994
  8
1
 10
268.89523963494997
 20
220.3018517187412
 30
0.0
 11
249.8952396349701
 21
220.3018517187412
 31
0.0
  0
LINE
  5
997
  8
0
 10
349.39523963495981
 20
438.54361668091337
 30
0.0
 11
399.89523963495992
 21
438.54361668091332
 31
0.0
  0
INSERT
  5
C03
  8
0
  2
STDGX5
 10
0.0
 20
0.0
 30
0.0
 41
2.0
 42
2.0
 43
2.0
  0
INSERT
  5
C04
  8
0
  2
STDGX5
 10
0.0
 20
0.0
 30
0.0
 41
2.0
 42
2.0
 43
2.0
  0
INSERT
  5
C05
  8
0
  2
STDGX5
 10
550.0
 20
0.0
 30
0.0
 41
2.0
 42
2.0
 43
2.0
  0
INSERT
  5
C06
  8
0
  2
STDGX5
 10
550.0
 20
0.0
 30
0.0
 41
2.0
 42
2.0
 43
2.0
  0
TEXT
  5
D08
  8
0
 62
     3
 10
0.0
 20
0.0
 30
0.0
 40
10.0
  1
DE-DB10-C
  7
STANDARD1
  0
ENDSEC
  0
EOF
