  0
SECTION
  2
HEADER
  9
$ACADVER
  1
AC1009
  9
$INSBASE
 10
0.0
 20
0.0
 30
0.0
  9
$EXTMIN
 10
0.0
 20
-2.960436562073669
 30
0.0
  9
$EXTMAX
 10
572.50828586186708
 20
453.23499455275839
 30
0.0
  9
$LIMMIN
 10
0.0
 20
0.0
  9
$LIMMAX
 10
750.0
 20
540.0
  9
$ORTHOMODE
 70
     0
  9
$REGENMODE
 70
     1
  9
$FILLMODE
 70
     1
  9
$QTEXTMODE
 70
     0
  9
$MIRRTEXT
 70
     0
  9
$DRAGMODE
 70
     2
  9
$LTSCALE
 40
20.0
  9
$OSMODE
 70
    37
  9
$ATTMODE
 70
     1
  9
$TEXTSIZE
 40
0.2
  9
$TRACEWID
 40
0.05
  9
$TEXTSTYLE
  7
STANDARD
  9
$CLAYER
  8
0
  9
$CELTYPE
  6
BYLAYER
  9
$CECOLOR
 62
   256
  9
$DIMSCALE
 40
2.0
  9
$DIMASZ
 40
3.0
  9
$DIMEXO
 40
2.0
  9
$DIMDLI
 40
0.38
  9
$DIMRND
 40
0.0
  9
$DIMDLE
 40
0.0
  9
$DIMEXE
 40
2.0
  9
$DIMTP
 40
0.0
  9
$DIMTM
 40
0.0
  9
$DIMTXT
 40
3.2000000000000002
  9
$DIMCEN
 40
0.0
  9
$DIMTSZ
 40
0.0
  9
$DIMTOL
 70
     0
  9
$DIMLIM
 70
     0
  9
$DIMTIH
 70
     0
  9
$DIMTOH
 70
     0
  9
$DIMSE1
 70
     0
  9
$DIMSE2
 70
     0
  9
$DIMTAD
 70
     1
  9
$DIMZIN
 70
     0
  9
$DIMBLK
  1

  9
$DIMASO
 70
     0
  9
$DIMSHO
 70
     0
  9
$DIMPOST
  1

  9
$DIMAPOST
  1

  9
$DIMALT
 70
     0
  9
$DIMALTD
 70
     2
  9
$DIMALTF
 40
25.399999999999999
  9
$DIMLFAC
 40
1.0
  9
$DIMTOFL
 70
     1
  9
$DIMTVP
 40
1.6000000000000001
  9
$DIMTIX
 70
     1
  9
$DIMSOXD
 70
     0
  9
$DIMSAH
 70
     0
  9
$DIMBLK1
  1

  9
$DIMBLK2
  1

  9
$DIMSTYLE
  2
STANDARD
  9
$DIMCLRD
 70
     0
  9
$DIMCLRE
 70
     0
  9
$DIMCLRT
 70
     0
  9
$DIMTFAC
 40
1.0
  9
$DIMGAP
 40
0.09
  9
$LUNITS
 70
     2
  9
$LUPREC
 70
     4
  9
$SKETCHINC
 40
0.1
  9
$FILLETRAD
 40
0.0
  9
$AUNITS
 70
     0
  9
$AUPREC
 70
     4
  9
$MENU
  1
ACAD
  9
$ELEVATION
 40
0.0
  9
$PELEVATION
 40
0.0
  9
$THICKNESS
 40
0.0
  9
$LIMCHECK
 70
     0
  9
$BLIPMODE
 70
     0
  9
$CHAMFERA
 40
0.0
  9
$CHAMFERB
 40
0.0
  9
$SKPOLY
 70
     0
  9
$TDCREATE
 40
2448295.5732626161
  9
$TDUPDATE
 40
2456689.4364398378
  9
$TDINDWG
 40
0.0174816435
  9
$TDUSRTIMER
 40
0.0174814699
  9
$USRTIMER
 70
     1
  9
$ANGBASE
 50
0.0
  9
$ANGDIR
 70
     0
  9
$PDMODE
 70
     0
  9
$PDSIZE
 40
0.0
  9
$PLINEWID
 40
0.0
  9
$COORDS
 70
     1
  9
$SPLFRAME
 70
     0
  9
$SPLINETYPE
 70
     6
  9
$SPLINESEGS
 70
     8
  9
$ATTDIA
 70
     0
  9
$ATTREQ
 70
     1
  9
$HANDLING
 70
     1
  9
$HANDSEED
  5
652
  9
$SURFTAB1
 70
     6
  9
$SURFTAB2
 70
     6
  9
$SURFTYPE
 70
     6
  9
$SURFU
 70
     6
  9
$SURFV
 70
     6
  9
$UCSNAME
  2

  9
$UCSORG
 10
0.0
 20
0.0
 30
0.0
  9
$UCSXDIR
 10
1.0
 20
0.0
 30
0.0
  9
$UCSYDIR
 10
0.0
 20
1.0
 30
0.0
  9
$PUCSNAME
  2

  9
$PUCSORG
 10
0.0
 20
0.0
 30
0.0
  9
$PUCSXDIR
 10
1.0
 20
0.0
 30
0.0
  9
$PUCSYDIR
 10
0.0
 20
1.0
 30
0.0
  9
$USERI1
 70
     0
  9
$USERI2
 70
     1
  9
$USERI3
 70
     0
  9
$USERI4
 70
     0
  9
$USERI5
 70
     0
  9
$USERR1
 40
0.0
  9
$USERR2
 40
0.0
  9
$USERR3
 40
0.0
  9
$USERR4
 40
0.0
  9
$USERR5
 40
0.0
  9
$WORLDVIEW
 70
     1
  9
$SHADEDGE
 70
     3
  9
$SHADEDIF
 70
    70
  9
$TILEMODE
 70
     1
  9
$MAXACTVP
 70
    16
  9
$PLIMCHECK
 70
     0
  9
$PEXTMIN
 10
1.0000000000000000E+020
 20
1.0000000000000000E+020
 30
1.0000000000000000E+020
  9
$PEXTMAX
 10
-1.0000000000000000E+020
 20
-1.0000000000000000E+020
 30
-1.0000000000000000E+020
  9
$PLIMMIN
 10
0.0
 20
0.0
  9
$PLIMMAX
 10
12.0
 20
9.0
  9
$UNITMODE
 70
     0
  9
$VISRETAIN
 70
     0
  9
$PLINEGEN
 70
     1
  9
$PSLTSCALE
 70
     0
  0
ENDSEC
  0
SECTION
  2
TABLES
  0
TABLE
  2
VPORT
 70
     1
  0
VPORT
  2
*ACTIVE
 70
     0
 10
0.0
 20
0.0
 11
1.0
 21
1.0
 12
379.14681483910829
 22
225.14823316759819
 13
0.0
 23
0.0
 14
20.0
 24
20.0
 15
20.0
 25
20.0
 16
0.0
 26
0.0
 36
1.0
 17
0.0
 27
0.0
 37
0.0
 40
460.20069718278512
 41
2.3805970149253728
 42
50.0
 43
0.0
 44
0.0
 50
0.0
 51
0.0
 71
     0
 72
   500
 73
     1
 74
     0
 75
     0
 76
     0
 77
     0
 78
     2
  0
ENDTAB
  0
TABLE
  2
LTYPE
 70
     3
  0
LTYPE
  2
CONTINUOUS
 70
     0
  3
Solid Line
 72
    65
 73
     0
 40
0.0
  0
LTYPE
  2
CENTER
 70
     0
  3
____ _ ____ _ ____ _ ____ _ ____ _ ____ _ ____
 72
    65
 73
     4
 40
2.0
 49
1.25
 49
-0.25
 49
0.25
 49
-0.25
  0
LTYPE
  2
PHANTOM2
 70
     0
  3
___ _ _ ___ _ _ ___ _ _ ___ _ _
 72
    65
 73
     6
 40
1.25
 49
0.625
 49
-0.125
 49
0.125
 49
-0.125
 49
0.125
 49
-0.125
  0
ENDTAB
  0
TABLE
  2
LAYER
 70
     3
  0
LAYER
  2
0
 70
     0
 62
     7
  6
CONTINUOUS
  0
LAYER
  2
1
 70
     0
 62
     1
  6
CENTER
  0
LAYER
  2
3
 70
     0
 62
     3
  6
CONTINUOUS
  0
ENDTAB
  0
TABLE
  2
STYLE
 70
     2
  0
STYLE
  2
STANDARD
 70
     0
 40
0.0
 41
1.0
 50
0.0
 71
     0
 42
0.2
  3
TXT
  4
BIGFONT
  0
STYLE
  2
STANDARD1
 70
     0
 40
0.0
 41
1.0
 50
0.0
 71
     0
 42
3.0
  3
txt
  4

  0
ENDTAB
  0
TABLE
  2
VIEW
 70
     1
  0
VIEW
  2
ALL
 70
     0
 40
540.0
 10
441.98319327731082
 20
270.0
 41
0.0
 11
0.0
 21
0.0
 31
1.0
 12
0.0
 22
0.0
 32
0.0
 42
50.0
 43
0.0
 44
0.0
 50
0.0
 71
     0
  0
ENDTAB
  0
TABLE
  2
UCS
 70
     0
  0
ENDTAB
  0
TABLE
  2
APPID
 70
     4
  0
APPID
  2
ACAD
 70
     0
  0
APPID
  2
ACAD_MLEADERVER
 70
     0
  0
APPID
  2
ACAD_NAV_VCDISPLAY
 70
     0
  0
APPID
  2
ACAD_EXEMPT_FROM_CAD_STANDARDS
 70
     0
  0
ENDTAB
  0
TABLE
  2
DIMSTYLE
 70
     1
  0
DIMSTYLE
  2
STANDARD
 70
     0
  3

  4

  5

  6

  7

 40
1.0
 41
0.18
 42
0.0625
 43
0.38
 44
0.18
 45
0.0
 46
0.0
 47
0.0
 48
0.0
140
0.18
141
0.09
142
0.0
143
25.399999999999999
144
1.0
145
0.0
146
1.0
147
0.09
 71
     0
 72
     0
 73
     1
 74
     1
 75
     0
 76
     0
 77
     0
 78
     0
170
     0
171
     2
172
     0
173
     0
174
     0
175
     0
176
     0
177
     0
178
     0
  0
ENDTAB
  0
ENDSEC
  0
SECTION
  2
BLOCKS
  0
BLOCK
  8
0
  2
$MODEL_SPACE
 70
     0
 10
0.0
 20
0.0
 30
0.0
  3
$MODEL_SPACE
  1

  0
ENDBLK
  5
382
  8
0
  0
BLOCK
 67
     1
  8
0
  2
$PAPER_SPACE
 70
     0
 10
0.0
 20
0.0
 30
0.0
  3
$PAPER_SPACE
  1

  0
ENDBLK
  5
380
 67
     1
  8
0
  0
ENDSEC
  0
SECTION
  2
ENTITIES
  0
LINE
  5
80
  8
1
 10
368.9609605778744
 20
191.89447223569181
 30
0.0
 11
368.9609605778744
 21
101.89447223569179
 31
0.0
  0
LINE
  5
81
  8
0
 10
362.46096057787418
 20
160.52698204391339
 30
0.0
 11
362.4609605778744
 21
133.2619624274798
 31
0.0
  0
LINE
  5
82
  8
0
 10
356.46096057787452
 20
160.52698204391839
 30
0.0
 11
356.46096057787452
 21
133.26196242748159
 31
0.0
  0
LINE
  5
83
  8
1
 10
368.4609605778744
 20
171.89447223569181
 30
0.0
 11
350.1609605778745
 21
171.89447223569169
 31
0.0
  0
ARC
  5
84
  8
0
 10
359.46096057787452
 20
180.39447223569169
 30
0.0
 40
4.1500000000000341
 50
0.0
 51
180.0
  0
ARC
  5
85
  8
0
 10
359.46096057787452
 20
163.39447223569169
 30
0.0
 40
4.1500000000000341
 50
180.0
 51
0.0
  0
LINE
  5
86
  8
0
 10
363.61096057787432
 20
180.39447223569169
 30
0.0
 11
363.61096057787432
 21
163.39447223569169
 31
0.0
  0
LINE
  5
87
  8
0
 10
355.31096057787443
 20
180.39447223569169
 30
0.0
 11
355.31096057787443
 21
163.39447223569169
 31
0.0
  0
LINE
  5
94
  8
1
 10
386.9609605778744
 20
126.89447223569179
 30
0.0
 11
371.9609605778744
 21
126.89447223569179
 31
0.0
  0
LINE
  5
95
  8
1
 10
386.9609605778744
 20
166.89447223569189
 30
0.0
 11
371.9609605778744
 21
166.89447223569189
 31
0.0
  0
LINE
  5
96
  8
1
 10
379.4609605778744
 20
96.894472235691865
 30
0.0
 11
379.4609605778744
 21
196.89447223569181
 31
0.0
  0
LINE
  5
97
  8
0
 10
341.4609605778744
 20
106.89447223569179
 30
0.0
 11
399.4609605778744
 21
106.89447223569179
 31
0.0
  0
LINE
  5
98
  8
0
 10
341.4609605778744
 20
186.89447223569181
 30
0.0
 11
399.4609605778744
 21
186.89447223569189
 31
0.0
  0
LINE
  5
99
  8
0
 10
341.4609605778744
 20
106.89447223569179
 30
0.0
 11
341.4609605778744
 21
186.89447223569181
 31
0.0
  0
LINE
  5
9A
  8
0
 10
399.4609605778744
 20
106.89447223569179
 30
0.0
 11
399.4609605778744
 21
186.89447223569189
 31
0.0
  0
LINE
  5
9C
  8
1
 10
359.46096057787452
 20
196.89447223569181
 30
0.0
 11
359.46096057787452
 21
96.894472235691865
 31
0.0
  0
LINE
  5
9D
  8
0
 10
356.46096057787452
 20
186.89447223569181
 30
0.0
 11
356.46096057787452
 21
183.26196242746511
 31
0.0
  0
LINE
  5
9E
  8
0
 10
362.4609605778744
 20
186.89447223569181
 30
0.0
 11
362.46096057787418
 21
183.26196242747019
 31
0.0
  0
LINE
  5
9F
  8
0
 10
355.31096057787443
 20
113.39447223569179
 30
0.0
 11
355.31096057787443
 21
130.39447223569189
 31
0.0
  0
LINE
  5
A0
  8
0
 10
363.61096057787432
 20
113.39447223569179
 30
0.0
 11
363.61096057787432
 21
130.39447223569189
 31
0.0
  0
LINE
  5
A1
  8
1
 10
409.46096057787418
 20
146.89447223569189
 30
0.0
 11
331.4609605778744
 21
146.89447223569181
 31
0.0
  0
ARC
  5
A2
  8
0
 10
359.46096057787452
 20
130.39447223569189
 30
0.0
 40
4.1500000000000341
 50
0.0
 51
180.0
  0
ARC
  5
A3
  8
0
 10
359.46096057787452
 20
113.39447223569179
 30
0.0
 40
4.1500000000000341
 50
180.0
 51
0.0
  0
LINE
  5
A4
  8
0
 10
356.46096057787452
 20
110.52698204390239
 30
0.0
 11
356.46096057787452
 21
106.89447223569179
 31
0.0
  0
LINE
  5
A5
  8
0
 10
362.4609605778744
 20
110.5269820439043
 30
0.0
 11
362.4609605778744
 21
106.89447223569179
 31
0.0
  0
LINE
  5
A6
  8
1
 10
346.9609605778744
 20
191.89447223569181
 30
0.0
 11
346.9609605778744
 21
101.89447223569179
 31
0.0
  0
LINE
  5
C0
  8
1
 10
386.9609605778744
 20
423.23499455275851
 30
0.0
 11
371.9609605778744
 21
423.23499455275851
 31
0.0
  0
LINE
  5
C1
  8
1
 10
386.9609605778744
 20
383.23499455275839
 30
0.0
 11
371.9609605778744
 21
383.23499455275839
 31
0.0
  0
LINE
  5
C2
  8
1
 10
379.4609605778744
 20
453.23499455275839
 30
0.0
 11
379.4609605778744
 21
353.23499455275851
 31
0.0
  0
LINE
  5
C3
  8
0
 10
375.4609605778744
 20
443.23499455275851
 30
0.0
 11
375.4609605778744
 21
363.23499455275851
 31
0.0
  0
LINE
  5
C4
  8
0
 10
383.4609605778744
 20
443.23499455275851
 30
0.0
 11
383.4609605778744
 21
363.23499455275851
 31
0.0
  0
LINE
  5
C5
  8
0
 10
341.4609605778744
 20
443.23499455275828
 30
0.0
 11
399.4609605778744
 21
443.23499455275828
 31
0.0
  0
LINE
  5
C6
  8
0
 10
341.4609605778744
 20
363.23499455275851
 30
0.0
 11
399.4609605778744
 21
363.23499455275839
 31
0.0
  0
LINE
  5
C7
  8
0
 10
341.4609605778744
 20
443.23499455275828
 30
0.0
 11
341.4609605778744
 21
363.23499455275851
 31
0.0
  0
LINE
  5
C8
  8
0
 10
399.4609605778744
 20
443.23499455275828
 30
0.0
 11
399.4609605778744
 21
363.23499455275839
 31
0.0
  0
LINE
  5
CA
  8
1
 10
368.4609605778744
 20
121.89447223569201
 30
0.0
 11
350.1609605778745
 21
121.89447223569201
 31
0.0
  0
LINE
  5
CB
  8
1
 10
365.96096057787452
 20
172.39447223569169
 30
0.0
 11
352.6609605778745
 21
172.39447223569169
 31
0.0
  0
LINE
  5
CC
  8
1
 10
365.96096057787452
 20
122.39447223569189
 30
0.0
 11
352.6609605778745
 21
122.39447223569189
 31
0.0
  0
CIRCLE
  5
CF
  8
0
 10
379.4609605778744
 20
126.89447223569179
 30
0.0
 40
3.5
  0
CIRCLE
  5
D0
  8
0
 10
379.4609605778744
 20
166.89447223569189
 30
0.0
 40
3.5
  0
CIRCLE
  5
D3
  8
0
 10
379.4609605778744
 20
423.23499455275851
 30
0.0
 40
3.5
  0
CIRCLE
  5
D4
  8
0
 10
379.4609605778744
 20
383.23499455275839
 30
0.0
 40
3.5
  0
LINE
  5
E1
  8
0
 10
355.4609605778744
 20
126.39447223569201
 30
0.0
 11
355.9609605778744
 21
126.39447223569201
 31
0.0
  0
LINE
  5
E2
  8
0
 10
355.46096057787418
 20
118.39447223569201
 30
0.0
 11
355.96096057787418
 21
118.39447223569201
 31
0.0
  0
LINE
  5
EF
  8
0
 10
355.46096057787429
 20
127.39447223569189
 30
0.0
 11
355.46096057787429
 21
117.39447223569179
 31
0.0
  0
LINE
  5
F0
  8
0
 10
362.9609605778744
 20
126.39447223569201
 30
0.0
 11
363.61096057787432
 21
126.39447223569201
 31
0.0
  0
LINE
  5
F1
  8
0
 10
362.96096057787429
 20
118.39447223569201
 30
0.0
 11
363.61096057787432
 21
118.39447223569201
 31
0.0
  0
LINE
  5
F2
  8
0
 10
355.46096057787418
 20
127.39447223569189
 30
0.0
 11
355.31096057787443
 21
127.39447223569189
 31
0.0
  0
LINE
  5
F3
  8
0
 10
355.46096057787429
 20
117.39447223569179
 30
0.0
 11
355.31096057787443
 21
117.39447223569179
 31
0.0
  0
LINE
  5
F8
  8
0
 10
355.4609605778744
 20
176.39447223569181
 30
0.0
 11
355.9609605778744
 21
176.39447223569181
 31
0.0
  0
LINE
  5
F9
  8
0
 10
355.46096057787418
 20
168.39447223569181
 30
0.0
 11
355.96096057787418
 21
168.39447223569181
 31
0.0
  0
LINE
  5
106
  8
0
 10
355.46096057787429
 20
177.39447223569169
 30
0.0
 11
355.46096057787429
 21
167.39447223569161
 31
0.0
  0
LINE
  5
107
  8
0
 10
362.9609605778744
 20
176.39447223569181
 30
0.0
 11
363.61096057787432
 21
176.39447223569181
 31
0.0
  0
LINE
  5
108
  8
0
 10
362.96096057787429
 20
168.39447223569181
 30
0.0
 11
363.61096057787432
 21
168.39447223569181
 31
0.0
  0
LINE
  5
109
  8
0
 10
355.46096057787418
 20
177.39447223569169
 30
0.0
 11
355.31096057787443
 21
177.39447223569169
 31
0.0
  0
LINE
  5
10A
  8
0
 10
355.46096057787429
 20
167.39447223569161
 30
0.0
 11
355.31096057787443
 21
167.39447223569161
 31
0.0
  0
LINE
  5
24C
  8
1
 10
394.96096057787418
 20
281.5966578546566
 30
0.0
 11
394.96096057787418
 21
266.59665785465671
 31
0.0
  0
LINE
  5
24D
  8
1
 10
402.46096057787418
 20
274.0966578546566
 30
0.0
 11
387.46096057787418
 21
274.0966578546566
 31
0.0
  0
ARC
  5
24E
  8
0
 10
401.25849795621258
 20
265.08339172378038
 30
0.0
 40
20.0
 50
206.7153161178548
 51
225.0
  0
LINE
  5
24F
  8
0
 10
393.53202838973971
 20
246.59665785465671
 30
0.0
 11
395.46096057787418
 21
246.59665785465671
 31
0.0
  0
ARC
  5
250
  8
0
 10
395.46096057787418
 20
250.59665785465671
 30
0.0
 40
4.0
 50
270.0
 51
360.0
  0
ARC
  5
251
  8
0
 10
393.53202838973971
 20
251.59665785465671
 30
0.0
 40
5.0
 50
225.0
 51
270.0
  0
LINE
  5
252
  8
0
 10
389.99649448380723
 20
248.06112394872389
 30
0.0
 11
387.11636233248151
 21
250.9412561000494
 31
0.0
  0
LINE
  5
253
  8
1
 10
414.36096057787432
 20
258.59665785465671
 30
0.0
 11
376.75238900641648
 21
258.59665785465671
 31
0.0
  0
ARC
  5
26A
  8
0
 10
373.96096057787418
 20
277.09665785465671
 30
0.0
 40
1.5
 50
0.0000000000000509
 51
90.0
  0
ARC
  5
26B
  8
0
 10
384.96096057787418
 20
277.09665785465671
 30
0.0
 40
1.5
 50
90.0
 51
180.0
  0
ARC
  5
26C
  8
0
 10
397.96096057787418
 20
253.09665785465671
 30
0.0
 40
1.5
 50
0.0000000000000509
 51
90.0
  0
ARC
  5
26D
  8
0
 10
397.96096057787418
 20
264.09665785465671
 30
0.0
 40
1.5
 50
270.00000000000011
 51
0.0
  0
LINE
  5
26E
  8
0
 10
397.96096057787418
 20
262.59665785465671
 30
0.0
 11
395.96096057787418
 21
262.59665785465671
 31
0.0
  0
LINE
  5
26F
  8
0
 10
397.96096057787418
 20
254.59665785465671
 30
0.0
 11
395.96096057787418
 21
254.59665785465671
 31
0.0
  0
ARC
  5
270
  8
0
 10
408.06096057787431
 20
268.9703578546567
 30
0.0
 40
25.0
 50
216.6419281412137
 51
233.06989397484111
  0
ARC
  5
271
  8
0
 10
408.06096057787431
 20
248.22295785465661
 30
0.0
 40
25.0
 50
126.93010602515891
 51
143.35807185878619
  0
ARC
  5
272
  8
0
 10
391.21096057787418
 20
260.75601414592091
 30
0.0
 40
4.0
 50
143.3580718587861
 51
180.0
  0
ARC
  5
273
  8
0
 10
391.21096057787418
 20
256.4373015633924
 30
0.0
 40
4.0
 50
180.0
 51
216.6419281412139
  0
LINE
  5
274
  8
0
 10
387.21096057787418
 20
260.75601414592091
 30
0.0
 11
387.21096057787418
 21
256.4373015633924
 31
0.0
  0
ARC
  5
275
  8
0
 10
395.96096057787418
 20
253.59665785465671
 30
0.0
 40
1.0
 50
90.0
 51
180.0
  0
LINE
  5
276
  8
0
 10
394.96096057787418
 20
263.5966578546566
 30
0.0
 11
394.96096057787418
 21
267.2479414288934
 31
0.0
  0
ARC
  5
277
  8
0
 10
395.96096057787418
 20
263.5966578546566
 30
0.0
 40
1.0
 50
180.0
 51
270.0
  0
ARC
  5
278
  8
0
 10
393.76096057787441
 20
267.2479414288934
 30
0.0
 40
1.1999999999999991
 50
0.0
 51
126.93010602515849
  0
ARC
  5
279
  8
0
 10
393.76096057787441
 20
249.94537428041991
 30
0.0
 40
1.1999999999999991
 50
233.06989397484139
 51
360.0
  0
LINE
  5
27A
  8
0
 10
394.96096057787418
 20
253.59665785465671
 30
0.0
 11
394.96096057787418
 21
249.94537428041991
 31
0.0
  0
LINE
  5
27B
  8
0
 10
375.46096057787429
 20
277.09665785465671
 30
0.0
 11
375.46096057787429
 21
275.09665785465671
 31
0.0
  0
LINE
  5
27C
  8
0
 10
383.46096057787418
 20
277.09665785465671
 30
0.0
 11
383.46096057787418
 21
275.09665785465671
 31
0.0
  0
ARC
  5
27D
  8
0
 10
369.08726057787442
 20
287.19665785465662
 30
0.0
 40
25.0
 50
306.64192814121378
 51
323.06989397484108
  0
ARC
  5
27E
  8
0
 10
389.83466057787427
 20
287.19665785465662
 30
0.0
 40
25.0
 50
216.93010602515889
 51
233.35807185878619
  0
ARC
  5
27F
  8
0
 10
377.30160428660997
 20
270.3466578546566
 30
0.0
 40
4.0
 50
233.3580718587861
 51
270.0
  0
ARC
  5
280
  8
0
 10
381.62031686913872
 20
270.3466578546566
 30
0.0
 40
4.0
 50
269.99999999999989
 51
306.6419281412139
  0
LINE
  5
281
  8
0
 10
377.30160428660997
 20
266.3466578546566
 30
0.0
 11
381.62031686913872
 21
266.3466578546566
 31
0.0
  0
ARC
  5
282
  8
0
 10
384.46096057787418
 20
275.09665785465671
 30
0.0
 40
1.0
 50
180.0
 51
270.0
  0
LINE
  5
283
  8
0
 10
374.46096057787418
 20
274.0966578546566
 30
0.0
 11
370.80967700363749
 21
274.0966578546566
 31
0.0
  0
ARC
  5
284
  8
0
 10
374.46096057787418
 20
275.09665785465671
 30
0.0
 40
1.0
 50
270.00000000000011
 51
0.0
  0
ARC
  5
285
  8
0
 10
370.80967700363749
 20
272.89665785465672
 30
0.0
 40
1.1999999999999991
 50
90.0
 51
216.93010602515849
  0
ARC
  5
286
  8
0
 10
388.1122441521112
 20
272.89665785465672
 30
0.0
 40
1.1999999999999991
 50
323.06989397484142
 51
89.999999999999986
  0
LINE
  5
287
  8
0
 10
384.46096057787418
 20
274.0966578546566
 30
0.0
 11
388.1122441521112
 21
274.0966578546566
 31
0.0
  0
CIRCLE
  5
288
  8
3
 10
368.96096057787418
 20
266.59665785465648
 30
0.0
 40
2.0
  0
CIRCLE
  5
289
  8
0
 10
368.96096057787418
 20
266.59665785465648
 30
0.0
 40
1.6209999999999991
  0
LINE
  5
295
  8
0
 10
355.96096057787418
 20
264.84665785465671
 30
0.0
 11
355.6558084023722
 21
264.84665785465671
 31
0.0
  0
LINE
  5
296
  8
0
 10
363.26611275337609
 20
264.84665785465671
 30
0.0
 11
362.96096057787429
 21
264.84665785465671
 31
0.0
  0
CIRCLE
  5
297
  8
0
 10
346.96096057787429
 20
270.0966578546566
 30
0.0
 40
2.458499999999999
  0
CIRCLE
  5
298
  8
3
 10
346.96096057787429
 20
270.0966578546566
 30
0.0
 40
3.0
  0
LINE
  5
299
  8
1
 10
346.96096057787429
 20
277.59665785465671
 30
0.0
 11
346.96096057787429
 21
262.5966578546566
 31
0.0
  0
LINE
  5
29A
  8
1
 10
354.46096057787429
 20
270.0966578546566
 30
0.0
 11
339.46096057787418
 21
270.0966578546566
 31
0.0
  0
ARC
  5
29B
  8
0
 10
374.46096057787418
 20
251.59665785465671
 30
0.0
 40
10.0
 50
26.715316117854741
 51
89.999999999999758
  0
ARC
  5
29C
  8
0
 10
345.46096057787429
 20
265.59665785465683
 30
0.0
 40
4.0
 50
180.0
 51
270.0
  0
LINE
  5
29D
  8
0
 10
374.46096057787418
 20
261.5966578546566
 30
0.0
 11
368.11781482736671
 21
261.5966578546566
 31
0.0
  0
ARC
  5
29E
  8
0
 10
345.46096057787429
 20
274.59665785465671
 30
0.0
 40
4.0
 50
90.0
 51
180.0
  0
LINE
  5
29F
  8
0
 10
341.46096057787429
 20
265.59665785465683
 30
0.0
 11
341.46096057787429
 21
274.59665785465671
 31
0.0
  0
ARC
  5
2A0
  8
0
 10
395.46096057787418
 20
274.59665785465671
 30
0.0
 40
4.0
 50
0.0
 51
90.0
  0
LINE
  5
2A1
  8
0
 10
399.46096057787418
 20
253.09665785465671
 30
0.0
 11
399.46096057787418
 21
250.59665785465671
 31
0.0
  0
LINE
  5
2A2
  8
0
 10
399.46096057787418
 20
264.09665785465671
 30
0.0
 11
399.46096057787418
 21
274.59665785465671
 31
0.0
  0
LINE
  5
2A3
  8
0
 10
395.46096057787418
 20
278.59665785465671
 30
0.0
 11
384.96096057787418
 21
278.59665785465671
 31
0.0
  0
LINE
  5
2A4
  8
0
 10
373.96096057787418
 20
278.59665785465671
 30
0.0
 11
345.46096057787429
 21
278.59665785465671
 31
0.0
  0
CIRCLE
  5
2A5
  8
0
 10
394.96096057787418
 20
274.0966578546566
 30
0.0
 40
2.5
  0
LINE
  5
2A6
  8
0
 10
362.46096057787429
 20
271.09665785465671
 30
0.0
 11
362.46096057787429
 21
267.25351210414908
 31
0.0
  0
LINE
  5
2A7
  8
0
 10
356.46096057787429
 20
271.09665785465671
 30
0.0
 11
356.46096057787429
 21
267.25351210414908
 31
0.0
  0
LINE
  5
2A8
  8
0
 10
360.96096057787429
 20
272.59665785465671
 30
0.0
 11
357.96096057787429
 21
272.59665785465671
 31
0.0
  0
ARC
  5
2A9
  8
0
 10
360.96096057787429
 20
271.09665785465671
 30
0.0
 40
1.5
 50
359.99999999999977
 51
89.999999999999758
  0
ARC
  5
2AA
  8
0
 10
357.96096057787429
 20
271.09665785465671
 30
0.0
 40
1.5
 50
90.0
 51
179.9999999999994
  0
LINE
  5
2AB
  8
0
 10
350.80410632838192
 20
261.59665785465683
 30
0.0
 11
345.46096057787429
 21
261.59665785465683
 31
0.0
  0
LINE
  5
2AC
  8
0
 10
355.2893877026205
 20
264.42508497940298
 30
0.0
 11
353.63253345312779
 21
262.76823072991061
 31
0.0
  0
LINE
  5
2AD
  8
0
 10
363.63253345312819
 20
264.42508497940293
 30
0.0
 11
365.2893877026205
 21
262.7682307299105
 31
0.0
  0
ARC
  5
2AE
  8
0
 10
366.46096057787429
 20
267.25351210414908
 30
0.0
 40
4.0
 50
179.9999999999994
 51
225.0
  0
ARC
  5
2AF
  8
0
 10
368.11781482736671
 20
265.5966578546566
 30
0.0
 40
4.0
 50
225.0000000000006
 51
269.99999999999977
  0
ARC
  5
2B0
  8
0
 10
350.80410632838192
 20
265.59665785465683
 30
0.0
 40
4.0
 50
270.00000000000011
 51
314.99999999999932
  0
ARC
  5
2B1
  8
0
 10
352.46096057787429
 20
267.25351210414931
 30
0.0
 40
4.0
 50
314.99999999999892
 51
359.99999999999881
  0
LINE
  5
2B2
  8
1
 10
362.21096057787429
 20
266.59665785465648
 30
0.0
 11
375.71096057787418
 21
266.59665785465648
 31
0.0
  0
LINE
  5
2B3
  8
1
 10
368.96096057787418
 20
273.34665785465648
 30
0.0
 11
368.96096057787418
 21
259.84665785465648
 31
0.0
  0
LINE
  5
2B4
  8
1
 10
359.4609605778744
 20
283.59665785465671
 30
0.0
 11
359.46096057787412
 21
256.84665785465671
 31
0.0
  0
CIRCLE
  5
320
  8
0
 10
547.50828586186731
 20
258.59665785465671
 30
0.0
 40
3.5
  0
CIRCLE
  5
321
  8
0
 10
507.50828586186719
 20
258.59665785465671
 30
0.0
 40
3.5
  0
LINE
  5
322
  8
1
 10
547.50828586186731
 20
266.0966578546566
 30
0.0
 11
547.50828586186731
 21
251.0966578546566
 31
0.0
  0
LINE
  5
323
  8
1
 10
507.50828586186719
 20
266.09665785465648
 30
0.0
 11
507.50828586186719
 21
251.09665785465651
 31
0.0
  0
LINE
  5
324
  8
0
 10
567.50828586186708
 20
246.5966578546566
 30
0.0
 11
487.50828586186719
 21
246.5966578546566
 31
0.0
  0
LINE
  5
325
  8
0
 10
567.50828586186708
 20
278.5966578546566
 30
0.0
 11
487.50828586186719
 21
278.59665785465671
 31
0.0
  0
LINE
  5
326
  8
0
 10
487.50828586186719
 20
278.59665785465671
 30
0.0
 11
487.50828586186719
 21
246.5966578546566
 31
0.0
  0
LINE
  5
327
  8
0
 10
567.50828586186708
 20
278.5966578546566
 30
0.0
 11
567.50828586186708
 21
246.5966578546566
 31
0.0
  0
LINE
  5
328
  8
0
 10
567.50828586186708
 20
254.5966578546566
 30
0.0
 11
487.50828586186719
 21
254.5966578546566
 31
0.0
  0
LINE
  5
329
  8
0
 10
567.50828586186708
 20
262.5966578546566
 30
0.0
 11
487.50828586186719
 21
262.5966578546566
 31
0.0
  0
LINE
  5
32A
  8
1
 10
482.50828586186719
 20
258.59665785465671
 30
0.0
 11
572.50828586186708
 21
258.59665785465671
 31
0.0
  0
LINE
  5
32B
  8
1
 10
198.62807832073321
 20
278.84665785465683
 30
0.0
 11
198.62807832073321
 21
258.84665785465683
 31
0.0
  0
CIRCLE
  5
32C
  8
0
 10
198.62807832073321
 20
268.84665785465683
 30
0.0
 40
5.0
  0
CIRCLE
  5
32D
  8
0
 10
198.62807832073321
 20
268.84665785465683
 30
0.0
 40
3.5
  0
LINE
  5
32E
  8
0
 10
201.12807831869739
 20
270.29003352645668
 30
0.0
 11
201.12807831869739
 21
267.40328218050871
 31
0.0
  0
LINE
  5
32F
  8
0
 10
201.12807831869509
 20
267.40328218285691
 30
0.0
 11
198.62807831869731
 21
265.9599065098825
 31
0.0
  0
LINE
  5
330
  8
0
 10
198.6280783207323
 20
265.9599065110591
 30
0.0
 11
196.1280783207323
 21
267.40328218403272
 31
0.0
  0
LINE
  5
331
  8
0
 10
196.12807832276729
 20
267.40328218285828
 30
0.0
 11
196.12807832276729
 21
270.2900335288063
 31
0.0
  0
LINE
  5
332
  8
0
 10
196.12807832276729
 20
270.29003352645628
 30
0.0
 11
198.62807832276729
 21
271.7334091994307
 31
0.0
  0
LINE
  5
333
  8
0
 10
198.6280783207323
 20
271.73340919825409
 30
0.0
 11
201.12807832073241
 21
270.29003352528059
 31
0.0
  0
LINE
  5
334
  8
1
 10
208.62807832073329
 20
268.84665785465683
 30
0.0
 11
188.62807832073321
 21
268.84665785465683
 31
0.0
  0
LINE
  5
335
  8
1
 10
248.62807832073329
 20
278.84665785465683
 30
0.0
 11
248.62807832073329
 21
258.84665785465683
 31
0.0
  0
LINE
  5
336
  8
1
 10
238.62807832073321
 20
268.84665785465683
 30
0.0
 11
258.62807832073332
 21
268.84665785465683
 31
0.0
  0
LINE
  5
337
  8
0
 10
248.6280783207342
 20
271.73340919825409
 30
0.0
 11
246.1280783207342
 21
270.29003352528059
 31
0.0
  0
LINE
  5
338
  8
0
 10
251.12807831869921
 20
270.29003352645628
 30
0.0
 11
248.62807831869921
 21
271.7334091994307
 31
0.0
  0
LINE
  5
339
  8
0
 10
251.12807831869921
 20
267.40328218285828
 30
0.0
 11
251.12807831869921
 21
270.2900335288063
 31
0.0
  0
LINE
  5
33A
  8
0
 10
248.6280783207342
 20
265.9599065110591
 30
0.0
 11
251.1280783207342
 21
267.40328218403272
 31
0.0
  0
LINE
  5
33B
  8
0
 10
246.1280783227715
 20
267.40328218285691
 30
0.0
 11
248.6280783227692
 21
265.9599065098825
 31
0.0
  0
LINE
  5
33C
  8
0
 10
246.1280783227692
 20
270.29003352645668
 30
0.0
 11
246.1280783227692
 21
267.40328218050871
 31
0.0
  0
CIRCLE
  5
33D
  8
0
 10
248.62807832073329
 20
268.84665785465683
 30
0.0
 40
3.5
  0
CIRCLE
  5
33E
  8
0
 10
248.62807832073329
 20
268.84665785465683
 30
0.0
 40
5.0
  0
LINE
  5
33F
  8
0
 10
183.62807832073321
 20
278.59665785465671
 30
0.0
 11
183.62807832073321
 21
246.5966578546566
 31
0.0
  0
LINE
  5
340
  8
0
 10
183.62807832073321
 20
278.59665785465671
 30
0.0
 11
263.62807832073321
 21
278.59665785465683
 31
0.0
  0
LINE
  5
341
  8
0
 10
183.62807832073321
 20
246.5966578546566
 30
0.0
 11
263.62807832073321
 21
246.5966578546566
 31
0.0
  0
LINE
  5
342
  8
1
 10
243.62807832073329
 20
266.09665785465648
 30
0.0
 11
243.62807832073329
 21
251.09665785465651
 31
0.0
  0
LINE
  5
343
  8
1
 10
203.62807832073329
 20
266.09665785465671
 30
0.0
 11
203.62807832073329
 21
251.0966578546566
 31
0.0
  0
LINE
  5
344
  8
0
 10
263.62807832073321
 20
278.59665785465683
 30
0.0
 11
263.62807832073321
 21
246.5966578546566
 31
0.0
  0
ARC
  5
345
  8
0
 10
243.62807832073329
 20
258.59665785465648
 30
0.0
 40
3.5
 50
121.0027191338696
 51
35.354453734329937
  0
ARC
  5
346
  8
0
 10
203.62807832073329
 20
258.59665785465671
 30
0.0
 40
3.5
 50
144.6455462656713
 51
58.997280866128072
  0
LINE
  5
347
  8
1
 10
223.62807832073329
 20
283.59665785465671
 30
0.0
 11
223.62807832073329
 21
241.5966578546566
 31
0.0
  0
LINE
  5
348
  8
1
 10
268.62807832073332
 20
258.59665785465671
 30
0.0
 11
178.6280783207331
 21
258.59665785465671
 31
0.0
  0
LINE
  5
349
  8
0
 10
183.62807832073321
 20
261.5966578546566
 30
0.0
 11
263.62807832073321
 21
261.59665785465683
 31
0.0
  0
ARC
  5
34A
  8
0
 10
248.62807832073329
 20
268.84665785465688
 30
0.0
 40
8.5
 50
238.5330237067341
 51
301.46697629326587
  0
ARC
  5
34B
  8
0
 10
198.62807832073301
 20
268.84665785465688
 30
0.0
 40
8.5
 50
238.5330237067341
 51
301.46697629326587
  0
LINE
  5
34C
  8
1
 10
199.12807832073329
 20
278.84665785465683
 30
0.0
 11
199.12807832073329
 21
258.84665785465683
 31
0.0
  0
LINE
  5
34D
  8
1
 10
248.12807832073329
 20
278.84665785465683
 30
0.0
 11
248.12807832073329
 21
258.84665785465683
 31
0.0
  0
LINE
  5
46F
  8
0
 10
360.3145205621538
 20
261.8466578546566
 30
0.0
 11
358.60740059359449
 21
261.8466578546566
 31
0.0
  0
LINE
  5
470
  8
0
 10
355.96096057787412
 20
260.34665785465671
 30
0.0
 11
356.81977020470327
 21
260.34665785465671
 31
0.0
  0
LINE
  5
477
  8
0
 10
362.96096057787429
 20
265.31702043104559
 30
0.0
 11
362.96096057787429
 21
260.34665785465671
 31
0.0
  0
LINE
  5
478
  8
0
 10
355.96096057787418
 20
265.31702043104542
 30
0.0
 11
355.96096057787418
 21
260.34665785465671
 31
0.0
  0
LINE
  5
479
  8
0
 10
362.96096057787429
 20
260.34665785465671
 30
0.0
 11
362.10215095104508
 21
260.34665785465671
 31
0.0
  0
LINE
  5
47C
  8
0
 10
358.60740059359449
 20
261.8466578546566
 30
0.0
 11
356.81977020470327
 21
260.34665785465671
 31
0.0
  0
LINE
  5
47D
  8
0
 10
360.3145205621538
 20
261.8466578546566
 30
0.0
 11
362.10215095104508
 21
260.34665785465671
 31
0.0
  0
LINE
  5
483
  8
0
 10
358.60740059359449
 20
272.59665785465671
 30
0.0
 11
358.60740059359449
 21
261.8466578546566
 31
0.0
  0
LINE
  5
484
  8
0
 10
356.81977020470327
 20
272.07014875455337
 30
0.0
 11
356.81977020470327
 21
260.34665785465671
 31
0.0
  0
LINE
  5
485
  8
0
 10
360.3145205621538
 20
272.59665785465671
 30
0.0
 11
360.3145205621538
 21
261.8466578546566
 31
0.0
  0
LINE
  5
486
  8
0
 10
362.10215095104508
 20
272.0701487545536
 30
0.0
 11
362.10215095104508
 21
260.34665785465671
 31
0.0
  0
LINE
  5
565
  8
0
 10
360.3145205621538
 20
165.39447223569189
 30
0.0
 11
358.6074005935946
 21
165.39447223569181
 31
0.0
  0
LINE
  5
566
  8
0
 10
355.96096057787418
 20
163.89447223569181
 30
0.0
 11
356.81977020470327
 21
163.89447223569181
 31
0.0
  0
LINE
  5
567
  8
0
 10
362.96096057787429
 20
172.39447223569181
 30
0.0
 11
362.96096057787429
 21
163.89447223569181
 31
0.0
  0
LINE
  5
568
  8
0
 10
355.96096057787418
 20
172.39447223569181
 30
0.0
 11
355.96096057787418
 21
163.89447223569181
 31
0.0
  0
LINE
  5
569
  8
0
 10
362.96096057787429
 20
163.89447223569181
 30
0.0
 11
362.10215095104508
 21
163.89447223569181
 31
0.0
  0
LINE
  5
56A
  8
0
 10
358.6074005935946
 20
165.39447223569181
 30
0.0
 11
356.81977020470327
 21
163.89447223569181
 31
0.0
  0
LINE
  5
56B
  8
0
 10
360.3145205621538
 20
165.39447223569181
 30
0.0
 11
362.10215095104508
 21
163.89447223569181
 31
0.0
  0
LINE
  5
56C
  8
0
 10
358.6074005935946
 20
172.39447223569189
 30
0.0
 11
358.6074005935946
 21
165.39447223569181
 31
0.0
  0
LINE
  5
56D
  8
0
 10
356.81977020470327
 20
172.39447223569181
 30
0.0
 11
356.81977020470327
 21
163.89447223569181
 31
0.0
  0
LINE
  5
56E
  8
0
 10
360.3145205621538
 20
172.39447223569189
 30
0.0
 11
360.3145205621538
 21
165.39447223569181
 31
0.0
  0
LINE
  5
56F
  8
0
 10
362.10215095104508
 20
172.39447223569181
 30
0.0
 11
362.10215095104508
 21
163.89447223569181
 31
0.0
  0
LINE
  5
570
  8
0
 10
360.3145205621538
 20
179.39447223569181
 30
0.0
 11
358.6074005935946
 21
179.39447223569181
 31
0.0
  0
LINE
  5
571
  8
0
 10
355.96096057787418
 20
180.89447223569181
 30
0.0
 11
356.81977020470327
 21
180.89447223569181
 31
0.0
  0
LINE
  5
572
  8
0
 10
362.96096057787429
 20
172.39447223569181
 30
0.0
 11
362.96096057787429
 21
180.89447223569181
 31
0.0
  0
LINE
  5
573
  8
0
 10
355.96096057787418
 20
172.39447223569181
 30
0.0
 11
355.96096057787418
 21
180.89447223569181
 31
0.0
  0
LINE
  5
574
  8
0
 10
362.96096057787429
 20
180.89447223569181
 30
0.0
 11
362.10215095104508
 21
180.89447223569181
 31
0.0
  0
LINE
  5
575
  8
0
 10
358.6074005935946
 20
179.39447223569181
 30
0.0
 11
356.81977020470327
 21
180.89447223569181
 31
0.0
  0
LINE
  5
576
  8
0
 10
360.3145205621538
 20
179.39447223569181
 30
0.0
 11
362.10215095104508
 21
180.89447223569181
 31
0.0
  0
LINE
  5
577
  8
0
 10
358.6074005935946
 20
172.39447223569181
 30
0.0
 11
358.6074005935946
 21
179.39447223569181
 31
0.0
  0
LINE
  5
578
  8
0
 10
356.81977020470327
 20
172.39447223569181
 30
0.0
 11
356.81977020470327
 21
180.89447223569181
 31
0.0
  0
LINE
  5
579
  8
0
 10
360.3145205621538
 20
172.39447223569181
 30
0.0
 11
360.3145205621538
 21
179.39447223569181
 31
0.0
  0
LINE
  5
57A
  8
0
 10
362.10215095104508
 20
172.39447223569181
 30
0.0
 11
362.10215095104508
 21
180.89447223569181
 31
0.0
  0
LINE
  5
57B
  8
0
 10
360.3145205621538
 20
115.39447223569211
 30
0.0
 11
358.6074005935946
 21
115.39447223569211
 31
0.0
  0
LINE
  5
57C
  8
0
 10
355.96096057787418
 20
113.89447223569211
 30
0.0
 11
356.81977020470327
 21
113.89447223569211
 31
0.0
  0
LINE
  5
57D
  8
0
 10
362.96096057787429
 20
122.39447223569211
 30
0.0
 11
362.96096057787429
 21
113.89447223569211
 31
0.0
  0
LINE
  5
57E
  8
0
 10
355.96096057787418
 20
122.39447223569211
 30
0.0
 11
355.96096057787418
 21
113.89447223569211
 31
0.0
  0
LINE
  5
57F
  8
0
 10
362.96096057787429
 20
113.89447223569211
 30
0.0
 11
362.10215095104508
 21
113.89447223569211
 31
0.0
  0
LINE
  5
580
  8
0
 10
358.6074005935946
 20
115.39447223569211
 30
0.0
 11
356.81977020470327
 21
113.89447223569211
 31
0.0
  0
LINE
  5
581
  8
0
 10
360.3145205621538
 20
115.39447223569211
 30
0.0
 11
362.10215095104508
 21
113.89447223569211
 31
0.0
  0
LINE
  5
582
  8
0
 10
358.6074005935946
 20
122.39447223569211
 30
0.0
 11
358.6074005935946
 21
115.39447223569211
 31
0.0
  0
LINE
  5
583
  8
0
 10
356.81977020470327
 20
122.39447223569211
 30
0.0
 11
356.81977020470327
 21
113.89447223569211
 31
0.0
  0
LINE
  5
584
  8
0
 10
360.3145205621538
 20
122.39447223569211
 30
0.0
 11
360.3145205621538
 21
115.39447223569211
 31
0.0
  0
LINE
  5
585
  8
0
 10
362.10215095104508
 20
122.39447223569211
 30
0.0
 11
362.10215095104508
 21
113.89447223569211
 31
0.0
  0
LINE
  5
586
  8
0
 10
360.3145205621538
 20
129.39447223569201
 30
0.0
 11
358.6074005935946
 21
129.39447223569209
 31
0.0
  0
LINE
  5
587
  8
0
 10
355.96096057787418
 20
130.89447223569209
 30
0.0
 11
356.81977020470327
 21
130.89447223569209
 31
0.0
  0
LINE
  5
588
  8
0
 10
362.96096057787429
 20
122.39447223569211
 30
0.0
 11
362.96096057787429
 21
130.89447223569209
 31
0.0
  0
LINE
  5
589
  8
0
 10
355.96096057787418
 20
122.39447223569211
 30
0.0
 11
355.96096057787418
 21
130.89447223569209
 31
0.0
  0
LINE
  5
58A
  8
0
 10
362.96096057787429
 20
130.89447223569209
 30
0.0
 11
362.10215095104508
 21
130.89447223569209
 31
0.0
  0
LINE
  5
58B
  8
0
 10
358.6074005935946
 20
129.39447223569209
 30
0.0
 11
356.81977020470327
 21
130.89447223569209
 31
0.0
  0
LINE
  5
58C
  8
0
 10
360.3145205621538
 20
129.39447223569209
 30
0.0
 11
362.10215095104508
 21
130.89447223569209
 31
0.0
  0
LINE
  5
58D
  8
0
 10
358.6074005935946
 20
122.39447223569201
 30
0.0
 11
358.6074005935946
 21
129.39447223569209
 31
0.0
  0
LINE
  5
58E
  8
0
 10
356.81977020470327
 20
122.39447223569211
 30
0.0
 11
356.81977020470327
 21
130.89447223569209
 31
0.0
  0
LINE
  5
58F
  8
0
 10
360.3145205621538
 20
122.39447223569201
 30
0.0
 11
360.3145205621538
 21
129.39447223569209
 31
0.0
  0
LINE
  5
590
  8
0
 10
362.10215095104508
 20
122.39447223569211
 30
0.0
 11
362.10215095104508
 21
130.89447223569209
 31
0.0
  0
TEXT
  5
5A4
  8
0
 62
     3
 10
0.0
 20
0.0
 30
0.0
 40
10.0
  1
DE-DB6-E-N
  7
STANDARD1
  0
ENDSEC
  0
EOF
