  0
SECTION
  2
HEADER
  9
$ACADVER
  1
AC1009
  9
$INSBASE
 10
0.0
 20
0.0
 30
0.0
  9
$EXTMIN
 10
0.0
 20
-2.960436562073669
 30
0.0
  9
$EXTMAX
 10
311.1533013357033
 20
219.00000000000011
 30
0.0
  9
$LIMMIN
 10
0.0
 20
0.0
  9
$LIMMAX
 10
375.0
 20
270.0
  9
$ORTHOMODE
 70
     1
  9
$REGENMODE
 70
     1
  9
$FILLMODE
 70
     1
  9
$QTEXTMODE
 70
     0
  9
$MIRRTEXT
 70
     0
  9
$DRAGMODE
 70
     2
  9
$LTSCALE
 40
10.0
  9
$OSMODE
 70
  3071
  9
$ATTMODE
 70
     1
  9
$TEXTSIZE
 40
4.000000000000048
  9
$TRACEWID
 40
0.05
  9
$TEXTSTYLE
  7
STANDARD
  9
$CLAYER
  8
0
  9
$CELTYPE
  6
BYLAYER
  9
$CECOLOR
 62
   256
  9
$DIMSCALE
 40
1.0
  9
$DIMASZ
 40
3.0
  9
$DIMEXO
 40
2.0
  9
$DIMDLI
 40
0.38
  9
$DIMRND
 40
0.0
  9
$DIMDLE
 40
0.0
  9
$DIMEXE
 40
2.0
  9
$DIMTP
 40
0.0
  9
$DIMTM
 40
0.0
  9
$DIMTXT
 40
3.2000000000000002
  9
$DIMCEN
 40
0.0
  9
$DIMTSZ
 40
0.0
  9
$DIMTOL
 70
     0
  9
$DIMLIM
 70
     0
  9
$DIMTIH
 70
     0
  9
$DIMTOH
 70
     0
  9
$DIMSE1
 70
     0
  9
$DIMSE2
 70
     0
  9
$DIMTAD
 70
     1
  9
$DIMZIN
 70
     0
  9
$DIMBLK
  1

  9
$DIMASO
 70
     0
  9
$DIMSHO
 70
     0
  9
$DIMPOST
  1

  9
$DIMAPOST
  1

  9
$DIMALT
 70
     0
  9
$DIMALTD
 70
     2
  9
$DIMALTF
 40
25.399999999999999
  9
$DIMLFAC
 40
1.0
  9
$DIMTOFL
 70
     0
  9
$DIMTVP
 40
1.6000000000000001
  9
$DIMTIX
 70
     1
  9
$DIMSOXD
 70
     0
  9
$DIMSAH
 70
     0
  9
$DIMBLK1
  1

  9
$DIMBLK2
  1

  9
$DIMSTYLE
  2
STANDARD
  9
$DIMCLRD
 70
     4
  9
$DIMCLRE
 70
     4
  9
$DIMCLRT
 70
     4
  9
$DIMTFAC
 40
1.0
  9
$DIMGAP
 40
0.09
  9
$LUNITS
 70
     2
  9
$LUPREC
 70
     1
  9
$SKETCHINC
 40
0.1
  9
$FILLETRAD
 40
4.5
  9
$AUNITS
 70
     0
  9
$AUPREC
 70
     0
  9
$MENU
  1
E:\r13\win\SUPPORT\ACAD
  9
$ELEVATION
 40
0.0
  9
$PELEVATION
 40
0.0
  9
$THICKNESS
 40
0.0
  9
$LIMCHECK
 70
     0
  9
$BLIPMODE
 70
     0
  9
$CHAMFERA
 40
1.1999999999999991
  9
$CHAMFERB
 40
1.1999999999999991
  9
$SKPOLY
 70
     0
  9
$TDCREATE
 40
2450136.5604283558
  9
$TDUPDATE
 40
2456598.603100128
  9
$TDINDWG
 40
0.0487888426
  9
$TDUSRTIMER
 40
0.0487888426
  9
$USRTIMER
 70
     1
  9
$ANGBASE
 50
0.0
  9
$ANGDIR
 70
     0
  9
$PDMODE
 70
     0
  9
$PDSIZE
 40
0.0
  9
$PLINEWID
 40
0.0
  9
$COORDS
 70
     1
  9
$SPLFRAME
 70
     0
  9
$SPLINETYPE
 70
     6
  9
$SPLINESEGS
 70
     8
  9
$ATTDIA
 70
     0
  9
$ATTREQ
 70
     1
  9
$HANDLING
 70
     1
  9
$HANDSEED
  5
5BD
  9
$SURFTAB1
 70
     6
  9
$SURFTAB2
 70
     6
  9
$SURFTYPE
 70
     6
  9
$SURFU
 70
     6
  9
$SURFV
 70
     6
  9
$UCSNAME
  2

  9
$UCSORG
 10
0.0
 20
0.0
 30
0.0
  9
$UCSXDIR
 10
1.0
 20
0.0
 30
0.0
  9
$UCSYDIR
 10
0.0
 20
1.0
 30
0.0
  9
$PUCSNAME
  2

  9
$PUCSORG
 10
0.0
 20
0.0
 30
0.0
  9
$PUCSXDIR
 10
1.0
 20
0.0
 30
0.0
  9
$PUCSYDIR
 10
0.0
 20
1.0
 30
0.0
  9
$USERI1
 70
     0
  9
$USERI2
 70
     1
  9
$USERI3
 70
     0
  9
$USERI4
 70
     0
  9
$USERI5
 70
     0
  9
$USERR1
 40
0.0
  9
$USERR2
 40
0.0
  9
$USERR3
 40
0.0
  9
$USERR4
 40
0.0
  9
$USERR5
 40
0.0
  9
$WORLDVIEW
 70
     1
  9
$SHADEDGE
 70
     3
  9
$SHADEDIF
 70
    70
  9
$TILEMODE
 70
     1
  9
$MAXACTVP
 70
    16
  9
$PLIMCHECK
 70
     0
  9
$PEXTMIN
 10
1.0000000000000000E+020
 20
1.0000000000000000E+020
 30
1.0000000000000000E+020
  9
$PEXTMAX
 10
-1.0000000000000000E+020
 20
-1.0000000000000000E+020
 30
-1.0000000000000000E+020
  9
$PLIMMIN
 10
0.0
 20
0.0
  9
$PLIMMAX
 10
12.0
 20
9.0
  9
$UNITMODE
 70
     0
  9
$VISRETAIN
 70
     0
  9
$PLINEGEN
 70
     0
  9
$PSLTSCALE
 70
     0
  0
ENDSEC
  0
SECTION
  2
TABLES
  0
TABLE
  2
VPORT
 70
     1
  0
VPORT
  2
*ACTIVE
 70
     0
 10
0.0
 20
0.0
 11
1.0
 21
1.0
 12
195.0581083320873
 22
133.5127261426681
 13
0.0
 23
0.0
 14
10.0
 24
10.0
 15
10.0
 25
10.0
 16
0.0
 26
0.0
 36
1.0
 17
0.0
 27
0.0
 37
0.0
 40
275.42274993631997
 41
1.831871345029239
 42
50.0
 43
0.0
 44
0.0
 50
0.0
 51
0.0
 71
     0
 72
   500
 73
     1
 74
     0
 75
     0
 76
     0
 77
     0
 78
     2
  0
ENDTAB
  0
TABLE
  2
LTYPE
 70
     3
  0
LTYPE
  2
CONTINUOUS
 70
     0
  3
Solid Line
 72
    65
 73
     0
 40
0.0
  0
LTYPE
  2
CENTER
 70
     0
  3
____ _ ____ _ ____ _ ____ _ ____ _ ____ _ ____
 72
    65
 73
     4
 40
2.0
 49
1.25
 49
-0.25
 49
0.25
 49
-0.25
  0
LTYPE
  2
PHANTOM2
 70
     0
  3
___ _ _ ___ _ _ ___ _ _ ___ _ _
 72
    65
 73
     6
 40
1.25
 49
0.625
 49
-0.125
 49
0.125
 49
-0.125
 49
0.125
 49
-0.125
  0
ENDTAB
  0
TABLE
  2
LAYER
 70
     3
  0
LAYER
  2
0
 70
     0
 62
     7
  6
CONTINUOUS
  0
LAYER
  2
1
 70
     0
 62
     1
  6
CENTER
  0
LAYER
  2
3
 70
     0
 62
     3
  6
CONTINUOUS
  0
ENDTAB
  0
TABLE
  2
STYLE
 70
     2
  0
STYLE
  2
STANDARD
 70
     0
 40
0.0
 41
1.0
 50
0.0
 71
     0
 42
4.000000000000048
  3
SIMPLEX
  4
BIGFONT
  0
STYLE
  2
STANDARD1
 70
     0
 40
0.0
 41
1.0
 50
0.0
 71
     0
 42
3.0
  3
txt
  4

  0
ENDTAB
  0
TABLE
  2
VIEW
 70
     1
  0
VIEW
  2
ALL
 70
     0
 40
270.33333333333343
 10
220.8717648550103
 20
134.83333333333329
 41
441.7435297100206
 11
0.0
 21
0.0
 31
1.0
 12
0.0
 22
0.0
 32
0.0
 42
50.0
 43
0.0
 44
0.0
 50
0.0
 71
     0
  0
ENDTAB
  0
TABLE
  2
UCS
 70
     0
  0
ENDTAB
  0
TABLE
  2
APPID
 70
     6
  0
APPID
  2
ACAD
 70
     0
  0
APPID
  2
GENIUS_GENODEF_13
 70
     0
  0
APPID
  2
GENIUS_GENOREF_13
 70
     0
  0
APPID
  2
GENIUS_GENOBJ-N-FIL_13
 70
     0
  0
APPID
  2
ACAD_MLEADERVER
 70
     0
  0
APPID
  2
ACAD_NAV_VCDISPLAY
 70
     0
  0
ENDTAB
  0
TABLE
  2
DIMSTYLE
 70
     1
  0
DIMSTYLE
  2
STANDARD
 70
     0
  3

  4

  5

  6

  7

 40
1.0
 41
0.18
 42
0.0625
 43
0.38
 44
0.18
 45
0.0
 46
0.0
 47
0.0
 48
0.0
140
0.18
141
0.09
142
0.0
143
25.399999999999999
144
1.0
145
0.0
146
1.0
147
0.09
 71
     0
 72
     0
 73
     1
 74
     1
 75
     0
 76
     0
 77
     0
 78
     0
170
     0
171
     2
172
     0
173
     0
174
     0
175
     0
176
     0
177
     0
178
     0
  0
ENDTAB
  0
ENDSEC
  0
SECTION
  2
BLOCKS
  0
BLOCK
  8
0
  2
$MODEL_SPACE
 70
     0
 10
0.0
 20
0.0
 30
0.0
  3
$MODEL_SPACE
  1

  0
ENDBLK
  5
488
  8
0
  0
BLOCK
 67
     1
  8
0
  2
$PAPER_SPACE
 70
     0
 10
0.0
 20
0.0
 30
0.0
  3
$PAPER_SPACE
  1

  0
ENDBLK
  5
486
 67
     1
  8
0
  0
ENDSEC
  0
SECTION
  2
ENTITIES
  0
ARC
  5
2B8
  8
0
 10
296.1533013357033
 20
124.49999999999891
 30
0.0
 40
4.9999999999999813
 50
17.45760312371522
 51
162.5423968762841
  0
LINE
  5
2B9
  8
1
 10
301.3533013357013
 20
155.0
 30
0.0
 11
290.95330133570531
 21
155.0
 31
0.0
  0
ARC
  5
2BA
  8
0
 10
296.1533013357033
 20
126.99999999999901
 30
0.0
 40
7.5
 50
32.230952635496941
 51
147.76904736450311
  0
LINE
  5
2BB
  8
1
 10
286.1533013357033
 20
126.99999999999901
 30
0.0
 11
306.1533013357033
 21
126.99999999999901
 31
0.0
  0
LINE
  5
2BC
  8
1
 10
141.15330133570319
 20
143.0
 30
0.0
 11
166.15330133570339
 21
143.0
 31
0.0
  0
LINE
  5
2BD
  8
0
 10
302.1533013357033
 20
161.99999999999989
 30
0.0
 11
260.1533013357033
 21
161.99999999999989
 31
0.0
  0
LINE
  5
2BE
  8
0
 10
60.153301335703297
 20
162.0
 30
0.0
 11
102.1533013357033
 21
162.0
 31
0.0
  0
LINE
  5
2BF
  8
0
 10
84.709925662729233
 20
139.5
 30
0.0
 11
87.596677008677375
 21
139.5
 31
0.0
  0
LINE
  5
2C0
  8
0
 10
87.596677008677375
 20
144.5
 30
0.0
 11
84.709925662729233
 21
144.5
 31
0.0
  0
LINE
  5
2C1
  8
0
 10
102.1533013357033
 20
124.0
 30
0.0
 11
74.153301335703304
 21
124.0
 31
0.0
  0
LINE
  5
2C2
  8
1
 10
75.553301335702599
 20
142.0
 30
0.0
 11
96.753301335704009
 21
142.0
 31
0.0
  0
LINE
  5
2C3
  8
1
 10
111.1533013357032
 20
143.0
 30
0.0
 11
51.153301335703297
 21
143.0
 31
0.0
  0
CIRCLE
  5
2C4
  8
0
 10
86.153301335703304
 20
142.0
 30
0.0
 40
3.0
  0
CIRCLE
  5
2C5
  8
0
 10
86.153301335703304
 20
142.0
 30
0.0
 40
8.0999999999996817
  0
CIRCLE
  5
2C6
  8
0
 10
86.153301335703304
 20
142.0
 30
0.0
 40
7.0
  0
LINE
  5
2C7
  8
1
 10
66.153301335703304
 20
160.20000000000081
 30
0.0
 11
66.153301335703304
 21
149.79999999999919
 31
0.0
  0
LINE
  5
2C8
  8
1
 10
81.15330133570319
 20
69.0
 30
0.0
 11
81.153301335703233
 21
89.000000000000057
 31
0.0
  0
LINE
  5
2C9
  8
0
 10
56.153301335703297
 20
158.0
 30
0.0
 11
56.153301335703297
 21
125.5
 31
0.0
  0
LINE
  5
2CA
  8
0
 10
73.653301335703361
 20
130.99999999999841
 30
0.0
 11
73.653301335703304
 21
124.5
 31
0.0
  0
LINE
  5
2CB
  8
0
 10
58.653301335703297
 20
130.99999999999841
 30
0.0
 11
58.653301335703297
 21
124.5
 31
0.0
  0
LINE
  5
2CC
  8
1
 10
66.153301335703304
 20
136.99999999999909
 30
0.0
 11
66.153301335703361
 21
121.5
 31
0.0
  0
ARC
  5
2CD
  8
0
 10
57.653301335703297
 20
125.5
 30
0.0
 40
1.5
 50
180.0
 51
270.0
1001
GENIUS_GENODEF_13
1002
{
1000
HIER
1070
     0
1002
}
1002
{
1000
MANEDIT
1070
     0
1002
}
1002
{
1000
NOSEL
1070
     0
1002
}
1002
{
1000
BEHIND
1070
     0
1002
}
1002
{
1000
REACTOR
1002
}
1001
GENIUS_GENOBJ-N-FIL_13
1002
{
1000
OWNER
1000
GEN
1002
}
  0
LINE
  5
2CE
  8
0
 10
58.153301335703311
 20
124.0
 30
0.0
 11
57.653301335703297
 21
124.0
 31
0.0
  0
LINE
  5
2CF
  8
0
 10
58.153301335703311
 20
124.0
 30
0.0
 11
57.653301335703297
 21
124.0
 31
0.0
  0
ARC
  5
2D0
  8
0
 10
58.153301335703311
 20
124.5
 30
0.0
 40
0.5
 50
270.0
 51
359.9999999999992
1001
GENIUS_GENODEF_13
1002
{
1000
HIER
1070
     0
1002
}
1002
{
1000
MANEDIT
1070
     0
1002
}
1002
{
1000
NOSEL
1070
     0
1002
}
1002
{
1000
BEHIND
1070
     0
1002
}
1002
{
1000
REACTOR
1002
}
1001
GENIUS_GENOBJ-N-FIL_13
1002
{
1000
OWNER
1000
GEN
1002
}
  0
ARC
  5
2D1
  8
0
 10
74.153301335703304
 20
124.5
 30
0.0
 40
0.5
 50
179.9999999999996
 51
270.0
1001
GENIUS_GENODEF_13
1002
{
1000
HIER
1070
     0
1002
}
1002
{
1000
MANEDIT
1070
     0
1002
}
1002
{
1000
NOSEL
1070
     0
1002
}
1002
{
1000
BEHIND
1070
     0
1002
}
1002
{
1000
REACTOR
1002
}
1001
GENIUS_GENOBJ-N-FIL_13
1002
{
1000
OWNER
1000
GEN
1002
}
  0
ARC
  5
2D2
  8
0
 10
66.153301335703304
 20
124.49999999999891
 30
0.0
 40
4.9999999999999813
 50
17.457603123715831
 51
162.54239687628481
  0
ARC
  5
2D3
  8
0
 10
66.153301335703304
 20
126.99999999999901
 30
0.0
 40
7.5
 50
32.230952635496841
 51
147.769047364503
  0
LINE
  5
2D4
  8
1
 10
76.153301335703304
 20
126.9999999999991
 30
0.0
 11
56.153301335703297
 21
126.9999999999991
 31
0.0
  0
TEXT
  5
2D5
  8
0
 10
62.819968002369968
 20
146.4666666666667
 30
0.0
 40
3.5
  1
Oel
 72
     1
 11
66.153301335703304
 21
146.0
 31
0.0
 73
     1
  0
LINE
  5
2D6
  8
0
 10
61.38360532861838
 20
125.99999999999839
 30
0.0
 11
58.653301335702963
 21
125.99999999999839
 31
0.0
  0
LINE
  5
2D7
  8
0
 10
59.809012565478163
 20
130.99999999999841
 30
0.0
 11
58.653301335703297
 21
130.99999999999841
 31
0.0
  0
LINE
  5
2DA
  8
0
 10
73.653301335703304
 20
125.99999999999839
 30
0.0
 11
70.922997342788221
 21
125.99999999999839
 31
0.0
  0
LINE
  5
2DB
  8
0
 10
73.653301335703304
 20
130.99999999999841
 30
0.0
 11
72.497590105928452
 21
130.99999999999841
 31
0.0
  0
LINE
  5
2DD
  8
0
 10
83.266549989755163
 20
142.0
 30
0.0
 11
84.709925662729233
 21
139.5
 31
0.0
  0
LINE
  5
2DE
  8
0
 10
84.709925662729233
 20
144.5
 30
0.0
 11
83.266549989755163
 21
142.0
 31
0.0
  0
LINE
  5
2DF
  8
1
 10
60.95330133570252
 20
155.0
 30
0.0
 11
71.353301335704089
 21
155.0
 31
0.0
  0
ARC
  5
2E0
  8
0
 10
60.153301335703297
 20
158.0
 30
0.0
 40
4.0
 50
90.0
 51
179.9999999999998
1001
GENIUS_GENODEF_13
1002
{
1000
HIER
1070
     0
1002
}
1002
{
1000
MANEDIT
1070
     0
1002
}
1002
{
1000
NOSEL
1070
     0
1002
}
1002
{
1000
BEHIND
1070
     0
1002
}
1002
{
1000
REACTOR
1002
}
1001
GENIUS_GENOBJ-N-FIL_13
1002
{
1000
OWNER
1000
GEN
1002
}
  0
CIRCLE
  5
2E1
  8
0
 10
66.153301335703304
 20
155.0
 30
0.0
 40
2.7000000000000002
  0
LINE
  5
2E2
  8
1
 10
281.15330133570347
 20
119.0
 30
0.0
 11
281.1533013357033
 21
166.99999999999989
 31
0.0
  0
LINE
  5
2E3
  8
1
 10
276.1533013357033
 20
131.4000000000006
 30
0.0
 11
276.1533013357033
 21
152.59999999999931
 31
0.0
  0
LINE
  5
2E4
  8
0
 10
256.1533013357033
 20
158.0
 30
0.0
 11
256.1533013357033
 21
128.0
 31
0.0
  0
LINE
  5
2E5
  8
0
 10
216.15330133570339
 20
159.99999999999989
 30
0.0
 11
216.1533013357033
 21
125.9999999999999
 31
0.0
  0
LINE
  5
2E6
  8
0
 10
206.15330133570339
 20
161.99999999999989
 30
0.0
 11
206.1533013357033
 21
123.9999999999999
 31
0.0
  0
LINE
  5
2E7
  8
0
 10
156.15330133570319
 20
161.99999999999989
 30
0.0
 11
156.1533013357033
 21
123.9999999999999
 31
0.0
  0
LINE
  5
2E8
  8
0
 10
146.15330133570319
 20
159.99999999999989
 30
0.0
 11
146.1533013357033
 21
125.9999999999999
 31
0.0
  0
LINE
  5
2E9
  8
0
 10
106.1533013357033
 20
158.0
 30
0.0
 11
106.1533013357033
 21
128.0
 31
0.0
  0
LINE
  5
2EA
  8
1
 10
86.153301335703304
 20
131.39999999999921
 30
0.0
 11
86.153301335703304
 21
152.6000000000007
 31
0.0
  0
LINE
  5
2EB
  8
0
 10
206.1533013357033
 20
123.9999999999999
 30
0.0
 11
214.1533013357033
 21
123.9999999999999
 31
0.0
  0
LINE
  5
2EC
  8
1
 10
218.65330133570339
 20
142.0
 30
0.0
 11
198.6533013357033
 21
141.99999999999989
 31
0.0
  0
ARC
  5
2ED
  8
0
 10
148.1533013357033
 20
125.9999999999999
 30
0.0
 40
2.0
 50
180.0000000000002
 51
270.00000000000011
  0
LINE
  5
2EE
  8
1
 10
163.65330133570339
 20
141.99999999999989
 30
0.0
 11
143.6533013357033
 21
142.0
 31
0.0
  0
ARC
  5
2EF
  8
0
 10
102.1533013357033
 20
128.0
 30
0.0
 40
4.0
 50
270.0
 51
0.0
1001
GENIUS_GENODEF_13
1002
{
1000
HIER
1070
     0
1002
}
1002
{
1000
MANEDIT
1070
     0
1002
}
1002
{
1000
NOSEL
1070
     0
1002
}
1002
{
1000
BEHIND
1070
     0
1002
}
1002
{
1000
REACTOR
1002
}
1001
GENIUS_GENOBJ-N-FIL_13
1002
{
1000
OWNER
1000
GEN
1002
}
  0
LINE
  5
2F0
  8
0
 10
87.596677008677375
 20
139.5
 30
0.0
 11
89.040052681651446
 21
142.0
 31
0.0
  0
LINE
  5
2F1
  8
0
 10
89.040052681651446
 20
142.0
 30
0.0
 11
87.596677008677375
 21
144.5
 31
0.0
  0
LINE
  5
2F2
  8
0
 10
156.1533013357033
 20
123.9999999999999
 30
0.0
 11
148.1533013357033
 21
123.9999999999999
 31
0.0
  0
LINE
  5
2F3
  8
0
 10
159.95330133570329
 20
146.0
 30
0.0
 11
159.95330133570329
 21
137.99999999999989
 31
0.0
  0
LINE
  5
2F4
  8
0
 10
161.15330133570339
 20
139.1999999999999
 30
0.0
 11
159.95330133570329
 21
137.99999999999989
 31
0.0
  0
LINE
  5
2F5
  8
0
 10
156.1533013357033
 20
137.99999999999989
 30
0.0
 11
159.95330133570329
 21
137.99999999999989
 31
0.0
  0
LINE
  5
2F6
  8
3
 10
156.1533013357033
 20
138.67649999999989
 30
0.0
 11
160.62980133570309
 21
138.67649999999989
 31
0.0
  0
LINE
  5
2F7
  8
0
 10
159.95330133570329
 20
145.99999999999989
 30
0.0
 11
161.15330133570339
 21
144.80000000000001
 31
0.0
  0
LINE
  5
2F8
  8
0
 10
161.15330133570339
 20
144.80000000000001
 30
0.0
 11
161.15330133570339
 21
139.1999999999999
 31
0.0
  0
LINE
  5
2F9
  8
3
 10
156.1533013357033
 20
145.32350000000011
 30
0.0
 11
160.62980133570309
 21
145.32350000000011
 31
0.0
  0
LINE
  5
2FA
  8
0
 10
156.1533013357033
 20
145.99999999999989
 30
0.0
 11
159.95330133570329
 21
145.99999999999989
 31
0.0
  0
LINE
  5
2FB
  8
0
 10
201.1533013357033
 20
139.1999999999999
 30
0.0
 11
202.35330133570341
 21
137.99999999999989
 31
0.0
  0
LINE
  5
2FC
  8
0
 10
202.35330133570341
 20
146.0
 30
0.0
 11
202.35330133570341
 21
137.99999999999989
 31
0.0
  0
LINE
  5
2FD
  8
3
 10
206.1533013357033
 20
138.67649999999989
 30
0.0
 11
201.67680133570349
 21
138.67649999999989
 31
0.0
  0
LINE
  5
2FE
  8
0
 10
206.1533013357033
 20
137.99999999999989
 30
0.0
 11
202.35330133570341
 21
137.99999999999989
 31
0.0
  0
LINE
  5
2FF
  8
0
 10
202.35330133570341
 20
145.99999999999989
 30
0.0
 11
201.1533013357033
 21
144.80000000000001
 31
0.0
  0
LINE
  5
300
  8
0
 10
201.1533013357033
 20
144.80000000000001
 30
0.0
 11
201.1533013357033
 21
139.1999999999999
 31
0.0
  0
LINE
  5
301
  8
0
 10
206.1533013357033
 20
145.99999999999989
 30
0.0
 11
202.35330133570341
 21
145.99999999999989
 31
0.0
  0
LINE
  5
302
  8
3
 10
206.1533013357033
 20
145.32350000000011
 30
0.0
 11
201.67680133570349
 21
145.32350000000011
 31
0.0
  0
ARC
  5
303
  8
0
 10
260.1533013357033
 20
128.0
 30
0.0
 40
4.0
 50
180.0
 51
270.0
1001
GENIUS_GENODEF_13
1002
{
1000
HIER
1070
     0
1002
}
1002
{
1000
MANEDIT
1070
     0
1002
}
1002
{
1000
NOSEL
1070
     0
1002
}
1002
{
1000
BEHIND
1070
     0
1002
}
1002
{
1000
REACTOR
1002
}
1001
GENIUS_GENOBJ-N-FIL_13
1002
{
1000
OWNER
1000
GEN
1002
}
  0
ARC
  5
304
  8
0
 10
214.1533013357033
 20
125.9999999999999
 30
0.0
 40
2.0
 50
269.99999999999989
 51
359.99999999999977
  0
LINE
  5
305
  8
0
 10
288.6533013357033
 20
130.99999999999841
 30
0.0
 11
288.6533013357033
 21
124.4999999999999
 31
0.0
  0
LINE
  5
306
  8
0
 10
260.1533013357033
 20
124.0
 30
0.0
 11
288.1533013357033
 21
124.0
 31
0.0
  0
ARC
  5
307
  8
0
 10
288.1533013357033
 20
124.4999999999999
 30
0.0
 40
0.5
 50
270.0
 51
0.0000000000003562
1001
GENIUS_GENODEF_13
1002
{
1000
HIER
1070
     0
1002
}
1002
{
1000
MANEDIT
1070
     0
1002
}
1002
{
1000
NOSEL
1070
     0
1002
}
1002
{
1000
BEHIND
1070
     0
1002
}
1002
{
1000
REACTOR
1002
}
1001
GENIUS_GENOBJ-N-FIL_13
1002
{
1000
OWNER
1000
GEN
1002
}
  0
CIRCLE
  5
308
  8
0
 10
276.1533013357033
 20
141.99999999999989
 30
0.0
 40
3.0
  0
LINE
  5
309
  8
0
 10
274.70992566272918
 20
144.5
 30
0.0
 11
277.59667700867737
 21
144.5
 31
0.0
  0
LINE
  5
30A
  8
0
 10
277.59667700867737
 20
139.5
 30
0.0
 11
274.70992566272918
 21
139.5
 31
0.0
  0
CIRCLE
  5
30B
  8
0
 10
276.1533013357033
 20
141.99999999999989
 30
0.0
 40
7.0
  0
CIRCLE
  5
30C
  8
0
 10
276.1533013357033
 20
141.99999999999989
 30
0.0
 40
8.0999999999996817
  0
LINE
  5
30D
  8
1
 10
286.7533013357027
 20
141.99999999999989
 30
0.0
 11
265.55330133570402
 21
141.99999999999989
 31
0.0
  0
LINE
  5
30E
  8
0
 10
273.26654998975522
 20
141.99999999999989
 30
0.0
 11
274.70992566272918
 21
144.5
 31
0.0
  0
LINE
  5
30F
  8
0
 10
274.70992566272918
 20
139.5
 30
0.0
 11
273.26654998975522
 21
141.99999999999989
 31
0.0
  0
LINE
  5
310
  8
0
 10
288.6533013357033
 20
125.99999999999839
 30
0.0
 11
291.38360532861839
 21
125.99999999999839
 31
0.0
  0
LINE
  5
311
  8
0
 10
288.6533013357033
 20
130.99999999999841
 30
0.0
 11
289.80901256547821
 21
130.99999999999841
 31
0.0
  0
LINE
  5
313
  8
0
 10
277.59667700867737
 20
144.5
 30
0.0
 11
279.04005268165139
 21
141.99999999999989
 31
0.0
  0
LINE
  5
314
  8
0
 10
279.04005268165139
 20
141.99999999999989
 30
0.0
 11
277.59667700867737
 21
139.5
 31
0.0
  0
LINE
  5
315
  8
0
 10
214.15330133570339
 20
161.99999999999989
 30
0.0
 11
206.15330133570339
 21
161.99999999999989
 31
0.0
  0
ARC
  5
316
  8
0
 10
148.15330133570319
 20
159.99999999999989
 30
0.0
 40
2.0
 50
90.0
 51
180.00000000000011
  0
ARC
  5
317
  8
0
 10
102.1533013357033
 20
158.0
 30
0.0
 40
4.0
 50
0.0
 51
90.0
1001
GENIUS_GENODEF_13
1002
{
1000
HIER
1070
     0
1002
}
1002
{
1000
MANEDIT
1070
     0
1002
}
1002
{
1000
NOSEL
1070
     0
1002
}
1002
{
1000
BEHIND
1070
     0
1002
}
1002
{
1000
REACTOR
1002
}
1001
GENIUS_GENOBJ-N-FIL_13
1002
{
1000
OWNER
1000
GEN
1002
}
  0
LINE
  5
318
  8
0
 10
148.15330133570319
 20
161.99999999999989
 30
0.0
 11
156.15330133570319
 21
161.99999999999989
 31
0.0
  0
LINE
  5
319
  8
0
 10
156.15330133570319
 20
161.99999999999989
 30
0.0
 11
156.15330133570319
 21
161.99999999999989
 31
0.0
  0
LINE
  5
31A
  8
0
 10
158.1533013357033
 20
159.99999999999989
 30
0.0
 11
158.1533013357033
 21
158.49999999999989
 31
0.0
  0
LINE
  5
31B
  8
0
 10
156.15330133570319
 20
159.99999999999989
 30
0.0
 11
158.1533013357033
 21
159.99999999999989
 31
0.0
  0
LINE
  5
31C
  8
0
 10
156.15330133570319
 20
158.49999999999989
 30
0.0
 11
158.1533013357033
 21
158.49999999999989
 31
0.0
  0
LINE
  5
31D
  8
0
 10
206.15330133570339
 20
158.49999999999989
 30
0.0
 11
204.1533013357033
 21
158.49999999999989
 31
0.0
  0
LINE
  5
31E
  8
0
 10
206.15330133570339
 20
159.99999999999989
 30
0.0
 11
204.1533013357033
 21
159.99999999999989
 31
0.0
  0
LINE
  5
31F
  8
0
 10
204.1533013357033
 20
159.99999999999989
 30
0.0
 11
204.1533013357033
 21
158.49999999999989
 31
0.0
  0
LINE
  5
320
  8
0
 10
206.15330133570339
 20
161.99999999999989
 30
0.0
 11
206.15330133570339
 21
161.99999999999989
 31
0.0
  0
ARC
  5
321
  8
0
 10
260.1533013357033
 20
158.0
 30
0.0
 40
4.0
 50
90.0
 51
180.0
1001
GENIUS_GENODEF_13
1002
{
1000
HIER
1070
     0
1002
}
1002
{
1000
MANEDIT
1070
     0
1002
}
1002
{
1000
NOSEL
1070
     0
1002
}
1002
{
1000
BEHIND
1070
     0
1002
}
1002
{
1000
REACTOR
1002
}
1001
GENIUS_GENOBJ-N-FIL_13
1002
{
1000
OWNER
1000
GEN
1002
}
  0
ARC
  5
322
  8
0
 10
214.15330133570339
 20
159.99999999999989
 30
0.0
 40
2.0
 50
359.99999999999977
 51
90.0
  0
LINE
  5
323
  8
1
 10
296.1533013357033
 20
160.19999999999791
 30
0.0
 11
296.1533013357033
 21
149.800000000002
 31
0.0
  0
LINE
  5
324
  8
0
 10
306.1533013357033
 20
158.0
 30
0.0
 11
306.1533013357033
 21
125.4999999999999
 31
0.0
  0
LINE
  5
325
  8
0
 10
303.6533013357033
 20
130.99999999999841
 30
0.0
 11
303.6533013357033
 21
124.4999999999999
 31
0.0
  0
LINE
  5
326
  8
1
 10
296.1533013357033
 20
136.99999999999901
 30
0.0
 11
296.1533013357033
 21
121.5
 31
0.0
  0
LINE
  5
327
  8
0
 10
304.1533013357033
 20
123.9999999999999
 30
0.0
 11
304.6533013357033
 21
123.9999999999999
 31
0.0
  0
LINE
  5
328
  8
0
 10
304.1533013357033
 20
123.9999999999999
 30
0.0
 11
304.6533013357033
 21
123.9999999999999
 31
0.0
  0
ARC
  5
329
  8
0
 10
304.1533013357033
 20
124.4999999999999
 30
0.0
 40
0.5
 50
180.00000000000071
 51
270.0
1001
GENIUS_GENODEF_13
1002
{
1000
HIER
1070
     0
1002
}
1002
{
1000
MANEDIT
1070
     0
1002
}
1002
{
1000
NOSEL
1070
     0
1002
}
1002
{
1000
BEHIND
1070
     0
1002
}
1002
{
1000
REACTOR
1002
}
1001
GENIUS_GENOBJ-N-FIL_13
1002
{
1000
OWNER
1000
GEN
1002
}
  0
ARC
  5
32A
  8
0
 10
304.6533013357033
 20
125.4999999999999
 30
0.0
 40
1.5
 50
270.0
 51
0.0
1001
GENIUS_GENODEF_13
1002
{
1000
HIER
1070
     0
1002
}
1002
{
1000
MANEDIT
1070
     0
1002
}
1002
{
1000
NOSEL
1070
     0
1002
}
1002
{
1000
BEHIND
1070
     0
1002
}
1002
{
1000
REACTOR
1002
}
1001
GENIUS_GENOBJ-N-FIL_13
1002
{
1000
OWNER
1000
GEN
1002
}
  0
LINE
  5
32C
  8
0
 10
300.92299734278822
 20
125.99999999999829
 30
0.0
 11
303.6533013357037
 21
125.99999999999829
 31
0.0
  0
LINE
  5
32D
  8
0
 10
302.4975901059284
 20
130.99999999999841
 30
0.0
 11
303.6533013357033
 21
130.99999999999841
 31
0.0
  0
TEXT
  5
32F
  8
0
 10
293.7654575339227
 20
146.46666666666661
 30
0.0
 40
3.5
  1
Oel
 72
     1
 11
297.0987908672559
 21
145.99999999999989
 31
0.0
 73
     1
  0
CIRCLE
  5
330
  8
0
 10
296.1533013357033
 20
155.0
 30
0.0
 40
2.7000000000000002
  0
ARC
  5
331
  8
0
 10
302.1533013357033
 20
158.0
 30
0.0
 40
4.0
 50
0.0000000000001527
 51
90.0
1001
GENIUS_GENODEF_13
1002
{
1000
HIER
1070
     0
1002
}
1002
{
1000
MANEDIT
1070
     0
1002
}
1002
{
1000
NOSEL
1070
     0
1002
}
1002
{
1000
BEHIND
1070
     0
1002
}
1002
{
1000
REACTOR
1002
}
1001
GENIUS_GENOBJ-N-FIL_13
1002
{
1000
OWNER
1000
GEN
1002
}
  0
LINE
  5
332
  8
0
 10
58.153301335703311
 20
201.99999999999989
 30
0.0
 11
104.1533013357032
 21
202.0
 31
0.0
  0
LINE
  5
333
  8
0
 10
56.153301335703297
 20
212.0
 30
0.0
 11
106.1533013357032
 21
212.0
 31
0.0
  0
ARC
  5
334
  8
0
 10
104.1533013357032
 20
204.0
 30
0.0
 40
2.0
 50
270.00000000000023
 51
0.0000000000000799
  0
LINE
  5
335
  8
0
 10
106.1533013357032
 20
212.0
 30
0.0
 11
106.1533013357032
 21
204.0
 31
0.0
  0
LINE
  5
336
  8
1
 10
86.153301335703375
 20
219.00000000000011
 30
0.0
 11
86.153301335703304
 21
199.99999999999989
 31
0.0
  0
LINE
  5
337
  8
0
 10
83.353301335703364
 20
217.00000000000011
 30
0.0
 11
88.953301335703387
 21
217.00000000000011
 31
0.0
  0
LINE
  5
338
  8
0
 10
82.153301335703304
 20
215.80000000000001
 30
0.0
 11
90.153301335703304
 21
215.80000000000001
 31
0.0
  0
LINE
  5
339
  8
3
 10
89.476801335703385
 20
214.00000000000011
 30
0.0
 11
89.476801335703385
 21
216.47649999999979
 31
0.0
  0
LINE
  5
33A
  8
0
 10
90.153301335703304
 20
214.00000000000011
 30
0.0
 11
90.153301335703304
 21
215.80000000000001
 31
0.0
  0
LINE
  5
33B
  8
0
 10
88.953301335703387
 20
217.00000000000011
 30
0.0
 11
90.153301335703304
 21
215.80000000000001
 31
0.0
  0
LINE
  5
33C
  8
0
 10
82.153301335703304
 20
214.00000000000011
 30
0.0
 11
82.153301335703304
 21
215.80000000000001
 31
0.0
  0
LINE
  5
33D
  8
3
 10
82.82980133570328
 20
214.00000000000011
 30
0.0
 11
82.829801335703223
 21
216.47649999999979
 31
0.0
  0
LINE
  5
33E
  8
0
 10
82.153301335703304
 20
215.80000000000001
 30
0.0
 11
83.353301335703364
 21
217.00000000000011
 31
0.0
  0
ARC
  5
33F
  8
0
 10
58.153301335703311
 20
204.0
 30
0.0
 40
2.0
 50
180.0
 51
270.00000000000023
  0
LINE
  5
342
  8
0
 10
56.153301335703297
 20
204.0
 30
0.0
 11
56.153301335703297
 21
212.0
 31
0.0
  0
LINE
  5
343
  8
0
 10
66.153301335703418
 20
212.0
 30
0.0
 11
66.153301335703418
 21
212.0
 31
0.0
  0
LINE
  5
344
  8
0
 10
82.153301335703361
 20
214.00000000000011
 30
0.0
 11
90.153301335703304
 21
214.00000000000011
 31
0.0
  0
LINE
  5
345
  8
0
 10
82.15330133570319
 20
214.00000000000011
 30
0.0
 11
82.153301335703233
 21
212.0
 31
0.0
  0
LINE
  5
346
  8
0
 10
90.15330133570319
 20
214.00000000000011
 30
0.0
 11
90.15330133570319
 21
212.0
 31
0.0
  0
LINE
  5
347
  8
0
 10
82.153301335703361
 20
74.0
 30
0.0
 11
82.153301335703361
 21
70.199999999999989
 31
0.0
  0
LINE
  5
348
  8
3
 10
82.829801335703365
 20
74.0
 30
0.0
 11
82.82980133570328
 21
69.523500000000183
 31
0.0
  0
LINE
  5
349
  8
3
 10
89.476801335703442
 20
74.0
 30
0.0
 11
89.476801335703442
 21
69.523500000000183
 31
0.0
  0
LINE
  5
34A
  8
0
 10
90.153301335703347
 20
73.999999999999972
 30
0.0
 11
90.153301335703347
 21
70.199999999999989
 31
0.0
  0
LINE
  5
34B
  8
1
 10
86.153301335703418
 20
66.999999999999943
 30
0.0
 11
86.153301335703375
 21
86.000000000000057
 31
0.0
  0
LINE
  5
34C
  8
0
 10
56.153301335703361
 20
74.000000000000085
 30
0.0
 11
106.1533013357033
 21
73.999999999999943
 31
0.0
  0
LINE
  5
34D
  8
0
 10
58.153301335703361
 20
84.000000000000114
 30
0.0
 11
104.1533013357033
 21
83.999999999999957
 31
0.0
  0
LINE
  5
34E
  8
0
 10
56.153301335703361
 20
82.000000000000057
 30
0.0
 11
56.153301335703361
 21
74.000000000000057
 31
0.0
  0
ARC
  5
34F
  8
0
 10
58.153301335703361
 20
82.000000000000057
 30
0.0
 40
2.0
 50
89.999999999999844
 51
180.0
  0
LINE
  5
350
  8
0
 10
66.153301335703475
 20
74.000000000000057
 30
0.0
 11
66.153301335703475
 21
74.000000000000057
 31
0.0
  0
LINE
  5
354
  8
0
 10
106.1533013357032
 20
73.999999999999943
 30
0.0
 11
106.1533013357033
 21
81.999999999999929
 31
0.0
  0
ARC
  5
355
  8
0
 10
104.1533013357033
 20
81.999999999999929
 30
0.0
 40
2.0
 50
359.99999999999989
 51
89.999999999999801
  0
LINE
  5
356
  8
0
 10
82.153301335703361
 20
70.199999999999989
 30
0.0
 11
90.153301335703347
 21
70.199999999999989
 31
0.0
  0
LINE
  5
357
  8
0
 10
83.353301335703406
 20
68.999999999999943
 30
0.0
 11
88.953301335703429
 21
68.999999999999943
 31
0.0
  0
LINE
  5
358
  8
0
 10
82.153301335703361
 20
70.199999999999989
 30
0.0
 11
83.353301335703406
 21
68.999999999999943
 31
0.0
  0
LINE
  5
359
  8
0
 10
88.953301335703429
 20
68.999999999999943
 30
0.0
 11
90.153301335703347
 21
70.199999999999989
 31
0.0
  0
LINE
  5
360
  8
1
 10
251.1533013357033
 20
143.0
 30
0.0
 11
311.1533013357033
 21
143.0
 31
0.0
  0
LINE
  5
36F
  8
1
 10
196.1533013357033
 20
143.0
 30
0.0
 11
221.15330133570339
 21
143.0
 31
0.0
  0
LINE
  5
385
  8
1
 10
81.15330133570319
 20
119.0
 30
0.0
 11
81.153301335703418
 21
167.0
 31
0.0
  0
LINE
  5
386
  8
1
 10
81.153301335703418
 20
196.99999999999989
 30
0.0
 11
81.153301335703475
 21
217.0
 31
0.0
  0
TEXT
  5
556
  8
0
 62
     3
 10
0.0
 20
0.0
 30
0.0
 40
10.0
  1
DE-EN10
  7
STANDARD1
  0
ENDSEC
  0
EOF
