  0
SECTION
  2
HEADER
  9
$ACADVER
  1
AC1009
  9
$INSBASE
 10
0.0
 20
0.0
 30
0.0
  9
$EXTMIN
 10
0.0
 20
-2.960436562073669
 30
0.0
  9
$EXTMAX
 10
337.60007577196188
 20
173.57733812949641
 30
0.0
  9
$LIMMIN
 10
0.0
 20
0.0
  9
$LIMMAX
 10
375.0
 20
270.0
  9
$ORTHOMODE
 70
     1
  9
$REGENMODE
 70
     1
  9
$FILLMODE
 70
     1
  9
$QTEXTMODE
 70
     0
  9
$MIRRTEXT
 70
     0
  9
$DRAGMODE
 70
     2
  9
$LTSCALE
 40
10.0
  9
$OSMODE
 70
  3071
  9
$ATTMODE
 70
     1
  9
$TEXTSIZE
 40
4.000000000000048
  9
$TRACEWID
 40
0.05
  9
$TEXTSTYLE
  7
STANDARD
  9
$CLAYER
  8
0
  9
$CELTYPE
  6
BYLAYER
  9
$CECOLOR
 62
   256
  9
$DIMSCALE
 40
1.0
  9
$DIMASZ
 40
3.0
  9
$DIMEXO
 40
2.0
  9
$DIMDLI
 40
0.38
  9
$DIMRND
 40
0.0
  9
$DIMDLE
 40
0.0
  9
$DIMEXE
 40
2.0
  9
$DIMTP
 40
0.0
  9
$DIMTM
 40
0.0
  9
$DIMTXT
 40
3.2000000000000002
  9
$DIMCEN
 40
0.0
  9
$DIMTSZ
 40
0.0
  9
$DIMTOL
 70
     0
  9
$DIMLIM
 70
     0
  9
$DIMTIH
 70
     0
  9
$DIMTOH
 70
     0
  9
$DIMSE1
 70
     0
  9
$DIMSE2
 70
     0
  9
$DIMTAD
 70
     1
  9
$DIMZIN
 70
     0
  9
$DIMBLK
  1

  9
$DIMASO
 70
     0
  9
$DIMSHO
 70
     0
  9
$DIMPOST
  1

  9
$DIMAPOST
  1

  9
$DIMALT
 70
     0
  9
$DIMALTD
 70
     2
  9
$DIMALTF
 40
25.399999999999999
  9
$DIMLFAC
 40
1.0
  9
$DIMTOFL
 70
     0
  9
$DIMTVP
 40
1.6000000000000001
  9
$DIMTIX
 70
     1
  9
$DIMSOXD
 70
     0
  9
$DIMSAH
 70
     0
  9
$DIMBLK1
  1

  9
$DIMBLK2
  1

  9
$DIMSTYLE
  2
STANDARD
  9
$DIMCLRD
 70
     4
  9
$DIMCLRE
 70
     4
  9
$DIMCLRT
 70
     4
  9
$DIMTFAC
 40
1.0
  9
$DIMGAP
 40
0.09
  9
$LUNITS
 70
     2
  9
$LUPREC
 70
     1
  9
$SKETCHINC
 40
0.1
  9
$FILLETRAD
 40
4.5
  9
$AUNITS
 70
     0
  9
$AUPREC
 70
     0
  9
$MENU
  1
E:\r13\win\SUPPORT\ACAD
  9
$ELEVATION
 40
0.0
  9
$PELEVATION
 40
0.0
  9
$THICKNESS
 40
0.0
  9
$LIMCHECK
 70
     0
  9
$BLIPMODE
 70
     0
  9
$CHAMFERA
 40
1.1999999999999991
  9
$CHAMFERB
 40
1.1999999999999991
  9
$SKPOLY
 70
     0
  9
$TDCREATE
 40
2450136.5604283558
  9
$TDUPDATE
 40
2456598.6031191899
  9
$TDINDWG
 40
0.0094315278
  9
$TDUSRTIMER
 40
0.0094315278
  9
$USRTIMER
 70
     1
  9
$ANGBASE
 50
0.0
  9
$ANGDIR
 70
     0
  9
$PDMODE
 70
     0
  9
$PDSIZE
 40
0.0
  9
$PLINEWID
 40
0.0
  9
$COORDS
 70
     1
  9
$SPLFRAME
 70
     0
  9
$SPLINETYPE
 70
     6
  9
$SPLINESEGS
 70
     8
  9
$ATTDIA
 70
     0
  9
$ATTREQ
 70
     1
  9
$HANDLING
 70
     1
  9
$HANDSEED
  5
22F
  9
$SURFTAB1
 70
     6
  9
$SURFTAB2
 70
     6
  9
$SURFTYPE
 70
     6
  9
$SURFU
 70
     6
  9
$SURFV
 70
     6
  9
$UCSNAME
  2

  9
$UCSORG
 10
0.0
 20
0.0
 30
0.0
  9
$UCSXDIR
 10
1.0
 20
0.0
 30
0.0
  9
$UCSYDIR
 10
0.0
 20
1.0
 30
0.0
  9
$PUCSNAME
  2

  9
$PUCSORG
 10
0.0
 20
0.0
 30
0.0
  9
$PUCSXDIR
 10
1.0
 20
0.0
 30
0.0
  9
$PUCSYDIR
 10
0.0
 20
1.0
 30
0.0
  9
$USERI1
 70
     0
  9
$USERI2
 70
     1
  9
$USERI3
 70
     0
  9
$USERI4
 70
     0
  9
$USERI5
 70
     0
  9
$USERR1
 40
0.0
  9
$USERR2
 40
0.0
  9
$USERR3
 40
0.0
  9
$USERR4
 40
0.0
  9
$USERR5
 40
0.0
  9
$WORLDVIEW
 70
     1
  9
$SHADEDGE
 70
     3
  9
$SHADEDIF
 70
    70
  9
$TILEMODE
 70
     1
  9
$MAXACTVP
 70
    16
  9
$PLIMCHECK
 70
     0
  9
$PEXTMIN
 10
1.0000000000000000E+020
 20
1.0000000000000000E+020
 30
1.0000000000000000E+020
  9
$PEXTMAX
 10
-1.0000000000000000E+020
 20
-1.0000000000000000E+020
 30
-1.0000000000000000E+020
  9
$PLIMMIN
 10
0.0
 20
0.0
  9
$PLIMMAX
 10
12.0
 20
9.0
  9
$UNITMODE
 70
     0
  9
$VISRETAIN
 70
     0
  9
$PLINEGEN
 70
     0
  9
$PSLTSCALE
 70
     0
  0
ENDSEC
  0
SECTION
  2
TABLES
  0
TABLE
  2
VPORT
 70
     1
  0
VPORT
  2
*ACTIVE
 70
     0
 10
0.0
 20
0.0
 11
1.0
 21
1.0
 12
195.0581083320873
 22
133.5127261426681
 13
0.0
 23
0.0
 14
10.0
 24
10.0
 15
10.0
 25
10.0
 16
0.0
 26
0.0
 36
1.0
 17
0.0
 27
0.0
 37
0.0
 40
275.42274993631997
 41
1.831871345029239
 42
50.0
 43
0.0
 44
0.0
 50
0.0
 51
0.0
 71
     0
 72
   500
 73
     1
 74
     0
 75
     0
 76
     0
 77
     0
 78
     2
  0
ENDTAB
  0
TABLE
  2
LTYPE
 70
     3
  0
LTYPE
  2
CONTINUOUS
 70
     0
  3
Solid Line
 72
    65
 73
     0
 40
0.0
  0
LTYPE
  2
CENTER
 70
     0
  3
____ _ ____ _ ____ _ ____ _ ____ _ ____ _ ____
 72
    65
 73
     4
 40
2.0
 49
1.25
 49
-0.25
 49
0.25
 49
-0.25
  0
LTYPE
  2
PHANTOM2
 70
     0
  3
___ _ _ ___ _ _ ___ _ _ ___ _ _
 72
    65
 73
     6
 40
1.25
 49
0.625
 49
-0.125
 49
0.125
 49
-0.125
 49
0.125
 49
-0.125
  0
ENDTAB
  0
TABLE
  2
LAYER
 70
     3
  0
LAYER
  2
0
 70
     0
 62
     7
  6
CONTINUOUS
  0
LAYER
  2
1
 70
     0
 62
     1
  6
CENTER
  0
LAYER
  2
3
 70
     0
 62
     3
  6
CONTINUOUS
  0
ENDTAB
  0
TABLE
  2
STYLE
 70
     2
  0
STYLE
  2
STANDARD
 70
     0
 40
0.0
 41
1.0
 50
0.0
 71
     0
 42
4.000000000000048
  3
SIMPLEX
  4
BIGFONT
  0
STYLE
  2
STANDARD1
 70
     0
 40
0.0
 41
1.0
 50
0.0
 71
     0
 42
3.0
  3
txt
  4

  0
ENDTAB
  0
TABLE
  2
VIEW
 70
     1
  0
VIEW
  2
ALL
 70
     0
 40
270.33333333333343
 10
220.8717648550103
 20
134.83333333333329
 41
441.7435297100206
 11
0.0
 21
0.0
 31
1.0
 12
0.0
 22
0.0
 32
0.0
 42
50.0
 43
0.0
 44
0.0
 50
0.0
 71
     0
  0
ENDTAB
  0
TABLE
  2
UCS
 70
     0
  0
ENDTAB
  0
TABLE
  2
APPID
 70
     3
  0
APPID
  2
ACAD
 70
     0
  0
APPID
  2
ACAD_MLEADERVER
 70
     0
  0
APPID
  2
ACAD_NAV_VCDISPLAY
 70
     0
  0
ENDTAB
  0
TABLE
  2
DIMSTYLE
 70
     1
  0
DIMSTYLE
  2
STANDARD
 70
     0
  3

  4

  5

  6

  7

 40
1.0
 41
0.18
 42
0.0625
 43
0.38
 44
0.18
 45
0.0
 46
0.0
 47
0.0
 48
0.0
140
0.18
141
0.09
142
0.0
143
25.399999999999999
144
1.0
145
0.0
146
1.0
147
0.09
 71
     0
 72
     0
 73
     1
 74
     1
 75
     0
 76
     0
 77
     0
 78
     0
170
     0
171
     2
172
     0
173
     0
174
     0
175
     0
176
     0
177
     0
178
     0
  0
ENDTAB
  0
ENDSEC
  0
SECTION
  2
BLOCKS
  0
BLOCK
  8
0
  2
$MODEL_SPACE
 70
     0
 10
0.0
 20
0.0
 30
0.0
  3
$MODEL_SPACE
  1

  0
ENDBLK
  5
EC
  8
0
  0
BLOCK
 67
     1
  8
0
  2
$PAPER_SPACE
 70
     0
 10
0.0
 20
0.0
 30
0.0
  3
$PAPER_SPACE
  1

  0
ENDBLK
  5
EA
 67
     1
  8
0
  0
ENDSEC
  0
SECTION
  2
ENTITIES
  0
LINE
  5
28
  8
0
 10
116.09810903620171
 20
168.5773381294963
 30
0.0
 11
66.098109036201706
 21
168.5773381294963
 31
0.0
  0
ARC
  5
29
  8
0
 10
66.098109036201706
 20
164.5773381294963
 30
0.0
 40
4.0
 50
90.0
 51
180.0
  0
LINE
  5
2A
  8
0
 10
62.098109036201699
 20
164.5773381294963
 30
0.0
 11
62.098109036201699
 21
114.5773381294963
 31
0.0
  0
ARC
  5
2B
  8
0
 10
66.098109036201706
 20
114.5773381294963
 30
0.0
 40
4.0
 50
180.0
 51
270.0
  0
LINE
  5
2C
  8
0
 10
66.098109036201706
 20
110.5773381294964
 30
0.0
 11
68.598109036201876
 21
110.5773381294964
 31
0.0
  0
ARC
  5
2D
  8
0
 10
116.09810903620171
 20
114.5773381294963
 30
0.0
 40
4.0
 50
270.0
 51
0.0
  0
LINE
  5
2E
  8
0
 10
120.09810903620171
 20
114.5773381294963
 30
0.0
 11
120.09810903620171
 21
164.5773381294963
 31
0.0
  0
ARC
  5
2F
  8
0
 10
116.09810903620171
 20
164.5773381294963
 30
0.0
 40
4.0
 50
0.0
 51
89.999999999999986
  0
CIRCLE
  5
30
  8
0
 10
100.09810903620171
 20
148.57733812949641
 30
0.0
 40
7.0
  0
CIRCLE
  5
31
  8
0
 10
78.098109036201706
 20
138.5773381294963
 30
0.0
 40
2.5
  0
LINE
  5
32
  8
0
 10
70.098109036201876
 20
112.0773381294964
 30
0.0
 11
70.098109036201876
 21
116.5773381294965
 31
0.0
  0
LINE
  5
33
  8
0
 10
90.098109036201677
 20
112.0773381294964
 30
0.0
 11
90.098109036201706
 21
116.5773381294965
 31
0.0
  0
ARC
  5
34
  8
0
 10
68.598109036201876
 20
112.0773381294964
 30
0.0
 40
1.5
 50
269.99999999999977
 51
0.0
  0
ARC
  5
35
  8
0
 10
91.598109036201663
 20
112.0773381294964
 30
0.0
 40
1.5
 50
179.9999999999998
 51
269.99999999999989
  0
LINE
  5
36
  8
1
 10
112.09810903620171
 20
148.57733812949641
 30
0.0
 11
88.098109036201706
 21
148.57733812949641
 31
0.0
  0
LINE
  5
37
  8
1
 10
100.09810903620171
 20
160.57733812949641
 30
0.0
 11
100.09810903620171
 21
136.57733812949641
 31
0.0
  0
LINE
  5
38
  8
1
 10
85.598109036201706
 20
138.5773381294963
 30
0.0
 11
70.598109036201706
 21
138.5773381294963
 31
0.0
  0
LINE
  5
39
  8
1
 10
78.098109036201706
 20
146.07733812949641
 30
0.0
 11
78.098109036201706
 21
131.07733812949641
 31
0.0
  0
LINE
  5
3A
  8
1
 10
80.098109036201748
 20
131.5773381294965
 30
0.0
 11
80.098109036201748
 21
105.5773381294963
 31
0.0
  0
LINE
  5
3B
  8
1
 10
65.198109036201771
 20
116.5773381294965
 30
0.0
 11
94.698109036201785
 21
116.5773381294965
 31
0.0
  0
LINE
  5
3C
  8
1
 10
66.098109036201706
 20
119.0773381294964
 30
0.0
 11
66.098109036201706
 21
110.0773381294964
 31
0.0
  0
LINE
  5
3D
  8
1
 10
70.598109036202104
 20
114.5773381294963
 30
0.0
 11
61.598109036202111
 21
114.5773381294963
 31
0.0
  0
LINE
  5
3E
  8
1
 10
93.998109036201797
 20
119.0773381294964
 30
0.0
 11
93.998109036201797
 21
110.0773381294964
 31
0.0
  0
LINE
  5
3F
  8
1
 10
98.498109036202194
 20
114.5773381294963
 30
0.0
 11
89.498109036202194
 21
114.5773381294963
 31
0.0
  0
LINE
  5
40
  8
1
 10
104.18034208323409
 20
115.8273381294964
 30
0.0
 11
112.68034208323409
 21
115.8273381294964
 31
0.0
  0
LINE
  5
41
  8
1
 10
108.43034208323409
 20
120.0773381294964
 30
0.0
 11
108.43034208323409
 21
111.5773381294964
 31
0.0
  0
ARC
  5
42
  8
0
 10
80.098109036201748
 20
114.0773381294964
 30
0.0
 40
6.5
 50
13.342363797088749
 51
166.65763620291119
  0
LINE
  5
43
  8
0
 10
70.098109036201876
 20
115.5773381294963
 30
0.0
 11
73.773553715865447
 21
115.5773381294963
 31
0.0
  0
LINE
  5
44
  8
0
 10
324.60007577196183
 20
115.5773381294963
 30
0.0
 11
320.92463109229982
 21
115.5773381294963
 31
0.0
  0
ARC
  5
45
  8
0
 10
314.60007577196188
 20
114.0773381294964
 30
0.0
 40
6.5
 50
13.342363797085961
 51
166.6576362029117
  0
LINE
  5
46
  8
1
 10
286.26784272492949
 20
120.0773381294964
 30
0.0
 11
286.26784272492949
 21
111.5773381294964
 31
0.0
  0
LINE
  5
47
  8
1
 10
290.51784272492949
 20
115.8273381294964
 30
0.0
 11
282.01784272492949
 21
115.8273381294964
 31
0.0
  0
LINE
  5
48
  8
1
 10
296.20007577196179
 20
114.5773381294963
 30
0.0
 11
305.20007577196191
 21
114.5773381294963
 31
0.0
  0
LINE
  5
49
  8
1
 10
300.70007577196191
 20
119.0773381294964
 30
0.0
 11
300.70007577196191
 21
110.077338129498
 31
0.0
  0
LINE
  5
4A
  8
1
 10
324.100075771962
 20
114.5773381294963
 30
0.0
 11
333.10007577196188
 21
114.5773381294963
 31
0.0
  0
LINE
  5
4B
  8
1
 10
328.60007577196188
 20
119.0773381294964
 30
0.0
 11
328.60007577196188
 21
110.07733812949471
 31
0.0
  0
LINE
  5
4C
  8
1
 10
329.5000757719618
 20
116.5773381294965
 30
0.0
 11
300.00007577196192
 21
116.5773381294965
 31
0.0
  0
LINE
  5
4D
  8
1
 10
314.60007577196188
 20
131.5773381294965
 30
0.0
 11
314.60007577196188
 21
105.5773381294963
 31
0.0
  0
LINE
  5
4E
  8
1
 10
316.60007577196188
 20
146.07733812949641
 30
0.0
 11
316.60007577196188
 21
131.07733812949641
 31
0.0
  0
LINE
  5
4F
  8
1
 10
309.100075771962
 20
138.5773381294963
 30
0.0
 11
324.100075771962
 21
138.5773381294963
 31
0.0
  0
LINE
  5
50
  8
1
 10
294.600075771962
 20
160.57733812949641
 30
0.0
 11
294.600075771962
 21
136.57733812949641
 31
0.0
  0
LINE
  5
51
  8
1
 10
282.600075771962
 20
148.57733812949641
 30
0.0
 11
306.60007577196188
 21
148.57733812949641
 31
0.0
  0
ARC
  5
52
  8
0
 10
303.100075771962
 20
112.0773381294964
 30
0.0
 40
1.5
 50
270.0
 51
0.0000000000001527
  0
ARC
  5
53
  8
0
 10
326.10007577196183
 20
112.0773381294964
 30
0.0
 40
1.5
 50
180.0
 51
270.0
  0
LINE
  5
54
  8
0
 10
304.600075771962
 20
112.0773381294964
 30
0.0
 11
304.60007577196188
 21
116.5773381294963
 31
0.0
  0
LINE
  5
55
  8
0
 10
324.60007577196183
 20
112.0773381294964
 30
0.0
 11
324.60007577196183
 21
116.5773423944577
 31
0.0
  0
CIRCLE
  5
56
  8
0
 10
316.60007577196188
 20
138.5773381294963
 30
0.0
 40
2.5
  0
CIRCLE
  5
57
  8
0
 10
294.600075771962
 20
148.57733812949641
 30
0.0
 40
7.0
  0
ARC
  5
58
  8
0
 10
278.60007577196188
 20
164.5773381294963
 30
0.0
 40
4.0
 50
90.000000000000057
 51
180.0
  0
LINE
  5
59
  8
0
 10
274.60007577196188
 20
114.5773381294963
 30
0.0
 11
274.60007577196188
 21
164.5773381294963
 31
0.0
  0
ARC
  5
5A
  8
0
 10
278.60007577196188
 20
114.5773381294963
 30
0.0
 40
4.0
 50
180.0
 51
270.00000000000011
  0
LINE
  5
5B
  8
0
 10
328.60007577196188
 20
110.5773381294964
 30
0.0
 11
326.10007577196183
 21
110.5773381294964
 31
0.0
  0
ARC
  5
5C
  8
0
 10
328.60007577196188
 20
114.5773381294963
 30
0.0
 40
4.0
 50
270.00000000000011
 51
0.0000000000000254
  0
LINE
  5
5D
  8
0
 10
332.600075771962
 20
164.5773381294963
 30
0.0
 11
332.600075771962
 21
114.5773381294963
 31
0.0
  0
ARC
  5
5E
  8
0
 10
328.60007577196188
 20
164.5773381294963
 30
0.0
 40
4.0
 50
0.0000000000000254
 51
90.000000000000028
  0
LINE
  5
5F
  8
0
 10
278.60007577196188
 20
168.5773381294963
 30
0.0
 11
328.60007577196188
 21
168.5773381294963
 31
0.0
  0
CIRCLE
  5
60
  8
0
 10
100.09810903620171
 20
148.57733812949641
 30
0.0
 40
3.1012440039571478
  0
LINE
  5
61
  8
0
 10
97.598109036201421
 20
150.0207138024702
 30
0.0
 11
97.598109036201976
 21
147.13396245652251
 31
0.0
  0
LINE
  5
62
  8
0
 10
100.09810903620171
 20
151.46408947544461
 30
0.0
 11
97.598109036201421
 21
150.0207138024702
 31
0.0
  0
LINE
  5
63
  8
0
 10
102.59810903620171
 20
150.02071380247111
 30
0.0
 11
100.09810903620171
 21
151.46408947544461
 31
0.0
  0
LINE
  5
64
  8
0
 10
102.59810903620171
 20
147.13396245652251
 30
0.0
 11
102.59810903620171
 21
150.02071380247111
 31
0.0
  0
LINE
  5
65
  8
0
 10
100.098109036202
 20
145.69058678354841
 30
0.0
 11
102.59810903620171
 21
147.13396245652251
 31
0.0
  0
LINE
  5
66
  8
0
 10
97.598109036201976
 20
147.13396245652251
 30
0.0
 11
100.098109036202
 21
145.69058678354841
 31
0.0
  0
CIRCLE
  5
67
  8
0
 10
294.600075771962
 20
148.57733812949641
 30
0.0
 40
3.1012440039571478
  0
LINE
  5
68
  8
0
 10
292.10007577196171
 20
150.0207138024702
 30
0.0
 11
292.10007577196222
 21
147.13396245652251
 31
0.0
  0
LINE
  5
69
  8
0
 10
294.600075771962
 20
151.46408947544461
 30
0.0
 11
292.10007577196171
 21
150.0207138024702
 31
0.0
  0
LINE
  5
6A
  8
0
 10
297.100075771962
 20
150.02071380247111
 30
0.0
 11
294.600075771962
 21
151.46408947544461
 31
0.0
  0
LINE
  5
6B
  8
0
 10
297.100075771962
 20
147.13396245652251
 30
0.0
 11
297.100075771962
 21
150.02071380247111
 31
0.0
  0
LINE
  5
6C
  8
0
 10
294.60007577196222
 20
145.69058678354841
 30
0.0
 11
297.100075771962
 21
147.13396245652251
 31
0.0
  0
LINE
  5
6D
  8
0
 10
292.10007577196222
 20
147.13396245652251
 30
0.0
 11
294.60007577196222
 21
145.69058678354841
 31
0.0
  0
ARC
  5
6E
  8
0
 10
80.098109036201791
 20
116.5773381294965
 30
0.0
 40
9.9999999999999272
 50
0.0
 51
180.0
  0
ARC
  5
6F
  8
0
 10
314.60007577196188
 20
116.5773381294965
 30
0.0
 40
10.0
 50
0.0
 51
180.0
  0
LINE
  5
70
  8
0
 10
303.100075771962
 20
110.5773381294964
 30
0.0
 11
278.60007577196188
 21
110.5773381294964
 31
0.0
  0
LINE
  5
71
  8
0
 10
91.598109036201663
 20
110.5773381294964
 30
0.0
 11
116.09810903620171
 21
110.5773381294964
 31
0.0
  0
LINE
  5
72
  8
0
 10
86.422664356538391
 20
115.5773381294963
 30
0.0
 11
90.098109036201706
 21
115.5773381294963
 31
0.0
  0
LINE
  5
73
  8
0
 10
308.27552045162508
 20
115.5773381294963
 30
0.0
 11
304.60007577196188
 21
115.5773381294963
 31
0.0
  0
LINE
  5
74
  8
1
 10
91.098109036201706
 20
173.57733812949641
 30
0.0
 11
91.098109036201706
 21
105.5773381294964
 31
0.0
  0
LINE
  5
75
  8
1
 10
125.09810903620171
 20
139.5773381294963
 30
0.0
 11
57.098109036201699
 21
139.5773381294963
 31
0.0
  0
LINE
  5
76
  8
1
 10
303.60007577196188
 20
173.57733812949641
 30
0.0
 11
303.60007577196188
 21
105.5773381294964
 31
0.0
  0
LINE
  5
77
  8
1
 10
269.600075771962
 20
139.5773381294963
 30
0.0
 11
337.60007577196188
 21
139.5773381294963
 31
0.0
  0
LINE
  5
86
  8
0
 10
170.79556433836271
 20
151.37733812949639
 30
0.0
 11
170.79556433836271
 21
145.7773381294964
 31
0.0
  0
LINE
  5
87
  8
0
 10
165.29556433836271
 20
144.57733812949641
 30
0.0
 11
169.59556433836269
 21
144.57733812949641
 31
0.0
  0
LINE
  5
88
  8
3
 10
165.29556433836271
 20
145.2538381294963
 30
0.0
 11
170.27206433836261
 21
145.2538381294963
 31
0.0
  0
LINE
  5
89
  8
3
 10
165.29556433836271
 20
151.90083812949649
 30
0.0
 11
170.27206433836261
 21
151.90083812949649
 31
0.0
  0
LINE
  5
8A
  8
0
 10
165.29556433836271
 20
152.57733812949641
 30
0.0
 11
169.59556433836269
 21
152.57733812949641
 31
0.0
  0
LINE
  5
8B
  8
0
 10
169.59556433836269
 20
152.57733812949641
 30
0.0
 11
170.79556433836271
 21
151.37733812949639
 31
0.0
  0
LINE
  5
8C
  8
0
 10
170.79556433836271
 20
145.7773381294964
 30
0.0
 11
169.59556433836269
 21
144.57733812949641
 31
0.0
  0
LINE
  5
8D
  8
0
 10
169.59556433836281
 20
152.57733812949641
 30
0.0
 11
169.59556433836269
 21
144.57733812949641
 31
0.0
  0
LINE
  5
8E
  8
1
 10
150.29556433836279
 20
139.5773381294963
 30
0.0
 11
175.29556433836279
 21
139.5773381294963
 31
0.0
  0
LINE
  5
8F
  8
0
 10
167.4295389345784
 20
113.0773381294963
 30
0.0
 11
167.4295389345784
 21
114.5773381294963
 31
0.0
  0
LINE
  5
90
  8
0
 10
167.57387650187579
 20
117.0773381294963
 30
0.0
 11
167.57387650187579
 21
114.5773381294963
 31
0.0
  0
LINE
  5
91
  8
0
 10
168.29556433836279
 20
115.8273381294963
 30
0.0
 11
167.5738765018757
 21
114.5773381294963
 31
0.0
  0
LINE
  5
92
  8
0
 10
168.29556433836279
 20
115.8273381294963
 30
0.0
 11
167.57387650187579
 21
117.0773381294963
 31
0.0
  0
LINE
  5
93
  8
0
 10
168.29556433836279
 20
114.5773381294963
 30
0.0
 11
167.42953893457829
 21
113.0773381294963
 31
0.0
  0
LINE
  5
94
  8
0
 10
168.29556433836279
 20
114.5773381294963
 30
0.0
 11
167.93472042011931
 21
115.2023381294963
 31
0.0
  0
LINE
  5
95
  8
0
 10
167.5738765018757
 20
114.5773381294963
 30
0.0
 11
165.29556433836279
 21
114.5773381294963
 31
0.0
  0
LINE
  5
96
  8
0
 10
165.29556433836279
 20
117.0773381294963
 30
0.0
 11
167.57387650187579
 21
117.0773381294963
 31
0.0
  0
LINE
  5
97
  8
0
 10
165.29556433836279
 20
113.0773381294963
 30
0.0
 11
167.42953893457829
 21
113.0773381294963
 31
0.0
  0
LINE
  5
98
  8
1
 10
156.79556433836271
 20
115.8273381294963
 30
0.0
 11
170.79556433836279
 21
115.8273381294963
 31
0.0
  0
LINE
  5
99
  8
1
 10
156.79556433836279
 20
114.5773381294963
 30
0.0
 11
170.79556433836279
 21
114.5773381294963
 31
0.0
  0
LINE
  5
9A
  8
0
 10
165.29556433836279
 20
110.5773381294963
 30
0.0
 11
165.29556433836271
 21
168.5773381294963
 31
0.0
  0
LINE
  5
9B
  8
0
 10
155.29556433836279
 20
115.0773381294964
 30
0.0
 11
155.29556433836271
 21
164.07733812949641
 31
0.0
  0
LINE
  5
9C
  8
0
 10
159.79556433836271
 20
110.5773381294964
 30
0.0
 11
165.29556433836279
 21
110.5773381294963
 31
0.0
  0
LINE
  5
9D
  8
0
 10
159.79556433836271
 20
168.5773381294963
 30
0.0
 11
165.29556433836279
 21
168.5773381294963
 31
0.0
  0
LINE
  5
9E
  8
1
 10
178.29556433836279
 20
148.57733812949641
 30
0.0
 11
147.29556433836279
 21
148.57733812949641
 31
0.0
  0
ARC
  5
9F
  8
0
 10
159.79556433836271
 20
164.07733812949641
 30
0.0
 40
4.5
 50
90.0
 51
180.0
  0
ARC
  5
A0
  8
0
 10
159.79556433836279
 20
115.0773381294964
 30
0.0
 40
4.5
 50
180.0
 51
269.99999999999977
  0
ARC
  5
A1
  8
0
 10
225.74248483204079
 20
115.0773381294964
 30
0.0
 40
4.5
 50
270.00000000000023
 51
360.0
  0
ARC
  5
A2
  8
0
 10
225.74248483204079
 20
164.07733812949641
 30
0.0
 40
4.5
 50
360.0
 51
90.0
  0
LINE
  5
A3
  8
1
 10
207.2424848320407
 20
148.57733812949641
 30
0.0
 11
238.2424848320407
 21
148.57733812949641
 31
0.0
  0
LINE
  5
A4
  8
0
 10
225.74248483204079
 20
168.5773381294963
 30
0.0
 11
220.2424848320407
 21
168.5773381294963
 31
0.0
  0
LINE
  5
A5
  8
0
 10
225.74248483204079
 20
110.5773381294964
 30
0.0
 11
220.2424848320407
 21
110.5773381294963
 31
0.0
  0
LINE
  5
A6
  8
0
 10
230.2424848320407
 20
115.0773381294964
 30
0.0
 11
230.24248483204079
 21
164.07733812949641
 31
0.0
  0
LINE
  5
A7
  8
0
 10
220.2424848320407
 20
110.5773381294963
 30
0.0
 11
220.24248483204079
 21
168.5773381294963
 31
0.0
  0
LINE
  5
A8
  8
1
 10
228.7424848320407
 20
114.5773381294963
 30
0.0
 11
214.7424848320407
 21
114.5773381294963
 31
0.0
  0
LINE
  5
A9
  8
1
 10
228.74248483204079
 20
115.8273381294963
 30
0.0
 11
214.7424848320407
 21
115.8273381294963
 31
0.0
  0
LINE
  5
AA
  8
0
 10
220.2424848320407
 20
113.0773381294963
 30
0.0
 11
218.10851023582521
 21
113.0773381294963
 31
0.0
  0
LINE
  5
AB
  8
0
 10
220.2424848320407
 20
117.0773381294963
 30
0.0
 11
217.96417266852771
 21
117.0773381294963
 31
0.0
  0
LINE
  5
AC
  8
0
 10
217.96417266852779
 20
114.5773381294963
 30
0.0
 11
220.2424848320407
 21
114.5773381294963
 31
0.0
  0
LINE
  5
AD
  8
0
 10
217.2424848320407
 20
114.5773381294963
 30
0.0
 11
217.60332875028419
 21
115.2023381294963
 31
0.0
  0
LINE
  5
AE
  8
0
 10
217.2424848320407
 20
114.5773381294963
 30
0.0
 11
218.10851023582521
 21
113.0773381294963
 31
0.0
  0
LINE
  5
AF
  8
0
 10
217.2424848320407
 20
115.8273381294963
 30
0.0
 11
217.96417266852771
 21
117.0773381294963
 31
0.0
  0
LINE
  5
B0
  8
0
 10
217.2424848320407
 20
115.8273381294963
 30
0.0
 11
217.96417266852779
 21
114.5773381294963
 31
0.0
  0
LINE
  5
B1
  8
0
 10
217.96417266852771
 20
117.0773381294963
 30
0.0
 11
217.96417266852771
 21
114.5773381294963
 31
0.0
  0
LINE
  5
B2
  8
0
 10
218.10851023582509
 20
113.0773381294963
 30
0.0
 11
218.10851023582509
 21
114.5773381294963
 31
0.0
  0
LINE
  5
B3
  8
1
 10
235.24248483204079
 20
139.5773381294963
 30
0.0
 11
210.2424848320407
 21
139.5773381294963
 31
0.0
  0
LINE
  5
B4
  8
0
 10
215.94248483204069
 20
152.57733812949641
 30
0.0
 11
215.9424848320408
 21
144.57733812949641
 31
0.0
  0
LINE
  5
B5
  8
0
 10
214.74248483204079
 20
145.7773381294964
 30
0.0
 11
215.9424848320408
 21
144.57733812949641
 31
0.0
  0
LINE
  5
B6
  8
0
 10
215.9424848320408
 20
152.57733812949641
 30
0.0
 11
214.74248483204079
 21
151.37733812949639
 31
0.0
  0
LINE
  5
B7
  8
0
 10
220.24248483204079
 20
152.57733812949641
 30
0.0
 11
215.9424848320408
 21
152.57733812949641
 31
0.0
  0
LINE
  5
B8
  8
3
 10
220.24248483204079
 20
151.90083812949649
 30
0.0
 11
215.2659848320408
 21
151.90083812949649
 31
0.0
  0
LINE
  5
B9
  8
3
 10
220.24248483204079
 20
145.2538381294963
 30
0.0
 11
215.26598483204091
 21
145.2538381294963
 31
0.0
  0
LINE
  5
BA
  8
0
 10
220.24248483204079
 20
144.57733812949641
 30
0.0
 11
215.9424848320408
 21
144.57733812949641
 31
0.0
  0
LINE
  5
BB
  8
0
 10
214.74248483204079
 20
151.37733812949639
 30
0.0
 11
214.74248483204079
 21
145.7773381294964
 31
0.0
  0
TEXT
  5
19F
  8
0
 62
     3
 10
0.0
 20
0.0
 30
0.0
 40
10.0
  1
DE-EN14
  7
STANDARD1
  0
ENDSEC
  0
EOF
