  0
SECTION
  2
HEADER
  9
$ACADVER
  1
AC1009
  9
$INSBASE
 10
0.0
 20
0.0
 30
0.0
  9
$EXTMIN
 10
0.0
 20
-2.960436562073669
 30
0.0
  9
$EXTMAX
 10
147.325793
 20
80.378330000000005
 30
0.0
  9
$LIMMIN
 10
0.0
 20
0.0
  9
$LIMMAX
 10
195.0
 20
135.0
  9
$ORTHOMODE
 70
     1
  9
$REGENMODE
 70
     1
  9
$FILLMODE
 70
     1
  9
$QTEXTMODE
 70
     0
  9
$MIRRTEXT
 70
     0
  9
$DRAGMODE
 70
     2
  9
$LTSCALE
 40
5.0
  9
$OSMODE
 70
  3071
  9
$ATTMODE
 70
     1
  9
$TEXTSIZE
 40
0.2
  9
$TRACEWID
 40
0.05
  9
$TEXTSTYLE
  7
STANDARD
  9
$CLAYER
  8
0
  9
$CELTYPE
  6
BYLAYER
  9
$CECOLOR
 62
   256
  9
$DIMSCALE
 40
0.5
  9
$DIMASZ
 40
3.0
  9
$DIMEXO
 40
1.0
  9
$DIMDLI
 40
6.0
  9
$DIMRND
 40
0.0
  9
$DIMDLE
 40
0.0
  9
$DIMEXE
 40
1.0
  9
$DIMTP
 40
495.0
  9
$DIMTM
 40
0.0
  9
$DIMTXT
 40
3.0
  9
$DIMCEN
 40
0.0
  9
$DIMTSZ
 40
0.0
  9
$DIMTOL
 70
     0
  9
$DIMLIM
 70
     0
  9
$DIMTIH
 70
     0
  9
$DIMTOH
 70
     0
  9
$DIMSE1
 70
     0
  9
$DIMSE2
 70
     0
  9
$DIMTAD
 70
     1
  9
$DIMZIN
 70
     0
  9
$DIMBLK
  1

  9
$DIMASO
 70
     0
  9
$DIMSHO
 70
     0
  9
$DIMPOST
  1

  9
$DIMAPOST
  1

  9
$DIMALT
 70
     0
  9
$DIMALTD
 70
     2
  9
$DIMALTF
 40
25.399999999999999
  9
$DIMLFAC
 40
1.0
  9
$DIMTOFL
 70
     1
  9
$DIMTVP
 40
0.0
  9
$DIMTIX
 70
     1
  9
$DIMSOXD
 70
     0
  9
$DIMSAH
 70
     0
  9
$DIMBLK1
  1

  9
$DIMBLK2
  1

  9
$DIMSTYLE
  2
STANDARD
  9
$DIMCLRD
 70
     0
  9
$DIMCLRE
 70
     0
  9
$DIMCLRT
 70
     0
  9
$DIMTFAC
 40
1.0
  9
$DIMGAP
 40
0.09
  9
$LUNITS
 70
     2
  9
$LUPREC
 70
     2
  9
$SKETCHINC
 40
0.1
  9
$FILLETRAD
 40
0.0
  9
$AUNITS
 70
     0
  9
$AUPREC
 70
     2
  9
$MENU
  1
E:\r13\win\SUPPORT\ACAD
  9
$ELEVATION
 40
0.0
  9
$PELEVATION
 40
0.0
  9
$THICKNESS
 40
0.0
  9
$LIMCHECK
 70
     0
  9
$BLIPMODE
 70
     0
  9
$CHAMFERA
 40
0.0
  9
$CHAMFERB
 40
0.0
  9
$SKPOLY
 70
     0
  9
$TDCREATE
 40
2449840.6547106481
  9
$TDUPDATE
 40
2456598.6031399891
  9
$TDINDWG
 40
0.0000931134
  9
$TDUSRTIMER
 40
0.0000931134
  9
$USRTIMER
 70
     1
  9
$ANGBASE
 50
0.0
  9
$ANGDIR
 70
     0
  9
$PDMODE
 70
     0
  9
$PDSIZE
 40
0.0
  9
$PLINEWID
 40
0.0
  9
$COORDS
 70
     1
  9
$SPLFRAME
 70
     0
  9
$SPLINETYPE
 70
     6
  9
$SPLINESEGS
 70
     8
  9
$ATTDIA
 70
     0
  9
$ATTREQ
 70
     1
  9
$HANDLING
 70
     1
  9
$HANDSEED
  5
210
  9
$SURFTAB1
 70
     6
  9
$SURFTAB2
 70
     6
  9
$SURFTYPE
 70
     6
  9
$SURFU
 70
     6
  9
$SURFV
 70
     6
  9
$UCSNAME
  2

  9
$UCSORG
 10
0.0
 20
0.0
 30
0.0
  9
$UCSXDIR
 10
1.0
 20
0.0
 30
0.0
  9
$UCSYDIR
 10
0.0
 20
1.0
 30
0.0
  9
$PUCSNAME
  2

  9
$PUCSORG
 10
0.0
 20
0.0
 30
0.0
  9
$PUCSXDIR
 10
1.0
 20
0.0
 30
0.0
  9
$PUCSYDIR
 10
0.0
 20
1.0
 30
0.0
  9
$USERI1
 70
     3
  9
$USERI2
 70
     1
  9
$USERI3
 70
     0
  9
$USERI4
 70
     1
  9
$USERI5
 70
     0
  9
$USERR1
 40
0.5
  9
$USERR2
 40
3.0
  9
$USERR3
 40
3.0
  9
$USERR4
 40
3.0
  9
$USERR5
 40
10.0
  9
$WORLDVIEW
 70
     1
  9
$SHADEDGE
 70
     3
  9
$SHADEDIF
 70
    70
  9
$TILEMODE
 70
     1
  9
$MAXACTVP
 70
    16
  9
$PLIMCHECK
 70
     0
  9
$PEXTMIN
 10
1.0000000000000000E+020
 20
1.0000000000000000E+020
 30
1.0000000000000000E+020
  9
$PEXTMAX
 10
-1.0000000000000000E+020
 20
-1.0000000000000000E+020
 30
-1.0000000000000000E+020
  9
$PLIMMIN
 10
0.0
 20
0.0
  9
$PLIMMAX
 10
12.0
 20
9.0
  9
$UNITMODE
 70
     0
  9
$VISRETAIN
 70
     0
  9
$PLINEGEN
 70
     0
  9
$PSLTSCALE
 70
     0
  0
ENDSEC
  0
SECTION
  2
TABLES
  0
TABLE
  2
VPORT
 70
     1
  0
VPORT
  2
*ACTIVE
 70
     0
 10
0.0
 20
0.0
 11
1.0
 21
1.0
 12
101.3200363378641
 22
66.014785922033241
 13
0.0
 23
0.0
 14
5.0
 24
5.0
 15
5.0
 25
5.0
 16
0.0
 26
0.0
 36
1.0
 17
0.0
 27
0.0
 37
0.0
 40
139.20783109903601
 41
1.831871345029239
 42
50.0
 43
0.0
 44
0.0
 50
0.0
 51
0.0
 71
     0
 72
   100
 73
     1
 74
     0
 75
     0
 76
     0
 77
     0
 78
     0
  0
ENDTAB
  0
TABLE
  2
LTYPE
 70
     3
  0
LTYPE
  2
CONTINUOUS
 70
     0
  3
Solid Line
 72
    65
 73
     0
 40
0.0
  0
LTYPE
  2
CENTER
 70
     0
  3
____ _ ____ _ ____ _ ____ _ ____ _ ____ _ ____
 72
    65
 73
     4
 40
2.0
 49
1.25
 49
-0.25
 49
0.25
 49
-0.25
  0
LTYPE
  2
PHANTOM2
 70
     0
  3
___ _ _ ___ _ _ ___ _ _ ___ _ _
 72
    65
 73
     6
 40
1.25
 49
0.625
 49
-0.125
 49
0.125
 49
-0.125
 49
0.125
 49
-0.125
  0
ENDTAB
  0
TABLE
  2
LAYER
 70
     2
  0
LAYER
  2
0
 70
     0
 62
     7
  6
CONTINUOUS
  0
LAYER
  2
1
 70
     0
 62
     1
  6
CENTER
  0
ENDTAB
  0
TABLE
  2
STYLE
 70
     2
  0
STYLE
  2
STANDARD
 70
     0
 40
0.0
 41
1.0
 50
0.0
 71
     0
 42
0.2
  3
TXT
  4
BIGFONT
  0
STYLE
  2
STANDARD1
 70
     0
 40
0.0
 41
1.0
 50
0.0
 71
     0
 42
3.0
  3
txt
  4

  0
ENDTAB
  0
TABLE
  2
VIEW
 70
     0
  0
ENDTAB
  0
TABLE
  2
UCS
 70
     0
  0
ENDTAB
  0
TABLE
  2
APPID
 70
     3
  0
APPID
  2
ACAD
 70
     0
  0
APPID
  2
ACAD_MLEADERVER
 70
     0
  0
APPID
  2
ACAD_NAV_VCDISPLAY
 70
     0
  0
ENDTAB
  0
TABLE
  2
DIMSTYLE
 70
     1
  0
DIMSTYLE
  2
STANDARD
 70
     0
  3

  4

  5

  6

  7

 40
1.0
 41
0.18
 42
0.0625
 43
0.38
 44
0.18
 45
0.0
 46
0.0
 47
0.0
 48
0.0
140
0.18
141
0.09
142
0.0
143
25.399999999999999
144
1.0
145
0.0
146
1.0
147
0.09
 71
     0
 72
     0
 73
     1
 74
     1
 75
     0
 76
     0
 77
     0
 78
     0
170
     0
171
     2
172
     0
173
     0
174
     0
175
     0
176
     0
177
     0
178
     0
  0
ENDTAB
  0
ENDSEC
  0
SECTION
  2
BLOCKS
  0
BLOCK
  8
0
  2
$MODEL_SPACE
 70
     0
 10
0.0
 20
0.0
 30
0.0
  3
$MODEL_SPACE
  1

  0
ENDBLK
  5
CC
  8
0
  0
BLOCK
 67
     1
  8
0
  2
$PAPER_SPACE
 70
     0
 10
0.0
 20
0.0
 30
0.0
  3
$PAPER_SPACE
  1

  0
ENDBLK
  5
CA
 67
     1
  8
0
  0
ENDSEC
  0
SECTION
  2
ENTITIES
  0
CIRCLE
  5
33
  8
0
 10
129.325793
 20
70.370047999999997
 30
0.0
 40
1.8999999999999999
  0
CIRCLE
  5
34
  8
0
 10
129.325793
 20
70.370047999999997
 30
0.0
 40
4.75
  0
LINE
  5
35
  8
0
 10
128.459768
 20
71.870047999999997
 30
0.0
 11
127.59374200000001
 21
70.370047999999997
 31
0.0
  0
LINE
  5
36
  8
0
 10
127.59374200000001
 20
70.370047999999997
 30
0.0
 11
128.459768
 21
68.870047999999997
 31
0.0
  0
LINE
  5
37
  8
0
 10
128.459768
 20
68.870047999999997
 30
0.0
 11
130.19181800000001
 21
68.870047999999997
 31
0.0
  0
LINE
  5
38
  8
0
 10
130.19181800000001
 20
68.870047999999997
 30
0.0
 11
131.05784399999999
 21
70.370047999999997
 31
0.0
  0
LINE
  5
39
  8
0
 10
131.05784399999999
 20
70.370047999999997
 30
0.0
 11
130.19181800000001
 21
71.870047999999997
 31
0.0
  0
LINE
  5
3A
  8
0
 10
130.19181800000001
 20
71.870047999999997
 30
0.0
 11
128.459768
 21
71.870047999999997
 31
0.0
  0
LINE
  5
3B
  8
1
 10
129.325793
 20
70.370047999999997
 30
0.0
 11
135.22245000000001
 21
70.370047999999997
 31
0.0
  0
LINE
  5
3C
  8
1
 10
129.325793
 20
70.370047999999997
 30
0.0
 11
129.325793
 21
76.266705000000002
 31
0.0
  0
LINE
  5
3D
  8
1
 10
129.325793
 20
70.370047999999997
 30
0.0
 11
123.429136
 21
70.370047999999997
 31
0.0
  0
LINE
  5
3E
  8
1
 10
129.325793
 20
70.370047999999997
 30
0.0
 11
129.325793
 21
64.473391000000007
 31
0.0
  0
LINE
  5
3F
  8
0
 10
109.878322
 20
52.378048
 30
0.0
 11
104.878322
 21
52.378048
 31
0.0
  0
LINE
  5
40
  8
0
 10
103.878322
 20
53.378048
 30
0.0
 11
103.878322
 21
79.378330000000005
 31
0.0
  0
LINE
  5
41
  8
0
 10
104.878322
 20
80.378330000000005
 30
0.0
 11
109.878322
 21
80.378330000000005
 31
0.0
  0
ARC
  5
42
  8
0
 10
104.878322
 20
79.378330000000005
 30
0.0
 40
1.0
 50
90.0
 51
180.0
  0
ARC
  5
43
  8
0
 10
104.878322
 20
53.378048
 30
0.0
 40
1.0
 50
180.0
 51
270.0
  0
ARC
  5
44
  8
0
 10
139.325793
 20
74.870047999999997
 30
0.0
 40
2.0
 50
149.725672
 51
180.0
  0
ARC
  5
45
  8
0
 10
139.325793
 20
74.870047999999997
 30
0.0
 40
2.0
 50
0.0
 51
30.274328000000001
  0
ARC
  5
46
  8
0
 10
139.325793
 20
74.870047999999997
 30
0.0
 40
2.0
 50
180.0
 51
0.0
  0
ARC
  5
47
  8
0
 10
139.325793
 20
74.870047999999997
 30
0.0
 40
2.0
 50
30.274328000000001
 51
149.725672
  0
LINE
  5
48
  8
0
 10
134.325793
 20
56.570048
 30
0.0
 11
134.325793
 21
53.378048
 31
0.0
  0
ARC
  5
49
  8
0
 10
135.40023500000001
 20
57.070047999999993
 30
0.0
 40
0.5
 50
270.0
 51
330.73242199999999
  0
ARC
  5
4A
  8
0
 10
143.25135
 20
57.070047999999993
 30
0.0
 40
0.5
 50
209.26757799999999
 51
270.0
  0
ARC
  5
4B
  8
0
 10
139.325793
 20
54.870047999999997
 30
0.0
 40
4.0
 50
29.267578
 51
150.73242200000001
  0
LINE
  5
4C
  8
0
 10
144.325793
 20
56.078048000000003
 30
0.0
 11
141.79763399999999
 21
56.078048000000003
 31
0.0
  0
ARC
  5
4D
  8
0
 10
139.325793
 20
54.378048
 30
0.0
 40
3.0
 50
34.518107999999998
 51
145.48189199999999
  0
LINE
  5
4E
  8
0
 10
136.853951
 20
56.078048000000003
 30
0.0
 11
134.325793
 21
56.078048000000003
 31
0.0
  0
ARC
  5
4F
  8
0
 10
133.325793
 20
53.378048
 30
0.0
 40
1.0
 50
270.0
 51
0.0
  0
ARC
  5
50
  8
0
 10
145.325793
 20
53.378048
 30
0.0
 40
1.0
 50
180.0
 51
270.0
  0
ARC
  5
51
  8
0
 10
121.325793
 20
54.378048
 30
0.0
 40
2.0
 50
180.0
 51
270.0
  0
ARC
  5
52
  8
0
 10
121.325793
 20
78.378330000000005
 30
0.0
 40
2.0
 50
90.0
 51
180.0
  0
ARC
  5
53
  8
0
 10
145.325793
 20
78.378330000000005
 30
0.0
 40
2.0
 50
0.0
 51
90.0
  0
ARC
  5
54
  8
0
 10
145.325793
 20
54.378048
 30
0.0
 40
2.0
 50
270.0
 51
0.0
  0
LINE
  5
55
  8
0
 10
147.325793
 20
78.378330000000005
 30
0.0
 11
147.325793
 21
54.378048
 31
0.0
  0
LINE
  5
56
  8
0
 10
121.325793
 20
80.378330000000005
 30
0.0
 11
145.325793
 21
80.378330000000005
 31
0.0
  0
LINE
  5
57
  8
0
 10
119.325793
 20
54.378048
 30
0.0
 11
119.325793
 21
78.378330000000005
 31
0.0
  0
LINE
  5
58
  8
0
 10
133.325793
 20
52.378048
 30
0.0
 11
121.325793
 21
52.378048
 31
0.0
  0
LINE
  5
59
  8
0
 10
144.325793
 20
53.378048
 30
0.0
 11
144.325793
 21
56.570048
 31
0.0
  0
LINE
  5
5A
  8
0
 10
145.325793
 20
52.378048
 30
0.0
 11
145.325793
 21
52.378048
 31
0.0
  0
CIRCLE
  5
5B
  8
0
 10
129.325793
 20
70.370047999999997
 30
0.0
 40
5.0
  0
LINE
  5
5C
  8
0
 10
134.325793
 20
56.570048
 30
0.0
 11
135.40023500000001
 21
56.570048
 31
0.0
  0
LINE
  5
5D
  8
0
 10
143.25135
 20
56.570048
 30
0.0
 11
144.325793
 21
56.570048
 31
0.0
  0
LINE
  5
5E
  8
0
 10
109.878322
 20
80.378330000000005
 30
0.0
 11
109.878322
 21
52.378048
 31
0.0
  0
LINE
  5
5F
  8
1
 10
139.325793
 20
50.478211000000002
 30
0.0
 11
139.325793
 21
61.12468299999999
 31
0.0
  0
LINE
  5
60
  8
1
 10
133.34841900000001
 20
54.378048
 30
0.0
 11
145.303168
 21
54.378048
 31
0.0
  0
LINE
  5
61
  8
1
 10
100.884564
 20
54.378048
 30
0.0
 11
112.839314
 21
54.378048
 31
0.0
  0
LINE
  5
62
  8
1
 10
100.884564
 20
70.370047999999997
 30
0.0
 11
112.839314
 21
70.370047999999997
 31
0.0
  0
LINE
  5
63
  8
1
 10
81.748203000000004
 20
70.370047999999997
 30
0.0
 11
69.793453
 21
70.370047999999997
 31
0.0
  0
LINE
  5
64
  8
1
 10
81.748203000000004
 20
54.378048
 30
0.0
 11
69.793453
 21
54.378048
 31
0.0
  0
LINE
  5
65
  8
1
 10
49.284348999999999
 20
54.378048
 30
0.0
 11
37.329599000000002
 21
54.378048
 31
0.0
  0
LINE
  5
66
  8
1
 10
43.306973999999997
 20
50.478211000000002
 30
0.0
 11
43.306973999999997
 21
61.12468299999999
 31
0.0
  0
LINE
  5
67
  8
0
 10
72.754444999999976
 20
80.378330000000005
 30
0.0
 11
72.754444999999976
 21
52.378048
 31
0.0
  0
LINE
  5
68
  8
0
 10
39.381416999999999
 20
56.570048
 30
0.0
 11
38.306973999999997
 21
56.570048
 31
0.0
  0
LINE
  5
69
  8
0
 10
48.306973999999997
 20
56.570048
 30
0.0
 11
47.232531999999999
 21
56.570048
 31
0.0
  0
CIRCLE
  5
6A
  8
0
 10
53.306973999999997
 20
70.370047999999997
 30
0.0
 40
5.0
  0
LINE
  5
6B
  8
0
 10
37.306973999999997
 20
52.378048
 30
0.0
 11
37.306973999999997
 21
52.378048
 31
0.0
  0
LINE
  5
6C
  8
0
 10
38.306973999999997
 20
53.378048
 30
0.0
 11
38.306973999999997
 21
56.570048
 31
0.0
  0
LINE
  5
6D
  8
0
 10
49.30697399999999
 20
52.378048
 30
0.0
 11
61.30697399999999
 21
52.378048
 31
0.0
  0
LINE
  5
6E
  8
0
 10
63.306973999999997
 20
54.378048
 30
0.0
 11
63.306973999999997
 21
78.378330000000005
 31
0.0
  0
LINE
  5
6F
  8
0
 10
61.30697399999999
 20
80.378330000000005
 30
0.0
 11
37.306973999999997
 21
80.378330000000005
 31
0.0
  0
LINE
  5
70
  8
0
 10
35.306973999999997
 20
78.378330000000005
 30
0.0
 11
35.306973999999997
 21
54.378048
 31
0.0
  0
ARC
  5
71
  8
0
 10
37.306973999999997
 20
54.378048
 30
0.0
 40
2.0
 50
180.0
 51
270.0
  0
ARC
  5
72
  8
0
 10
37.306973999999997
 20
78.378330000000005
 30
0.0
 40
2.0
 50
90.0
 51
180.0
  0
ARC
  5
73
  8
0
 10
61.30697399999999
 20
78.378330000000005
 30
0.0
 40
2.0
 50
0.0
 51
90.0
  0
ARC
  5
74
  8
0
 10
61.30697399999999
 20
54.378048
 30
0.0
 40
2.0
 50
270.0
 51
0.0
  0
ARC
  5
75
  8
0
 10
37.306973999999997
 20
53.378048
 30
0.0
 40
1.0
 50
270.0
 51
0.0
  0
ARC
  5
76
  8
0
 10
49.30697399999999
 20
53.378048
 30
0.0
 40
1.0
 50
180.0
 51
270.0
  0
LINE
  5
77
  8
0
 10
45.778815999999999
 20
56.078048000000003
 30
0.0
 11
48.306973999999997
 21
56.078048000000003
 31
0.0
  0
ARC
  5
78
  8
0
 10
43.306973999999997
 20
54.378048
 30
0.0
 40
3.0
 50
34.518107999999998
 51
145.48189199999999
  0
LINE
  5
79
  8
0
 10
38.306973999999997
 20
56.078048000000003
 30
0.0
 11
40.835132999999992
 21
56.078048000000003
 31
0.0
  0
ARC
  5
7A
  8
0
 10
43.306973999999997
 20
54.870047999999997
 30
0.0
 40
4.0
 50
29.267578
 51
150.73242200000001
  0
ARC
  5
7B
  8
0
 10
39.381416999999999
 20
57.070047999999993
 30
0.0
 40
0.5
 50
270.0
 51
330.73242199999999
  0
ARC
  5
7C
  8
0
 10
47.232531999999999
 20
57.070047999999993
 30
0.0
 40
0.5
 50
209.26757799999999
 51
270.0
  0
LINE
  5
7D
  8
0
 10
48.306973999999997
 20
56.570048
 30
0.0
 11
48.306973999999997
 21
53.378048
 31
0.0
  0
ARC
  5
7E
  8
0
 10
43.306973999999997
 20
74.870047999999997
 30
0.0
 40
2.0
 50
30.274328000000001
 51
149.725672
  0
ARC
  5
7F
  8
0
 10
43.306973999999997
 20
74.870047999999997
 30
0.0
 40
2.0
 50
180.0
 51
0.0
  0
ARC
  5
80
  8
0
 10
43.306973999999997
 20
74.870047999999997
 30
0.0
 40
2.0
 50
149.725672
 51
180.0
  0
ARC
  5
81
  8
0
 10
43.306973999999997
 20
74.870047999999997
 30
0.0
 40
2.0
 50
0.0
 51
30.274328000000001
  0
ARC
  5
82
  8
0
 10
77.754444999999976
 20
53.378048
 30
0.0
 40
1.0
 50
270.0
 51
0.0
  0
ARC
  5
83
  8
0
 10
77.754444999999976
 20
79.378330000000005
 30
0.0
 40
1.0
 50
0.0
 51
90.0
  0
LINE
  5
84
  8
0
 10
77.754444999999976
 20
80.378330000000005
 30
0.0
 11
72.754444999999976
 21
80.378330000000005
 31
0.0
  0
LINE
  5
85
  8
0
 10
78.75444499999999
 20
53.378048
 30
0.0
 11
78.75444499999999
 21
79.378330000000005
 31
0.0
  0
LINE
  5
86
  8
0
 10
72.754444999999976
 20
52.378048
 30
0.0
 11
77.754444999999976
 21
52.378048
 31
0.0
  0
LINE
  5
87
  8
1
 10
53.306973999999997
 20
70.370047999999997
 30
0.0
 11
53.306973999999997
 21
64.473391000000007
 31
0.0
  0
LINE
  5
88
  8
1
 10
53.306973999999997
 20
70.370047999999997
 30
0.0
 11
59.203631000000009
 21
70.370047999999997
 31
0.0
  0
LINE
  5
89
  8
1
 10
53.306973999999997
 20
70.370047999999997
 30
0.0
 11
53.306973999999997
 21
76.266705000000002
 31
0.0
  0
LINE
  5
8A
  8
1
 10
53.306973999999997
 20
70.370047999999997
 30
0.0
 11
47.410316999999992
 21
70.370047999999997
 31
0.0
  0
LINE
  5
8B
  8
0
 10
52.440949000000003
 20
71.870047999999997
 30
0.0
 11
54.17299899999999
 21
71.870047999999997
 31
0.0
  0
LINE
  5
8C
  8
0
 10
51.574922999999998
 20
70.370047999999997
 30
0.0
 11
52.440949000000003
 21
71.870047999999997
 31
0.0
  0
LINE
  5
8D
  8
0
 10
52.440949000000003
 20
68.870047999999997
 30
0.0
 11
51.574922999999998
 21
70.370047999999997
 31
0.0
  0
LINE
  5
8E
  8
0
 10
54.17299899999999
 20
68.870047999999997
 30
0.0
 11
52.440949000000003
 21
68.870047999999997
 31
0.0
  0
LINE
  5
8F
  8
0
 10
55.039025000000002
 20
70.370047999999997
 30
0.0
 11
54.17299899999999
 21
68.870047999999997
 31
0.0
  0
LINE
  5
90
  8
0
 10
54.17299899999999
 20
71.870047999999997
 30
0.0
 11
55.039025000000002
 21
70.370047999999997
 31
0.0
  0
CIRCLE
  5
91
  8
0
 10
53.306973999999997
 20
70.370047999999997
 30
0.0
 40
4.75
  0
CIRCLE
  5
92
  8
0
 10
53.306973999999997
 20
70.370047999999997
 30
0.0
 40
1.8999999999999999
  0
TEXT
  5
181
  8
0
 62
     3
 10
0.0
 20
0.0
 30
0.0
 40
10.0
  1
DE-EN5/6
  7
STANDARD1
  0
ENDSEC
  0
EOF
