  0
SECTION
  2
HEADER
  9
$ACADVER
  1
AC1009
  9
$INSBASE
 10
0.0
 20
0.0
 30
0.0
  9
$EXTMIN
 10
0.0
 20
-2.960436562073669
 30
0.0
  9
$EXTMAX
 10
361.02334814167381
 20
238.74489793763061
 30
0.0
  9
$LIMMIN
 10
0.0
 20
0.0
  9
$LIMMAX
 10
375.0
 20
270.0
  9
$ORTHOMODE
 70
     1
  9
$REGENMODE
 70
     1
  9
$FILLMODE
 70
     1
  9
$QTEXTMODE
 70
     0
  9
$MIRRTEXT
 70
     0
  9
$DRAGMODE
 70
     2
  9
$LTSCALE
 40
10.0
  9
$OSMODE
 70
  3071
  9
$ATTMODE
 70
     1
  9
$TEXTSIZE
 40
5.0
  9
$TRACEWID
 40
0.05
  9
$TEXTSTYLE
  7
STANDARD
  9
$CLAYER
  8
0
  9
$CELTYPE
  6
BYLAYER
  9
$CECOLOR
 62
   256
  9
$DIMSCALE
 40
1.0
  9
$DIMASZ
 40
3.0
  9
$DIMEXO
 40
2.0
  9
$DIMDLI
 40
0.38
  9
$DIMRND
 40
0.0
  9
$DIMDLE
 40
0.0
  9
$DIMEXE
 40
2.0
  9
$DIMTP
 40
0.0
  9
$DIMTM
 40
0.0
  9
$DIMTXT
 40
3.2000000000000002
  9
$DIMCEN
 40
0.0
  9
$DIMTSZ
 40
0.0
  9
$DIMTOL
 70
     0
  9
$DIMLIM
 70
     0
  9
$DIMTIH
 70
     0
  9
$DIMTOH
 70
     0
  9
$DIMSE1
 70
     0
  9
$DIMSE2
 70
     0
  9
$DIMTAD
 70
     1
  9
$DIMZIN
 70
     0
  9
$DIMBLK
  1

  9
$DIMASO
 70
     0
  9
$DIMSHO
 70
     0
  9
$DIMPOST
  1

  9
$DIMAPOST
  1

  9
$DIMALT
 70
     0
  9
$DIMALTD
 70
     2
  9
$DIMALTF
 40
25.399999999999999
  9
$DIMLFAC
 40
1.0
  9
$DIMTOFL
 70
     1
  9
$DIMTVP
 40
1.6000000000000001
  9
$DIMTIX
 70
     1
  9
$DIMSOXD
 70
     0
  9
$DIMSAH
 70
     0
  9
$DIMBLK1
  1

  9
$DIMBLK2
  1

  9
$DIMSTYLE
  2
STANDARD
  9
$DIMCLRD
 70
     0
  9
$DIMCLRE
 70
     0
  9
$DIMCLRT
 70
     0
  9
$DIMTFAC
 40
1.0
  9
$DIMGAP
 40
0.09
  9
$LUNITS
 70
     2
  9
$LUPREC
 70
     4
  9
$SKETCHINC
 40
0.1
  9
$FILLETRAD
 40
4.0
  9
$AUNITS
 70
     0
  9
$AUPREC
 70
     4
  9
$MENU
  1
ACAD
  9
$ELEVATION
 40
0.0
  9
$PELEVATION
 40
0.0
  9
$THICKNESS
 40
0.0
  9
$LIMCHECK
 70
     0
  9
$BLIPMODE
 70
     0
  9
$CHAMFERA
 40
0.0
  9
$CHAMFERB
 40
0.0
  9
$SKPOLY
 70
     0
  9
$TDCREATE
 40
2448190.472291436
  9
$TDUPDATE
 40
2456598.6031605438
  9
$TDINDWG
 40
0.0060856481
  9
$TDUSRTIMER
 40
0.0060856481
  9
$USRTIMER
 70
     1
  9
$ANGBASE
 50
0.0
  9
$ANGDIR
 70
     0
  9
$PDMODE
 70
     0
  9
$PDSIZE
 40
0.0
  9
$PLINEWID
 40
0.0
  9
$COORDS
 70
     1
  9
$SPLFRAME
 70
     0
  9
$SPLINETYPE
 70
     6
  9
$SPLINESEGS
 70
     8
  9
$ATTDIA
 70
     0
  9
$ATTREQ
 70
     1
  9
$HANDLING
 70
     1
  9
$HANDSEED
  5
38F
  9
$SURFTAB1
 70
     6
  9
$SURFTAB2
 70
     6
  9
$SURFTYPE
 70
     6
  9
$SURFU
 70
     6
  9
$SURFV
 70
     6
  9
$UCSNAME
  2

  9
$UCSORG
 10
0.0
 20
0.0
 30
0.0
  9
$UCSXDIR
 10
1.0
 20
0.0
 30
0.0
  9
$UCSYDIR
 10
0.0
 20
1.0
 30
0.0
  9
$PUCSNAME
  2

  9
$PUCSORG
 10
0.0
 20
0.0
 30
0.0
  9
$PUCSXDIR
 10
1.0
 20
0.0
 30
0.0
  9
$PUCSYDIR
 10
0.0
 20
1.0
 30
0.0
  9
$USERI1
 70
     0
  9
$USERI2
 70
     1
  9
$USERI3
 70
     0
  9
$USERI4
 70
     0
  9
$USERI5
 70
     0
  9
$USERR1
 40
0.0
  9
$USERR2
 40
0.0
  9
$USERR3
 40
0.0
  9
$USERR4
 40
0.0
  9
$USERR5
 40
0.0
  9
$WORLDVIEW
 70
     1
  9
$SHADEDGE
 70
     3
  9
$SHADEDIF
 70
    70
  9
$TILEMODE
 70
     1
  9
$MAXACTVP
 70
    16
  9
$PLIMCHECK
 70
     0
  9
$PEXTMIN
 10
1.0000000000000000E+020
 20
1.0000000000000000E+020
 30
1.0000000000000000E+020
  9
$PEXTMAX
 10
-1.0000000000000000E+020
 20
-1.0000000000000000E+020
 30
-1.0000000000000000E+020
  9
$PLIMMIN
 10
0.0
 20
0.0
  9
$PLIMMAX
 10
12.0
 20
9.0
  9
$UNITMODE
 70
     0
  9
$VISRETAIN
 70
     0
  9
$PLINEGEN
 70
     1
  9
$PSLTSCALE
 70
     0
  0
ENDSEC
  0
SECTION
  2
TABLES
  0
TABLE
  2
VPORT
 70
     1
  0
VPORT
  2
*ACTIVE
 70
     0
 10
0.0
 20
0.0
 11
1.0
 21
1.0
 12
195.0581083320873
 22
133.5127261426681
 13
0.0
 23
0.0
 14
10.0
 24
10.0
 15
10.0
 25
10.0
 16
0.0
 26
0.0
 36
1.0
 17
0.0
 27
0.0
 37
0.0
 40
275.42274993631997
 41
1.831871345029239
 42
50.0
 43
0.0
 44
0.0
 50
0.0
 51
0.0
 71
     0
 72
   500
 73
     1
 74
     0
 75
     0
 76
     0
 77
     0
 78
     2
  0
ENDTAB
  0
TABLE
  2
LTYPE
 70
     4
  0
LTYPE
  2
CONTINUOUS
 70
     0
  3
Solid Line
 72
    65
 73
     0
 40
0.0
  0
LTYPE
  2
CENTER
 70
     0
  3
____ _ ____ _ ____ _ ____ _ ____ _ ____ _ ____
 72
    65
 73
     4
 40
2.0
 49
1.25
 49
-0.25
 49
0.25
 49
-0.25
  0
LTYPE
  2
HIDDEN
 70
     0
  3
_ _ _ _ _ _ _ _ _ _ _ _ _ _ _ _ _ _ _ _ _ _ _
 72
    65
 73
     2
 40
0.375
 49
0.25
 49
-0.125
  0
LTYPE
  2
PHANTOM2
 70
     0
  3
___ _ _ ___ _ _ ___ _ _ ___ _ _
 72
    65
 73
     6
 40
1.25
 49
0.625
 49
-0.125
 49
0.125
 49
-0.125
 49
0.125
 49
-0.125
  0
ENDTAB
  0
TABLE
  2
LAYER
 70
     3
  0
LAYER
  2
0
 70
     0
 62
     7
  6
CONTINUOUS
  0
LAYER
  2
1
 70
     0
 62
     1
  6
CENTER
  0
LAYER
  2
2
 70
     0
 62
     2
  6
HIDDEN
  0
ENDTAB
  0
TABLE
  2
STYLE
 70
     2
  0
STYLE
  2
STANDARD
 70
     0
 40
0.0
 41
1.0
 50
0.0
 71
     0
 42
5.0
  3
TXT
  4
BIGFONT
  0
STYLE
  2
STANDARD1
 70
     0
 40
0.0
 41
1.0
 50
0.0
 71
     0
 42
3.0
  3
txt
  4

  0
ENDTAB
  0
TABLE
  2
VIEW
 70
     1
  0
VIEW
  2
ALL
 70
     0
 40
270.0
 10
220.99159663865549
 20
135.0
 41
0.0
 11
0.0
 21
0.0
 31
1.0
 12
0.0
 22
0.0
 32
0.0
 42
0.0
 43
0.0
 44
0.0
 50
0.0
 71
     0
  0
ENDTAB
  0
TABLE
  2
UCS
 70
     0
  0
ENDTAB
  0
TABLE
  2
APPID
 70
     3
  0
APPID
  2
ACAD
 70
     0
  0
APPID
  2
ACAD_MLEADERVER
 70
     0
  0
APPID
  2
ACAD_NAV_VCDISPLAY
 70
     0
  0
ENDTAB
  0
TABLE
  2
DIMSTYLE
 70
     1
  0
DIMSTYLE
  2
STANDARD
 70
     0
  3

  4

  5

  6

  7

 40
1.0
 41
0.18
 42
0.0625
 43
0.38
 44
0.18
 45
0.0
 46
0.0
 47
0.0
 48
0.0
140
0.18
141
0.09
142
0.0
143
25.399999999999999
144
1.0
145
0.0
146
1.0
147
0.09
 71
     0
 72
     0
 73
     1
 74
     1
 75
     0
 76
     0
 77
     0
 78
     0
170
     0
171
     2
172
     0
173
     0
174
     0
175
     0
176
     0
177
     0
178
     0
  0
ENDTAB
  0
ENDSEC
  0
SECTION
  2
BLOCKS
  0
BLOCK
  8
0
  2
$MODEL_SPACE
 70
     0
 10
0.0
 20
0.0
 30
0.0
  3
$MODEL_SPACE
  1

  0
ENDBLK
  5
245
  8
0
  0
BLOCK
 67
     1
  8
0
  2
$PAPER_SPACE
 70
     0
 10
0.0
 20
0.0
 30
0.0
  3
$PAPER_SPACE
  1

  0
ENDBLK
  5
243
 67
     1
  8
0
  0
ENDSEC
  0
SECTION
  2
ENTITIES
  0
LINE
  5
5A
  8
1
 10
140.42736970537541
 20
122.2841726618703
 30
0.0
 11
160.4273697053753
 21
122.2841726618703
 31
0.0
  0
LINE
  5
5B
  8
0
 10
147.02736970537529
 20
120.17353307333271
 30
0.0
 11
154.02736970537529
 21
120.17353307333271
 31
0.0
  0
LINE
  5
5C
  8
0
 10
147.02736970537541
 20
124.39481225040871
 30
0.0
 11
154.02736970537541
 21
124.39481225040841
 31
0.0
  0
LINE
  5
5D
  8
0
 10
155.4273697053753
 20
119.6384213508172
 30
0.0
 11
154.02736970537529
 21
119.638421350817
 31
0.0
  0
LINE
  5
5E
  8
0
 10
155.4273697053753
 20
124.9299239729244
 30
0.0
 11
154.02736970537529
 21
124.9299239729241
 31
0.0
  0
LINE
  5
5F
  8
0
 10
145.42736970537541
 20
119.6384213508172
 30
0.0
 11
147.02736970537529
 21
119.6384213508172
 31
0.0
  0
LINE
  5
60
  8
0
 10
145.42736970537541
 20
124.9299239729244
 30
0.0
 11
147.02736970537541
 21
124.9299239729244
 31
0.0
  0
LINE
  5
61
  8
0
 10
147.02736970537529
 20
118.2841726618703
 30
0.0
 11
147.02736970537541
 21
126.2841726618706
 31
0.0
  0
LINE
  5
62
  8
0
 10
154.02736970537529
 20
118.2841726618706
 30
0.0
 11
154.02736970537541
 21
126.2841726618706
 31
0.0
  0
LINE
  5
63
  8
0
 10
155.4273697053753
 20
118.2841726618706
 30
0.0
 11
145.42736970537541
 21
118.2841726618703
 31
0.0
  0
LINE
  5
64
  8
0
 10
154.02736970537529
 20
118.7841726618706
 30
0.0
 11
147.02736970537529
 21
118.7841726618704
 31
0.0
  0
LINE
  5
65
  8
0
 10
155.4273697053753
 20
126.2841726618706
 30
0.0
 11
145.42736970537541
 21
126.2841726618706
 31
0.0
  0
LINE
  5
66
  8
0
 10
154.02736970537541
 20
125.7841726618706
 30
0.0
 11
147.02736970537529
 21
125.7841726618706
 31
0.0
  0
LINE
  5
67
  8
1
 10
167.42736970537541
 20
157.7841726618706
 30
0.0
 11
150.4273697053753
 21
157.7841726618706
 31
0.0
  0
LINE
  5
68
  8
0
 10
162.42736970537541
 20
155.7841726618704
 30
0.0
 11
162.42736970537541
 21
159.7841726618706
 31
0.0
  0
LINE
  5
69
  8
0
 10
155.4273697053753
 20
155.7841726618706
 30
0.0
 11
162.42736970537541
 21
155.7841726618704
 31
0.0
  0
LINE
  5
6A
  8
0
 10
155.4273697053753
 20
159.7841726618706
 30
0.0
 11
162.42736970537541
 21
159.7841726618706
 31
0.0
  0
LINE
  5
6B
  8
0
 10
149.42736970537541
 20
162.2841726618704
 30
0.0
 11
155.4273697053753
 21
162.2841726618704
 31
0.0
  0
LINE
  5
6C
  8
0
 10
149.42736970537521
 20
147.2841726618708
 30
0.0
 11
155.42736970537521
 21
147.2841726618708
 31
0.0
  0
LINE
  5
6D
  8
0
 10
149.42736970537541
 20
104.2841726618706
 30
0.0
 11
155.4273697053753
 21
104.2841726618706
 31
0.0
  0
LINE
  5
6E
  8
0
 10
145.42736970537541
 20
108.2841726618706
 30
0.0
 11
145.42736970537541
 21
158.2841726618704
 31
0.0
  0
LINE
  5
6F
  8
0
 10
155.4273697053753
 20
104.2841726618706
 30
0.0
 11
155.4273697053753
 21
162.2841726618704
 31
0.0
  0
ARC
  5
70
  8
0
 10
149.42736970537521
 20
151.2841726618708
 30
0.0
 40
4.0
 50
180.0
 51
269.99999999999989
  0
ARC
  5
71
  8
0
 10
149.42736970537541
 20
158.2841726618704
 30
0.0
 40
4.0
 50
90.000000000000071
 51
180.0
  0
ARC
  5
72
  8
0
 10
149.42736970537541
 20
108.2841726618706
 30
0.0
 40
4.0
 50
180.0
 51
269.99999999999989
  0
LINE
  5
73
  8
1
 10
141.8273697053755
 20
131.7841726618706
 30
0.0
 11
159.02736970537549
 21
131.7841726618706
 31
0.0
  0
LINE
  5
74
  8
2
 10
145.42736970537541
 20
135.3841726618715
 30
0.0
 11
150.42736970537541
 21
135.3841726618715
 31
0.0
  0
LINE
  5
75
  8
2
 10
150.42736970537541
 20
128.18417266186961
 30
0.0
 11
150.42736970537541
 21
135.3841726618715
 31
0.0
  0
LINE
  5
76
  8
2
 10
145.42736970537541
 20
128.18417266186961
 30
0.0
 11
150.42736970537541
 21
128.18417266186961
 31
0.0
  0
LINE
  5
77
  8
2
 10
150.42736970537541
 20
133.88417266187139
 30
0.0
 11
155.4273697053753
 21
133.88417266187139
 31
0.0
  0
LINE
  5
78
  8
2
 10
150.42736970537541
 20
129.6841726618697
 30
0.0
 11
155.4273697053753
 21
129.6841726618697
 31
0.0
  0
ARC
  5
82
  8
0
 10
32.242855757941363
 20
108.2841726618706
 30
0.0
 40
4.0
 50
270.00000000000011
 51
360.0
  0
ARC
  5
83
  8
0
 10
32.242855757941363
 20
158.2841726618704
 30
0.0
 40
4.0
 50
360.0
 51
89.999999999999915
  0
LINE
  5
84
  8
0
 10
26.24285575794142
 20
104.2841726618706
 30
0.0
 11
26.24285575794142
 21
162.2841726618704
 31
0.0
  0
LINE
  5
85
  8
0
 10
36.242855757941363
 20
108.2841726618706
 30
0.0
 11
36.242855757941363
 21
158.2841726618704
 31
0.0
  0
LINE
  5
86
  8
0
 10
32.242855757941363
 20
104.2841726618706
 30
0.0
 11
26.24285575794142
 21
104.2841726618706
 31
0.0
  0
LINE
  5
87
  8
0
 10
32.242855757941363
 20
162.2841726618704
 30
0.0
 11
26.24285575794142
 21
162.2841726618704
 31
0.0
  0
LINE
  5
88
  8
0
 10
26.242855757941399
 20
159.7841726618706
 30
0.0
 11
19.242855757941339
 21
159.7841726618706
 31
0.0
  0
LINE
  5
89
  8
0
 10
26.242855757941399
 20
155.7841726618706
 30
0.0
 11
19.242855757941339
 21
155.7841726618704
 31
0.0
  0
LINE
  5
8A
  8
0
 10
19.242855757941339
 20
155.7841726618704
 30
0.0
 11
19.242855757941339
 21
159.7841726618706
 31
0.0
  0
LINE
  5
8B
  8
1
 10
14.24285575794134
 20
157.7841726618706
 30
0.0
 11
31.242855757941399
 21
157.7841726618706
 31
0.0
  0
LINE
  5
BE
  8
1
 10
361.02334814167381
 20
157.7841726618706
 30
0.0
 11
344.02334814167381
 21
157.7841726618706
 31
0.0
  0
LINE
  5
BF
  8
0
 10
356.02334814167381
 20
155.7841726618704
 30
0.0
 11
356.02334814167381
 21
159.7841726618706
 31
0.0
  0
LINE
  5
C0
  8
0
 10
349.02334814167369
 20
155.7841726618706
 30
0.0
 11
356.02334814167381
 21
155.7841726618704
 31
0.0
  0
LINE
  5
C1
  8
0
 10
349.02334814167369
 20
159.7841726618706
 30
0.0
 11
356.02334814167381
 21
159.7841726618706
 31
0.0
  0
LINE
  5
C2
  8
0
 10
343.02334814167381
 20
162.2841726618704
 30
0.0
 11
349.02334814167369
 21
162.2841726618704
 31
0.0
  0
LINE
  5
C3
  8
0
 10
343.02334814167381
 20
104.2841726618706
 30
0.0
 11
349.02334814167369
 21
104.2841726618706
 31
0.0
  0
LINE
  5
C4
  8
0
 10
339.02334814167381
 20
108.2841726618706
 30
0.0
 11
339.02334814167381
 21
158.2841726618704
 31
0.0
  0
LINE
  5
C5
  8
0
 10
349.02334814167369
 20
104.2841726618706
 30
0.0
 11
349.02334814167369
 21
162.2841726618704
 31
0.0
  0
ARC
  5
C6
  8
0
 10
343.02334814167381
 20
158.2841726618704
 30
0.0
 40
4.0
 50
90.000000000000085
 51
180.0
  0
ARC
  5
C7
  8
0
 10
343.02334814167381
 20
108.2841726618706
 30
0.0
 40
4.0
 50
180.0
 51
269.99999999999989
  0
LINE
  5
C8
  8
2
 10
220.9782867209498
 20
129.6841726618697
 30
0.0
 11
215.97828672094991
 21
129.6841726618697
 31
0.0
  0
LINE
  5
C9
  8
2
 10
220.9782867209498
 20
133.88417266187139
 30
0.0
 11
215.97828672094991
 21
133.88417266187139
 31
0.0
  0
LINE
  5
CA
  8
2
 10
225.9782867209498
 20
128.18417266186961
 30
0.0
 11
220.9782867209498
 21
128.18417266186961
 31
0.0
  0
LINE
  5
CB
  8
2
 10
220.9782867209498
 20
128.18417266186961
 30
0.0
 11
220.9782867209498
 21
135.3841726618715
 31
0.0
  0
LINE
  5
CC
  8
2
 10
225.9782867209498
 20
135.3841726618715
 30
0.0
 11
220.9782867209498
 21
135.3841726618715
 31
0.0
  0
LINE
  5
CD
  8
1
 10
229.57828672094971
 20
131.7841726618706
 30
0.0
 11
212.37828672094969
 21
131.7841726618706
 31
0.0
  0
ARC
  5
CE
  8
0
 10
221.9782867209498
 20
108.2841726618706
 30
0.0
 40
4.0
 50
270.00000000000011
 51
0.0
  0
ARC
  5
CF
  8
0
 10
221.9782867209498
 20
158.2841726618704
 30
0.0
 40
4.0
 50
0.0
 51
89.999999999999915
  0
ARC
  5
D0
  8
0
 10
221.97828672095
 20
151.2841726618708
 30
0.0
 40
4.0
 50
270.00000000000011
 51
0.0
  0
LINE
  5
D1
  8
0
 10
215.97828672094991
 20
104.2841726618706
 30
0.0
 11
215.97828672094991
 21
162.2841726618704
 31
0.0
  0
LINE
  5
D2
  8
0
 10
225.9782867209498
 20
108.2841726618706
 30
0.0
 11
225.9782867209498
 21
158.2841726618704
 31
0.0
  0
LINE
  5
D3
  8
0
 10
221.9782867209498
 20
104.2841726618706
 30
0.0
 11
215.97828672094991
 21
104.2841726618706
 31
0.0
  0
LINE
  5
D4
  8
0
 10
221.97828672095
 20
147.2841726618708
 30
0.0
 11
215.97828672095
 21
147.2841726618708
 31
0.0
  0
LINE
  5
D5
  8
0
 10
221.9782867209498
 20
162.2841726618704
 30
0.0
 11
215.97828672094991
 21
162.2841726618704
 31
0.0
  0
LINE
  5
D6
  8
0
 10
215.97828672094991
 20
159.7841726618706
 30
0.0
 11
208.9782867209498
 21
159.7841726618706
 31
0.0
  0
LINE
  5
D7
  8
0
 10
215.97828672094991
 20
155.7841726618706
 30
0.0
 11
208.9782867209498
 21
155.7841726618704
 31
0.0
  0
LINE
  5
D8
  8
0
 10
208.9782867209498
 20
155.7841726618704
 30
0.0
 11
208.9782867209498
 21
159.7841726618706
 31
0.0
  0
LINE
  5
D9
  8
1
 10
203.9782867209498
 20
157.7841726618706
 30
0.0
 11
220.97828672094991
 21
157.7841726618706
 31
0.0
  0
LINE
  5
DA
  8
0
 10
217.3782867209498
 20
125.7841726618706
 30
0.0
 11
224.37828672094989
 21
125.7841726618706
 31
0.0
  0
LINE
  5
DB
  8
0
 10
215.97828672094991
 20
126.2841726618706
 30
0.0
 11
225.9782867209498
 21
126.2841726618706
 31
0.0
  0
LINE
  5
DC
  8
0
 10
217.37828672094989
 20
118.7841726618706
 30
0.0
 11
224.37828672094989
 21
118.7841726618704
 31
0.0
  0
LINE
  5
DD
  8
0
 10
215.97828672094991
 20
118.2841726618706
 30
0.0
 11
225.9782867209498
 21
118.2841726618703
 31
0.0
  0
LINE
  5
DE
  8
0
 10
217.37828672094989
 20
118.2841726618706
 30
0.0
 11
217.3782867209498
 21
126.2841726618706
 31
0.0
  0
LINE
  5
DF
  8
0
 10
224.37828672094989
 20
118.2841726618703
 30
0.0
 11
224.3782867209498
 21
126.2841726618706
 31
0.0
  0
LINE
  5
E0
  8
0
 10
225.9782867209498
 20
124.9299239729244
 30
0.0
 11
224.3782867209498
 21
124.9299239729244
 31
0.0
  0
LINE
  5
E1
  8
0
 10
225.9782867209498
 20
119.6384213508172
 30
0.0
 11
224.37828672094989
 21
119.6384213508172
 31
0.0
  0
LINE
  5
E2
  8
0
 10
215.97828672094991
 20
124.9299239729244
 30
0.0
 11
217.37828672094989
 21
124.9299239729241
 31
0.0
  0
LINE
  5
E3
  8
0
 10
215.97828672095
 20
119.6384213508172
 30
0.0
 11
217.37828672094989
 21
119.638421350817
 31
0.0
  0
LINE
  5
E4
  8
0
 10
224.3782867209498
 20
124.39481225040871
 30
0.0
 11
217.3782867209498
 21
124.39481225040841
 31
0.0
  0
LINE
  5
E5
  8
0
 10
224.37828672094989
 20
120.17353307333271
 30
0.0
 11
217.37828672094989
 21
120.17353307333271
 31
0.0
  0
LINE
  5
E6
  8
1
 10
230.9782867209498
 20
122.2841726618703
 30
0.0
 11
210.97828672094991
 21
122.2841726618703
 31
0.0
  0
LINE
  5
110
  8
2
 10
31.24285575794136
 20
129.6841726618697
 30
0.0
 11
26.24285575794142
 21
129.6841726618697
 31
0.0
  0
LINE
  5
111
  8
2
 10
31.24285575794136
 20
133.88417266187139
 30
0.0
 11
26.24285575794142
 21
133.88417266187139
 31
0.0
  0
LINE
  5
112
  8
2
 10
36.242855757941363
 20
128.18417266186961
 30
0.0
 11
31.24285575794136
 21
128.18417266186961
 31
0.0
  0
LINE
  5
113
  8
2
 10
31.24285575794136
 20
128.18417266186961
 30
0.0
 11
31.24285575794136
 21
135.3841726618715
 31
0.0
  0
LINE
  5
114
  8
2
 10
36.242855757941363
 20
135.3841726618715
 30
0.0
 11
31.24285575794136
 21
135.3841726618715
 31
0.0
  0
LINE
  5
115
  8
1
 10
39.842855757941273
 20
131.7841726618706
 30
0.0
 11
22.64285575794128
 21
131.7841726618706
 31
0.0
  0
LINE
  5
116
  8
1
 10
335.4233481416739
 20
131.7841726618706
 30
0.0
 11
352.62334814167389
 21
131.7841726618706
 31
0.0
  0
LINE
  5
117
  8
2
 10
339.02334814167381
 20
135.3841726618715
 30
0.0
 11
344.02334814167381
 21
135.3841726618715
 31
0.0
  0
LINE
  5
118
  8
2
 10
344.02334814167381
 20
128.18417266186961
 30
0.0
 11
344.02334814167381
 21
135.3841726618715
 31
0.0
  0
LINE
  5
119
  8
2
 10
339.02334814167381
 20
128.18417266186961
 30
0.0
 11
344.02334814167381
 21
128.18417266186961
 31
0.0
  0
LINE
  5
11A
  8
2
 10
344.02334814167381
 20
133.88417266187139
 30
0.0
 11
349.02334814167369
 21
133.88417266187139
 31
0.0
  0
LINE
  5
11B
  8
2
 10
344.02334814167381
 20
129.6841726618697
 30
0.0
 11
349.02334814167369
 21
129.6841726618697
 31
0.0
  0
ARC
  5
18E
  8
0
 10
104.7939045239043
 20
158.2841726618706
 30
0.0
 40
4.0
 50
0.0
 51
89.999999999999915
  0
ARC
  5
18F
  8
0
 10
103.7939045239043
 20
156.08707581863189
 30
0.0
 40
5.0
 50
314.85591105802729
 51
0.0000000000003197
  0
LINE
  5
190
  8
0
 10
108.7939045239043
 20
156.08707581863189
 30
0.0
 11
108.7939045239043
 21
158.2841726618706
 31
0.0
  0
LINE
  5
191
  8
0
 10
107.3205360050416
 20
152.5426618478532
 30
0.0
 11
104.91759176211001
 21
150.15177328788101
 31
0.0
  0
ARC
  5
192
  8
0
 10
90.811065837560804
 20
164.32942917099589
 30
0.0
 40
20.0
 50
295.64292657904087
 51
314.85591105802729
  0
CIRCLE
  5
193
  8
0
 10
88.793904523904445
 20
131.78417266187051
 30
0.0
 40
3.5
  0
CIRCLE
  5
194
  8
0
 10
88.793904523904445
 20
131.78417266187051
 30
0.0
 40
2.9803847577293112
  0
LINE
  5
195
  8
0
 10
87.293904523904217
 20
132.65019806565491
 30
0.0
 11
87.293904523904558
 21
130.91814725808621
 31
0.0
  0
LINE
  5
196
  8
0
 10
88.793904523904445
 20
133.5162234694395
 30
0.0
 11
87.293904523904217
 21
132.65019806565491
 31
0.0
  0
LINE
  5
197
  8
0
 10
90.293904523904445
 20
132.65019806565539
 30
0.0
 11
88.793904523904445
 21
133.5162234694395
 31
0.0
  0
LINE
  5
198
  8
0
 10
90.293904523904445
 20
130.91814725808621
 30
0.0
 11
90.293904523904445
 21
132.65019806565539
 31
0.0
  0
LINE
  5
199
  8
0
 10
88.793904523904558
 20
130.05212185430179
 30
0.0
 11
90.293904523904445
 21
130.91814725808621
 31
0.0
  0
LINE
  5
19A
  8
0
 10
87.293904523904558
 20
130.91814725808621
 30
0.0
 11
88.793904523904558
 21
130.05212185430179
 31
0.0
  0
CIRCLE
  5
19B
  8
0
 10
88.793904523904445
 20
131.78417266187051
 30
0.0
 40
3.6000000000000001
  0
ARC
  5
19C
  8
0
 10
80.793904523904445
 20
158.2841726618706
 30
0.0
 40
4.0
 50
90.0
 51
180.0
  0
ARC
  5
19D
  8
0
 10
103.7939045239043
 20
137.28417266187051
 30
0.0
 40
10.0
 50
115.6429265790492
 51
179.99999999999969
  0
LINE
  5
19E
  8
0
 10
104.7939045239043
 20
162.2841726618704
 30
0.0
 11
80.793904523904445
 21
162.2841726618706
 31
0.0
  0
LINE
  5
19F
  8
0
 10
76.793904523904445
 20
158.2841726618706
 30
0.0
 11
76.793904523904331
 21
108.2841726618706
 31
0.0
  0
LINE
  5
1A0
  8
0
 10
89.793904523904217
 20
104.2841726618706
 30
0.0
 11
80.793904523904317
 21
104.2841726618706
 31
0.0
  0
ARC
  5
1A1
  8
0
 10
80.793904523904317
 20
108.2841726618706
 30
0.0
 40
4.0
 50
180.0
 51
270.0
  0
LINE
  5
1A2
  8
0
 10
93.793904523904331
 20
137.28417266187051
 30
0.0
 11
93.793904523904217
 21
126.2841726618703
 31
0.0
  0
ARC
  5
1A3
  8
0
 10
89.793904523904217
 20
108.2841726618706
 30
0.0
 40
4.0
 50
270.00000000000011
 51
0.0
  0
CIRCLE
  5
1A4
  8
0
 10
85.493904523904376
 20
109.7841726618704
 30
0.0
 40
2.0
  0
LINE
  5
1A5
  8
1
 10
88.793904523904445
 20
123.18417266187041
 30
0.0
 11
88.793904523904445
 21
140.38417266187071
 31
0.0
  0
LINE
  5
1A6
  8
1
 10
80.193904523904422
 20
131.7841726618706
 30
0.0
 11
97.393904523904467
 21
131.78417266187051
 31
0.0
  0
LINE
  5
1A7
  8
0
 10
91.793904523904345
 20
126.2841726618705
 30
0.0
 11
91.793904523904345
 21
124.9299239729296
 31
0.0
  0
LINE
  5
1A8
  8
0
 10
93.793904523904331
 20
126.2841726618705
 30
0.0
 11
91.793904523904345
 21
126.2841726618705
 31
0.0
  0
LINE
  5
1A9
  8
0
 10
93.793904523904217
 20
118.2841726618705
 30
0.0
 11
91.793904523904345
 21
118.2841726618705
 31
0.0
  0
LINE
  5
1AA
  8
0
 10
93.793904523904217
 20
118.2841726618705
 30
0.0
 11
93.793904523904217
 21
108.2841726618706
 31
0.0
  0
LINE
  5
1AB
  8
0
 10
94.793904523904331
 20
125.7841726618705
 30
0.0
 11
91.793904523904345
 21
125.7841726618705
 31
0.0
  0
LINE
  5
1AC
  8
0
 10
94.793904523904331
 20
118.7841726618706
 30
0.0
 11
91.793904523904345
 21
118.7841726618706
 31
0.0
  0
ARC
  5
1AD
  8
0
 10
94.79390452391138
 20
122.2841726618705
 30
0.0
 40
4.0
 50
138.590377890855
 51
221.40962210914481
  0
LINE
  5
1AE
  8
0
 10
91.793904523904345
 20
119.6384213508113
 30
0.0
 11
91.793904523904345
 21
118.2841726618705
 31
0.0
  0
ARC
  5
1AF
  8
0
 10
79.793904523889779
 20
122.2841726618704
 30
0.0
 40
2.0
 50
269.9999999999996
 51
90.0
  0
LINE
  5
1B0
  8
0
 10
79.793904523889779
 20
124.2841726618704
 30
0.0
 11
77.793904523904331
 21
124.2841726618704
 31
0.0
  0
LINE
  5
1B1
  8
0
 10
79.793904523889779
 20
120.2841726618704
 30
0.0
 11
77.793904523904331
 21
120.2841726618704
 31
0.0
  0
LINE
  5
1B2
  8
0
 10
77.793904523904331
 20
120.2841726618704
 30
0.0
 11
77.793904523904331
 21
124.2841726618704
 31
0.0
  0
ARC
  5
1B3
  8
0
 10
96.925852114087917
 20
122.2841726618708
 30
0.0
 40
3.0
 50
135.2877603329446
 51
224.71223966705699
  0
LINE
  5
1B4
  8
0
 10
94.793904523904331
 20
125.7841726618705
 30
0.0
 11
94.793904523904331
 21
124.39481225040841
 31
0.0
  0
LINE
  5
1B5
  8
0
 10
94.793904523904331
 20
120.17353307333271
 30
0.0
 11
94.793904523904331
 21
118.7841726618706
 31
0.0
  0
LINE
  5
1B6
  8
1
 10
81.293904523904331
 20
150.2841726618706
 30
0.0
 11
81.293904523904331
 21
165.2841726618708
 31
0.0
  0
LINE
  5
1B7
  8
1
 10
73.793904523904331
 20
157.7841726618706
 30
0.0
 11
88.793904523904331
 21
157.7841726618706
 31
0.0
  0
LINE
  5
1B8
  8
1
 10
98.925852114087931
 20
122.2841726618708
 30
0.0
 11
71.793904523904331
 21
122.2841726618708
 31
0.0
  0
ARC
  5
1B9
  8
0
 10
265.26709005896282
 20
158.2841726618706
 30
0.0
 40
4.0
 50
90.0
 51
180.0
  0
ARC
  5
1BA
  8
0
 10
266.26709005896282
 20
156.08707581863189
 30
0.0
 40
5.0
 50
179.9999999999996
 51
225.1440889419726
  0
LINE
  5
1BB
  8
0
 10
261.26709005896282
 20
156.08707581863189
 30
0.0
 11
261.26709005896282
 21
158.2841726618706
 31
0.0
  0
LINE
  5
1BC
  8
0
 10
262.74045857782551
 20
152.5426618478532
 30
0.0
 11
265.1434028207571
 21
150.15177328788101
 31
0.0
  0
ARC
  5
1BD
  8
0
 10
279.24992874530642
 20
164.32942917099589
 30
0.0
 40
20.0
 50
225.1440889419726
 51
244.35707342095901
  0
CIRCLE
  5
1BE
  8
0
 10
281.26709005896271
 20
131.78417266187051
 30
0.0
 40
3.5
  0
CIRCLE
  5
1BF
  8
0
 10
281.26709005896271
 20
131.78417266187051
 30
0.0
 40
2.9803847577293112
  0
LINE
  5
1C0
  8
0
 10
282.76709005896288
 20
132.65019806565491
 30
0.0
 11
282.76709005896259
 21
130.91814725808621
 31
0.0
  0
LINE
  5
1C1
  8
0
 10
281.26709005896271
 20
133.5162234694395
 30
0.0
 11
282.76709005896288
 21
132.65019806565491
 31
0.0
  0
LINE
  5
1C2
  8
0
 10
279.76709005896271
 20
132.65019806565539
 30
0.0
 11
281.26709005896271
 21
133.5162234694395
 31
0.0
  0
LINE
  5
1C3
  8
0
 10
279.76709005896271
 20
130.91814725808621
 30
0.0
 11
279.76709005896271
 21
132.65019806565539
 31
0.0
  0
LINE
  5
1C4
  8
0
 10
281.26709005896259
 20
130.05212185430179
 30
0.0
 11
279.76709005896271
 21
130.91814725808621
 31
0.0
  0
LINE
  5
1C5
  8
0
 10
282.76709005896259
 20
130.91814725808621
 30
0.0
 11
281.26709005896259
 21
130.05212185430179
 31
0.0
  0
CIRCLE
  5
1C6
  8
0
 10
281.26709005896271
 20
131.78417266187051
 30
0.0
 40
3.6000000000000001
  0
ARC
  5
1C7
  8
0
 10
289.26709005896271
 20
158.2841726618706
 30
0.0
 40
4.0
 50
0.0
 51
90.0
  0
ARC
  5
1C8
  8
0
 10
266.26709005896282
 20
137.28417266187051
 30
0.0
 40
10.0
 50
0.0000000000002544
 51
64.357073420950755
  0
LINE
  5
1C9
  8
0
 10
265.26709005896282
 20
162.2841726618704
 30
0.0
 11
289.26709005896271
 21
162.2841726618706
 31
0.0
  0
LINE
  5
1CA
  8
0
 10
293.26709005896271
 20
158.2841726618706
 30
0.0
 11
293.26709005896282
 21
108.2841726618706
 31
0.0
  0
LINE
  5
1CB
  8
0
 10
280.26709005896299
 20
104.2841726618706
 30
0.0
 11
289.26709005896282
 21
104.2841726618706
 31
0.0
  0
ARC
  5
1CC
  8
0
 10
289.26709005896282
 20
108.2841726618706
 30
0.0
 40
4.0
 50
270.0
 51
0.0
  0
LINE
  5
1CD
  8
0
 10
276.26709005896282
 20
137.28417266187051
 30
0.0
 11
276.26709005896288
 21
126.2841726618703
 31
0.0
  0
ARC
  5
1CE
  8
0
 10
280.26709005896299
 20
108.2841726618706
 30
0.0
 40
4.0
 50
180.0
 51
270.0
  0
CIRCLE
  5
1CF
  8
0
 10
284.56709005896278
 20
109.7841726618704
 30
0.0
 40
2.0
  0
LINE
  5
1D0
  8
1
 10
281.26709005896271
 20
123.18417266187041
 30
0.0
 11
281.26709005896271
 21
140.38417266187071
 31
0.0
  0
LINE
  5
1D1
  8
1
 10
289.86709005896267
 20
131.7841726618706
 30
0.0
 11
272.66709005896269
 21
131.78417266187051
 31
0.0
  0
LINE
  5
1D2
  8
0
 10
278.26709005896282
 20
126.2841726618705
 30
0.0
 11
278.26709005896282
 21
124.9299239729296
 31
0.0
  0
LINE
  5
1D3
  8
0
 10
276.26709005896282
 20
126.2841726618705
 30
0.0
 11
278.26709005896282
 21
126.2841726618705
 31
0.0
  0
LINE
  5
1D4
  8
0
 10
276.26709005896288
 20
118.2841726618705
 30
0.0
 11
278.26709005896282
 21
118.2841726618705
 31
0.0
  0
LINE
  5
1D5
  8
0
 10
276.26709005896288
 20
118.2841726618705
 30
0.0
 11
276.26709005896288
 21
108.2841726618706
 31
0.0
  0
LINE
  5
1D6
  8
0
 10
275.26709005896282
 20
125.7841726618705
 30
0.0
 11
278.26709005896282
 21
125.7841726618705
 31
0.0
  0
LINE
  5
1D7
  8
0
 10
275.26709005896282
 20
118.7841726618706
 30
0.0
 11
278.26709005896282
 21
118.7841726618706
 31
0.0
  0
ARC
  5
1D8
  8
0
 10
275.26709005895577
 20
122.2841726618705
 30
0.0
 40
4.0
 50
318.59037789085522
 51
41.409622109144983
  0
LINE
  5
1D9
  8
0
 10
278.26709005896282
 20
119.6384213508113
 30
0.0
 11
278.26709005896282
 21
118.2841726618705
 31
0.0
  0
ARC
  5
1DA
  8
0
 10
290.26709005897737
 20
122.2841726618704
 30
0.0
 40
2.0
 50
90.0
 51
270.0
  0
LINE
  5
1DB
  8
0
 10
290.26709005897737
 20
124.2841726618704
 30
0.0
 11
292.26709005896282
 21
124.2841726618704
 31
0.0
  0
LINE
  5
1DC
  8
0
 10
290.26709005897737
 20
120.2841726618704
 30
0.0
 11
292.26709005896282
 21
120.2841726618704
 31
0.0
  0
LINE
  5
1DD
  8
0
 10
292.26709005896282
 20
120.2841726618704
 30
0.0
 11
292.26709005896282
 21
124.2841726618704
 31
0.0
  0
ARC
  5
1DE
  8
0
 10
273.13514246877929
 20
122.2841726618708
 30
0.0
 40
3.0
 50
315.28776033294309
 51
44.712239667055371
  0
LINE
  5
1DF
  8
0
 10
275.26709005896282
 20
125.7841726618705
 30
0.0
 11
275.26709005896282
 21
124.39481225040841
 31
0.0
  0
LINE
  5
1E0
  8
0
 10
275.26709005896282
 20
120.17353307333271
 30
0.0
 11
275.26709005896282
 21
118.7841726618706
 31
0.0
  0
LINE
  5
1E1
  8
1
 10
288.76709005896282
 20
150.2841726618706
 30
0.0
 11
288.76709005896282
 21
165.2841726618708
 31
0.0
  0
LINE
  5
1E2
  8
1
 10
296.26709005896282
 20
157.7841726618706
 30
0.0
 11
281.26709005896282
 21
157.7841726618706
 31
0.0
  0
LINE
  5
1E3
  8
1
 10
271.13514246877918
 20
122.2841726618708
 30
0.0
 11
298.26709005896282
 21
122.2841726618708
 31
0.0
  0
LINE
  5
1E4
  8
1
 10
281.26709005896299
 20
41.010203672116567
 30
0.0
 11
281.26709005896299
 21
61.010203672116504
 31
0.0
  0
LINE
  5
1E5
  8
0
 10
275.26709005896288
 20
47.410203672116602
 30
0.0
 11
276.26709005896299
 21
47.410203672116587
 31
0.0
  0
LINE
  5
1E6
  8
0
 10
275.26709005896288
 20
54.410203672116531
 30
0.0
 11
277.06709005896312
 21
54.410203672116531
 31
0.0
  0
LINE
  5
1E7
  8
0
 10
275.26709005896288
 20
54.410203672116531
 30
0.0
 11
275.26709005896288
 21
47.410203672116587
 31
0.0
  0
ARC
  5
1E8
  8
0
 10
280.26709005896299
 20
52.010203672116468
 30
0.0
 40
4.0
 50
90.0
 51
179.99999999999989
  0
LINE
  5
1E9
  8
0
 10
276.26709005896299
 20
52.010203672116468
 30
0.0
 11
276.26709005896299
 21
46.010203672116518
 31
0.0
  0
LINE
  5
1EA
  8
0
 10
289.26709005896282
 20
56.010203672116504
 30
0.0
 11
265.26709005896299
 21
56.010203672116468
 31
0.0
  0
LINE
  5
1EB
  8
0
 10
293.26709005896282
 20
52.010203672116468
 30
0.0
 11
293.26709005896282
 21
46.010203672116532
 31
0.0
  0
LINE
  5
1EC
  8
0
 10
261.26709005896299
 20
52.010203672116468
 30
0.0
 11
261.26709005896299
 21
46.010203672116532
 31
0.0
  0
LINE
  5
1ED
  8
0
 10
293.26709005896282
 20
46.010203672116504
 30
0.0
 11
261.26709005896299
 21
46.010203672116553
 31
0.0
  0
ARC
  5
1EE
  8
0
 10
289.26709005896282
 20
52.010203672116468
 30
0.0
 40
4.0
 50
0.0
 51
90.0
  0
ARC
  5
1EF
  8
0
 10
265.26709005896299
 20
52.010203672116468
 30
0.0
 40
4.0
 50
90.0
 51
180.00000000000011
  0
LINE
  5
1F0
  8
1
 10
281.26709005896282
 20
231.7448979376305
 30
0.0
 11
281.26709005896282
 21
211.7448979376305
 31
0.0
  0
LINE
  5
1F1
  8
0
 10
286.76709005896288
 20
226.74489793763061
 30
0.0
 11
286.76709005896288
 21
233.74489793763061
 31
0.0
  0
LINE
  5
1F2
  8
0
 10
290.76709005896288
 20
226.74489793763061
 30
0.0
 11
290.76709005896311
 21
233.74489793763061
 31
0.0
  0
LINE
  5
1F3
  8
0
 10
290.76709005896311
 20
233.74489793763061
 30
0.0
 11
286.76709005896288
 21
233.74489793763061
 31
0.0
  0
LINE
  5
1F4
  8
1
 10
288.76709005896288
 20
238.74489793763061
 30
0.0
 11
288.76709005896288
 21
221.74489793763061
 31
0.0
  0
ARC
  5
1F5
  8
0
 10
265.26709005896288
 20
220.74489793763061
 30
0.0
 40
4.0
 50
179.9999999999998
 51
270.0
  0
ARC
  5
1F6
  8
0
 10
289.26709005896282
 20
220.74489793763061
 30
0.0
 40
4.0
 50
270.00000000000011
 51
0.0
  0
LINE
  5
1F7
  8
0
 10
293.26709005896282
 20
226.7448979376305
 30
0.0
 11
261.26709005896299
 21
226.7448979376305
 31
0.0
  0
LINE
  5
1F8
  8
0
 10
261.26709005896288
 20
220.74489793763061
 30
0.0
 11
261.26709005896299
 21
226.7448979376305
 31
0.0
  0
LINE
  5
1F9
  8
0
 10
293.26709005896282
 20
220.74489793763061
 30
0.0
 11
293.26709005896282
 21
226.7448979376305
 31
0.0
  0
LINE
  5
1FA
  8
0
 10
289.26709005896282
 20
216.74489793763061
 30
0.0
 11
265.26709005896288
 21
216.74489793763061
 31
0.0
  0
LINE
  5
1FB
  8
1
 10
88.793904523904288
 20
231.7448979376305
 30
0.0
 11
88.793904523904288
 21
211.7448979376305
 31
0.0
  0
LINE
  5
1FC
  8
0
 10
83.293904523904246
 20
226.74489793763061
 30
0.0
 11
83.293904523904246
 21
233.74489793763061
 31
0.0
  0
LINE
  5
1FD
  8
0
 10
79.293904523904246
 20
226.74489793763061
 30
0.0
 11
79.293904523904018
 21
233.74489793763061
 31
0.0
  0
LINE
  5
1FE
  8
0
 10
79.293904523904018
 20
233.74489793763061
 30
0.0
 11
83.293904523904246
 21
233.74489793763061
 31
0.0
  0
LINE
  5
1FF
  8
1
 10
81.293904523904246
 20
238.74489793763061
 30
0.0
 11
81.293904523904246
 21
221.74489793763061
 31
0.0
  0
ARC
  5
200
  8
0
 10
104.7939045239042
 20
220.74489793763061
 30
0.0
 40
4.0
 50
270.0
 51
0.0000000000001527
  0
ARC
  5
201
  8
0
 10
80.793904523904359
 20
220.74489793763061
 30
0.0
 40
4.0
 50
180.0
 51
270.0
  0
LINE
  5
202
  8
0
 10
76.793904523904345
 20
226.7448979376305
 30
0.0
 11
108.7939045239041
 21
226.7448979376305
 31
0.0
  0
LINE
  5
203
  8
0
 10
108.7939045239042
 20
220.74489793763061
 30
0.0
 11
108.7939045239041
 21
226.7448979376305
 31
0.0
  0
LINE
  5
204
  8
0
 10
76.793904523904345
 20
220.74489793763061
 30
0.0
 11
76.793904523904345
 21
226.7448979376305
 31
0.0
  0
LINE
  5
205
  8
0
 10
80.793904523904359
 20
216.74489793763061
 30
0.0
 11
104.7939045239042
 21
216.74489793763061
 31
0.0
  0
LINE
  5
206
  8
1
 10
88.793904523904132
 20
41.010203672116589
 30
0.0
 11
88.793904523904132
 21
61.010203672116518
 31
0.0
  0
LINE
  5
207
  8
0
 10
94.793904523904175
 20
47.410203672116623
 30
0.0
 11
93.793904523904075
 21
47.410203672116602
 31
0.0
  0
LINE
  5
208
  8
0
 10
94.793904523904246
 20
54.410203672116552
 30
0.0
 11
92.993904523904064
 21
54.410203672116552
 31
0.0
  0
LINE
  5
209
  8
0
 10
94.793904523904246
 20
54.410203672116552
 30
0.0
 11
94.793904523904246
 21
47.410203672116602
 31
0.0
  0
ARC
  5
20A
  8
0
 10
89.793904523904075
 20
52.010203672116489
 30
0.0
 40
4.0
 50
0.0000000000000509
 51
90.0
  0
LINE
  5
20B
  8
0
 10
93.793904523904075
 20
52.010203672116489
 30
0.0
 11
93.793904523904075
 21
46.010203672116532
 31
0.0
  0
LINE
  5
20C
  8
0
 10
80.793904523904359
 20
56.010203672116518
 30
0.0
 11
104.7939045239042
 21
56.010203672116489
 31
0.0
  0
LINE
  5
20D
  8
0
 10
76.793904523904345
 20
52.010203672116489
 30
0.0
 11
76.793904523904345
 21
46.010203672116539
 31
0.0
  0
LINE
  5
20E
  8
0
 10
108.7939045239042
 20
52.010203672116489
 30
0.0
 11
108.7939045239041
 21
46.010203672116539
 31
0.0
  0
LINE
  5
20F
  8
0
 10
76.793904523904345
 20
46.010203672116518
 30
0.0
 11
108.7939045239041
 21
46.010203672116567
 31
0.0
  0
ARC
  5
210
  8
0
 10
80.793904523904359
 20
52.010203672116489
 30
0.0
 40
4.0
 50
90.000000000000057
 51
180.0
  0
ARC
  5
211
  8
0
 10
104.7939045239042
 20
52.010203672116489
 30
0.0
 40
4.0
 50
359.99999999999977
 51
90.0
  0
TEXT
  5
2FE
  8
0
 62
     3
 10
0.0
 20
0.0
 30
0.0
 40
10.0
  1
DE-EN6-N
  7
STANDARD1
  0
ENDSEC
  0
EOF
