  0
SECTION
  2
HEADER
  9
$ACADVER
  1
AC1009
  9
$INSBASE
 10
0.0
 20
0.0
 30
0.0
  9
$EXTMIN
 10
0.0
 20
-2.960436562073669
 30
0.0
  9
$EXTMAX
 10
193.0354415882577
 20
161.78590998498541
 30
0.0
  9
$LIMMIN
 10
0.0
 20
0.0
  9
$LIMMAX
 10
390.0
 20
270.0
  9
$ORTHOMODE
 70
     0
  9
$REGENMODE
 70
     1
  9
$FILLMODE
 70
     1
  9
$QTEXTMODE
 70
     0
  9
$MIRRTEXT
 70
     0
  9
$DRAGMODE
 70
     2
  9
$LTSCALE
 40
10.0
  9
$OSMODE
 70
  3071
  9
$ATTMODE
 70
     1
  9
$TEXTSIZE
 40
0.2
  9
$TRACEWID
 40
0.05
  9
$TEXTSTYLE
  7
STANDARD
  9
$CLAYER
  8
0
  9
$CELTYPE
  6
BYLAYER
  9
$CECOLOR
 62
   256
  9
$DIMSCALE
 40
1.0
  9
$DIMASZ
 40
3.0
  9
$DIMEXO
 40
2.0
  9
$DIMDLI
 40
0.38
  9
$DIMRND
 40
0.0
  9
$DIMDLE
 40
0.0
  9
$DIMEXE
 40
2.0
  9
$DIMTP
 40
0.0
  9
$DIMTM
 40
0.0
  9
$DIMTXT
 40
3.0
  9
$DIMCEN
 40
0.0
  9
$DIMTSZ
 40
0.0
  9
$DIMTOL
 70
     0
  9
$DIMLIM
 70
     0
  9
$DIMTIH
 70
     0
  9
$DIMTOH
 70
     0
  9
$DIMSE1
 70
     0
  9
$DIMSE2
 70
     0
  9
$DIMTAD
 70
     1
  9
$DIMZIN
 70
     0
  9
$DIMBLK
  1

  9
$DIMASO
 70
     0
  9
$DIMSHO
 70
     0
  9
$DIMPOST
  1

  9
$DIMAPOST
  1

  9
$DIMALT
 70
     0
  9
$DIMALTD
 70
     2
  9
$DIMALTF
 40
25.399999999999999
  9
$DIMLFAC
 40
1.0
  9
$DIMTOFL
 70
     1
  9
$DIMTVP
 40
1.6000000000000001
  9
$DIMTIX
 70
     1
  9
$DIMSOXD
 70
     0
  9
$DIMSAH
 70
     0
  9
$DIMBLK1
  1

  9
$DIMBLK2
  1

  9
$DIMSTYLE
  2
STANDARD
  9
$DIMCLRD
 70
     0
  9
$DIMCLRE
 70
     0
  9
$DIMCLRT
 70
     0
  9
$DIMTFAC
 40
1.0
  9
$DIMGAP
 40
0.09
  9
$LUNITS
 70
     2
  9
$LUPREC
 70
     4
  9
$SKETCHINC
 40
0.1
  9
$FILLETRAD
 40
0.0
  9
$AUNITS
 70
     0
  9
$AUPREC
 70
     4
  9
$MENU
  1
E:\r13\win\SUPPORT\ACAD
  9
$ELEVATION
 40
0.0
  9
$PELEVATION
 40
0.0
  9
$THICKNESS
 40
0.0
  9
$LIMCHECK
 70
     0
  9
$BLIPMODE
 70
     0
  9
$CHAMFERA
 40
0.0
  9
$CHAMFERB
 40
0.0
  9
$SKPOLY
 70
     0
  9
$TDCREATE
 40
2449840.656284722
  9
$TDUPDATE
 40
2456598.6032281709
  9
$TDINDWG
 40
0.0183191088
  9
$TDUSRTIMER
 40
0.0183191088
  9
$USRTIMER
 70
     1
  9
$ANGBASE
 50
0.0
  9
$ANGDIR
 70
     0
  9
$PDMODE
 70
     0
  9
$PDSIZE
 40
0.0
  9
$PLINEWID
 40
0.0
  9
$COORDS
 70
     1
  9
$SPLFRAME
 70
     0
  9
$SPLINETYPE
 70
     6
  9
$SPLINESEGS
 70
     8
  9
$ATTDIA
 70
     0
  9
$ATTREQ
 70
     1
  9
$HANDLING
 70
     1
  9
$HANDSEED
  5
366
  9
$SURFTAB1
 70
     6
  9
$SURFTAB2
 70
     6
  9
$SURFTYPE
 70
     6
  9
$SURFU
 70
     6
  9
$SURFV
 70
     6
  9
$UCSNAME
  2

  9
$UCSORG
 10
0.0
 20
0.0
 30
0.0
  9
$UCSXDIR
 10
1.0
 20
0.0
 30
0.0
  9
$UCSYDIR
 10
0.0
 20
1.0
 30
0.0
  9
$PUCSNAME
  2

  9
$PUCSORG
 10
0.0
 20
0.0
 30
0.0
  9
$PUCSXDIR
 10
1.0
 20
0.0
 30
0.0
  9
$PUCSYDIR
 10
0.0
 20
1.0
 30
0.0
  9
$USERI1
 70
     3
  9
$USERI2
 70
     1
  9
$USERI3
 70
     1
  9
$USERI4
 70
     0
  9
$USERI5
 70
     0
  9
$USERR1
 40
1.0
  9
$USERR2
 40
3.0
  9
$USERR3
 40
3.0
  9
$USERR4
 40
3.0
  9
$USERR5
 40
10.0
  9
$WORLDVIEW
 70
     1
  9
$SHADEDGE
 70
     3
  9
$SHADEDIF
 70
    70
  9
$TILEMODE
 70
     1
  9
$MAXACTVP
 70
    16
  9
$PLIMCHECK
 70
     0
  9
$PEXTMIN
 10
1.0000000000000000E+020
 20
1.0000000000000000E+020
 30
1.0000000000000000E+020
  9
$PEXTMAX
 10
-1.0000000000000000E+020
 20
-1.0000000000000000E+020
 30
-1.0000000000000000E+020
  9
$PLIMMIN
 10
0.0
 20
0.0
  9
$PLIMMAX
 10
12.0
 20
9.0
  9
$UNITMODE
 70
     0
  9
$VISRETAIN
 70
     0
  9
$PLINEGEN
 70
     0
  9
$PSLTSCALE
 70
     0
  0
ENDSEC
  0
SECTION
  2
TABLES
  0
TABLE
  2
VPORT
 70
     1
  0
VPORT
  2
*ACTIVE
 70
     0
 10
0.0
 20
0.0
 11
1.0
 21
1.0
 12
202.55787946771341
 22
133.5127261426681
 13
0.0
 23
0.0
 14
10.0
 24
10.0
 15
10.0
 25
10.0
 16
0.0
 26
0.0
 36
1.0
 17
0.0
 27
0.0
 37
0.0
 40
275.42274993631997
 41
1.831871345029239
 42
50.0
 43
0.0
 44
0.0
 50
0.0
 51
0.0
 71
     0
 72
   100
 73
     1
 74
     0
 75
     0
 76
     0
 77
     0
 78
     2
  0
ENDTAB
  0
TABLE
  2
LTYPE
 70
     4
  0
LTYPE
  2
CONTINUOUS
 70
     0
  3
Solid Line
 72
    65
 73
     0
 40
0.0
  0
LTYPE
  2
CENTER
 70
     0
  3
____ _ ____ _ ____ _ ____ _ ____ _ ____ _ ____
 72
    65
 73
     4
 40
2.0
 49
1.25
 49
-0.25
 49
0.25
 49
-0.25
  0
LTYPE
  2
HIDDEN
 70
     0
  3
_ _ _ _ _ _ _ _ _ _ _ _ _ _ _ _ _ _ _ _ _ _ _
 72
    65
 73
     2
 40
0.375
 49
0.25
 49
-0.125
  0
LTYPE
  2
PHANTOM2
 70
     0
  3
___ _ _ ___ _ _ ___ _ _ ___ _ _
 72
    65
 73
     6
 40
1.25
 49
0.625
 49
-0.125
 49
0.125
 49
-0.125
 49
0.125
 49
-0.125
  0
ENDTAB
  0
TABLE
  2
LAYER
 70
     4
  0
LAYER
  2
0
 70
     0
 62
     7
  6
CONTINUOUS
  0
LAYER
  2
1
 70
     0
 62
     1
  6
CENTER
  0
LAYER
  2
2
 70
     0
 62
     2
  6
HIDDEN
  0
LAYER
  2
3
 70
     0
 62
     3
  6
CONTINUOUS
  0
ENDTAB
  0
TABLE
  2
STYLE
 70
     2
  0
STYLE
  2
STANDARD
 70
     0
 40
0.0
 41
1.0
 50
0.0
 71
     0
 42
0.2
  3
ROMANS
  4
BIGFONT
  0
STYLE
  2
STANDARD1
 70
     0
 40
0.0
 41
1.0
 50
0.0
 71
     0
 42
3.0
  3
txt
  4

  0
ENDTAB
  0
TABLE
  2
VIEW
 70
     0
  0
ENDTAB
  0
TABLE
  2
UCS
 70
     0
  0
ENDTAB
  0
TABLE
  2
APPID
 70
     3
  0
APPID
  2
ACAD
 70
     0
  0
APPID
  2
ACAD_MLEADERVER
 70
     0
  0
APPID
  2
ACAD_NAV_VCDISPLAY
 70
     0
  0
ENDTAB
  0
TABLE
  2
DIMSTYLE
 70
     1
  0
DIMSTYLE
  2
STANDARD
 70
     0
  3

  4

  5

  6

  7

 40
1.0
 41
0.18
 42
0.0625
 43
0.38
 44
0.18
 45
0.0
 46
0.0
 47
0.0
 48
0.0
140
0.18
141
0.09
142
0.0
143
25.399999999999999
144
1.0
145
0.0
146
1.0
147
0.09
 71
     0
 72
     0
 73
     1
 74
     1
 75
     0
 76
     0
 77
     0
 78
     0
170
     0
171
     2
172
     0
173
     0
174
     0
175
     0
176
     0
177
     0
178
     0
  0
ENDTAB
  0
ENDSEC
  0
SECTION
  2
BLOCKS
  0
BLOCK
  8
0
  2
$MODEL_SPACE
 70
     0
 10
0.0
 20
0.0
 30
0.0
  3
$MODEL_SPACE
  1

  0
ENDBLK
  5
141
  8
0
  0
BLOCK
 67
     1
  8
0
  2
$PAPER_SPACE
 70
     0
 10
0.0
 20
0.0
 30
0.0
  3
$PAPER_SPACE
  1

  0
ENDBLK
  5
13F
 67
     1
  8
0
  0
BLOCK
  8
0
  2
STDGX5
 70
     0
 10
0.0
 20
0.0
 30
0.0
  3
STDGX5
  1

  0
ENDBLK
  5
2A
  8
0
  0
ENDSEC
  0
SECTION
  2
ENTITIES
  0
INSERT
  5
32
  8
0
  2
STDGX5
 10
0.0
 20
0.0
 30
0.0
  0
LINE
  5
33
  8
0
 10
114.8076752574075
 20
143.5124069849854
 30
0.0
 11
114.8076752574075
 21
142.93505698498541
 31
0.0
  0
LINE
  5
34
  8
0
 10
114.8076752574075
 20
155.05941298498541
 30
0.0
 11
114.8076752574075
 21
155.63676298498541
 31
0.0
  0
LINE
  5
35
  8
0
 10
119.8076752574074
 20
152.17266098498541
 30
0.0
 11
120.3076752574075
 21
152.46133698498539
 31
0.0
  0
LINE
  5
36
  8
0
 10
109.8076752574075
 20
152.17266098498541
 30
0.0
 11
109.3076752574074
 21
152.46133698498539
 31
0.0
  0
POLYLINE
  5
37
  8
0
 66
     1
 10
0.0
 20
0.0
 30
0.0
 70
     1
  0
VERTEX
  5
318
  8
0
 10
120.3076752574075
 20
152.46133698498539
 30
0.0
  0
VERTEX
  5
319
  8
0
 10
114.8076752574075
 20
155.63676298498541
 30
0.0
  0
VERTEX
  5
31A
  8
0
 10
109.3076752574074
 20
152.46133698498539
 30
0.0
  0
VERTEX
  5
31B
  8
0
 10
109.3076752574074
 20
146.11048398498539
 30
0.0
  0
VERTEX
  5
31C
  8
0
 10
114.8076752574075
 20
142.93505698498541
 30
0.0
  0
VERTEX
  5
31D
  8
0
 10
120.3076752574075
 20
146.11048398498539
 30
0.0
  0
SEQEND
  5
31E
  8
0
  0
POLYLINE
  5
3F
  8
0
 66
     1
 10
0.0
 20
0.0
 30
0.0
 70
     1
  0
VERTEX
  5
31F
  8
0
 10
119.8076752574074
 20
152.17266098498541
 30
0.0
  0
VERTEX
  5
320
  8
0
 10
114.8076752574075
 20
155.05941298498541
 30
0.0
  0
VERTEX
  5
321
  8
0
 10
109.8076752574075
 20
152.17266098498541
 30
0.0
  0
VERTEX
  5
322
  8
0
 10
109.8076752574075
 20
146.39915898498541
 30
0.0
  0
VERTEX
  5
323
  8
0
 10
114.8076752574075
 20
143.5124069849854
 30
0.0
  0
VERTEX
  5
324
  8
0
 10
119.8076752574074
 20
146.39915898498541
 30
0.0
  0
SEQEND
  5
325
  8
0
  0
LINE
  5
47
  8
0
 10
109.3076752574074
 20
146.11048398498539
 30
0.0
 11
109.8076752574075
 21
146.39915898498541
 31
0.0
  0
LINE
  5
49
  8
0
 10
120.3076752574075
 20
146.11048398498539
 30
0.0
 11
119.8076752574074
 21
146.39915898498541
 31
0.0
  0
LINE
  5
4A
  8
0
 10
84.807675257407482
 20
84.422362977396702
 30
0.0
 11
84.807675257407482
 21
104.4223629773967
 31
0.0
  0
ARC
  5
4B
  8
0
 10
86.807675257407482
 20
84.422362977396702
 30
0.0
 40
2.0
 50
180.0
 51
271.225506
  0
ARC
  5
4C
  8
0
 10
86.807675257407482
 20
104.4223629773967
 30
0.0
 40
2.0
 50
88.77449399999999
 51
180.0
  0
ARC
  5
4D
  8
0
 10
122.8076752574075
 20
84.422362977396702
 30
0.0
 40
2.0
 50
270.0
 51
0.0
  0
LINE
  5
4E
  8
0
 10
85.807675257407482
 20
139.28590998498541
 30
0.0
 11
123.8076752574075
 21
139.28590998498541
 31
0.0
  0
ARC
  5
4F
  8
0
 10
123.8076752574075
 20
140.28590998498541
 30
0.0
 40
1.0
 50
270.0
 51
0.0
  0
LINE
  5
50
  8
0
 10
124.8076752574075
 20
140.28590998498541
 30
0.0
 11
124.8076752574075
 21
158.28590998498541
 31
0.0
  0
ARC
  5
51
  8
0
 10
123.8076752574075
 20
158.28590998498541
 30
0.0
 40
1.0
 50
0.0
 51
90.0
  0
LINE
  5
52
  8
0
 10
123.8076752574075
 20
159.28590998498541
 30
0.0
 11
85.807675257407482
 21
159.28590998498541
 31
0.0
  0
ARC
  5
53
  8
0
 10
85.807675257407482
 20
158.28590998498541
 30
0.0
 40
1.0
 50
90.0
 51
180.0
  0
LINE
  5
54
  8
0
 10
84.807675257407482
 20
158.28590998498541
 30
0.0
 11
84.807675257407482
 21
140.28590998498541
 31
0.0
  0
ARC
  5
55
  8
0
 10
85.807675257407482
 20
140.28590998498541
 30
0.0
 40
1.0
 50
180.0
 51
270.0
  0
LINE
  5
56
  8
1
 10
96.807675257407482
 20
136.78590998498541
 30
0.0
 11
96.807675257407482
 21
161.78590998498541
 31
0.0
  0
LINE
  5
57
  8
1
 10
126.0484592574075
 20
94.422362977396716
 30
0.0
 11
83.851658257407465
 21
94.422362977396716
 31
0.0
  0
LINE
  5
58
  8
1
 10
96.807675257407482
 20
105.9223629773967
 30
0.0
 11
96.807675257407482
 21
82.922362977396716
 31
0.0
  0
ARC
  5
59
  8
0
 10
96.807675257407482
 20
94.422362977396716
 30
0.0
 40
9.0
 50
4.0873470000000003
 51
355.91265299999998
  0
ARC
  5
5A
  8
0
 10
122.8076752574075
 20
104.4223629773967
 30
0.0
 40
2.0
 50
0.0
 51
90.0
  0
LINE
  5
5B
  8
1
 10
114.8076752574074
 20
111.4223629773967
 30
0.0
 11
114.8076752574074
 21
66.922362977396773
 31
0.0
  0
LINE
  5
5C
  8
0
 10
124.8076752574075
 20
104.4223629773967
 30
0.0
 11
124.8076752574075
 21
84.422362977396702
 31
0.0
  0
LINE
  5
5E
  8
0
 10
122.8076752574075
 20
82.422362977396716
 30
0.0
 11
86.807675257407482
 21
82.422362977396716
 31
0.0
  0
LINE
  5
5F
  8
0
 10
122.8076752574075
 20
106.4223629773967
 30
0.0
 11
86.807675257407482
 21
106.4223629773967
 31
0.0
  0
LINE
  5
60
  8
0
 10
105.78478425740749
 20
93.780867977396696
 30
0.0
 11
122.8076752574075
 21
93.780867977396696
 31
0.0
  0
LINE
  5
61
  8
0
 10
105.78478425740749
 20
95.063857977396708
 30
0.0
 11
122.8076752574075
 21
95.063857977396708
 31
0.0
  0
LINE
  5
62
  8
0
 10
122.8076752574075
 20
95.063857977396708
 30
0.0
 11
122.8076752574075
 21
93.780867977396696
 31
0.0
  0
LINE
  5
6C
  8
2
 10
114.8076752574074
 20
85.422362977396631
 30
0.0
 11
114.0829073480507
 21
84.369731398449204
 31
0.0
  0
LINE
  5
6D
  8
2
 10
114.0829073480507
 20
84.369731398449204
 30
0.0
 11
113.3636547895711
 21
85.422362977396631
 31
0.0
  0
LINE
  5
6E
  8
2
 10
113.3636547895711
 20
85.422362977396631
 30
0.0
 11
112.65539090068221
 21
84.369731398449204
 31
0.0
  0
LINE
  5
6F
  8
2
 10
112.65539090068221
 20
84.369731398449204
 30
0.0
 11
111.9635085907407
 21
85.422362977396631
 31
0.0
  0
LINE
  5
70
  8
2
 10
111.9635085907407
 20
85.422362977396631
 30
0.0
 11
111.2932710176414
 21
84.369731398449204
 31
0.0
  0
LINE
  5
71
  8
2
 10
111.2932710176414
 20
84.369731398449204
 30
0.0
 11
110.6497805205653
 21
85.422362977396631
 31
0.0
  0
LINE
  5
72
  8
2
 10
110.6497805205653
 20
85.422362977396631
 30
0.0
 11
110.0379347603313
 21
84.369731398449204
 31
0.0
  0
LINE
  5
73
  8
2
 10
110.0379347603313
 20
84.369731398449204
 30
0.0
 11
109.46239016968801
 21
85.422362977396631
 31
0.0
  0
LINE
  5
74
  8
2
 10
109.46239016968801
 20
85.422362977396631
 30
0.0
 11
108.9275254036062
 21
84.369731398449204
 31
0.0
  0
LINE
  5
75
  8
2
 10
108.9275254036062
 20
84.369731398449204
 30
0.0
 11
108.4374120995125
 21
85.422362977396631
 31
0.0
  0
LINE
  5
76
  8
2
 10
108.4374120995125
 20
85.422362977396631
 30
0.0
 11
107.9957801550682
 21
84.369731398449204
 31
0.0
  0
LINE
  5
77
  8
2
 10
107.9957801550682
 20
84.369731398449204
 30
0.0
 11
107.6059903158869
 21
85.422362977396631
 31
0.0
  0
LINE
  5
78
  8
2
 10
107.6059903158869
 20
85.422362977396631
 30
0.0
 11
107.2710104182259
 21
84.369731398449204
 31
0.0
  0
LINE
  5
79
  8
2
 10
107.2710104182259
 20
84.369731398449204
 30
0.0
 11
106.9933898041909
 21
85.422362977396631
 31
0.0
  0
LINE
  5
7A
  8
2
 10
106.9933898041909
 20
85.422362977396631
 30
0.0
 11
106.9076752574074
 21
85.008765211210843
 31
0.0
  0
LINE
  5
7B
  8
2
 10
122.6219625381093
 20
85.422362977396631
 30
0.0
 11
122.7076752574074
 21
85.008774029363025
 31
0.0
  0
LINE
  5
7C
  8
2
 10
122.3443400965887
 20
84.369731398449204
 30
0.0
 11
122.6219625381093
 21
85.422362977396631
 31
0.0
  0
LINE
  5
7D
  8
2
 10
122.00936019892799
 20
85.422362977396631
 30
0.0
 11
122.3443400965887
 21
84.369731398449204
 31
0.0
  0
LINE
  5
7E
  8
2
 10
121.619572187232
 20
84.369731398449204
 30
0.0
 11
122.00936019892799
 21
85.422362977396631
 31
0.0
  0
LINE
  5
7F
  8
2
 10
121.1779402427875
 20
85.422362977396631
 30
0.0
 11
121.619572187232
 21
84.369731398449204
 31
0.0
  0
LINE
  5
80
  8
2
 10
120.6878269386939
 20
84.369731398449204
 30
0.0
 11
121.1779402427875
 21
85.422362977396631
 31
0.0
  0
LINE
  5
81
  8
2
 10
120.15296217261211
 20
85.422362977396631
 30
0.0
 11
120.6878269386939
 21
84.369731398449204
 31
0.0
  0
LINE
  5
82
  8
2
 10
119.5774175819689
 20
84.369731398449204
 30
0.0
 11
120.15296217261211
 21
85.422362977396631
 31
0.0
  0
LINE
  5
83
  8
2
 10
118.96556999424961
 20
85.422362977396631
 30
0.0
 11
119.5774175819689
 21
84.369731398449204
 31
0.0
  0
LINE
  5
84
  8
2
 10
118.322081324659
 20
84.369731398449204
 30
0.0
 11
118.96556999424961
 21
85.422362977396631
 31
0.0
  0
LINE
  5
85
  8
2
 10
117.6518437515595
 20
85.422362977396631
 30
0.0
 11
118.322081324659
 21
84.369731398449204
 31
0.0
  0
LINE
  5
86
  8
2
 10
116.95996144161801
 20
84.369731398449204
 30
0.0
 11
117.6518437515595
 21
85.422362977396631
 31
0.0
  0
LINE
  5
87
  8
2
 10
116.2516975527291
 20
85.422362977396631
 30
0.0
 11
116.95996144161801
 21
84.369731398449204
 31
0.0
  0
LINE
  5
88
  8
2
 10
115.5324449942495
 20
84.369731398449204
 30
0.0
 11
116.2516975527291
 21
85.422362977396631
 31
0.0
  0
LINE
  5
89
  8
2
 10
114.8076752574074
 20
85.422362977396631
 30
0.0
 11
115.5324449942495
 21
84.369731398449204
 31
0.0
  0
LINE
  5
8A
  8
2
 10
106.9076752574074
 20
85.008765211210985
 30
0.0
 11
106.9076752574074
 21
82.422362977396716
 31
0.0
  0
LINE
  5
8B
  8
2
 10
122.7076752574074
 20
85.008774029362698
 30
0.0
 11
122.7076752574074
 21
82.422362977396716
 31
0.0
  0
LINE
  5
8C
  8
0
 10
106.8076752574074
 20
82.422362977396716
 30
0.0
 11
106.8076752574074
 21
78.422362977396688
 31
0.0
  0
LINE
  5
8D
  8
0
 10
122.8076752574074
 20
82.422362977396716
 30
0.0
 11
122.8076752574074
 21
78.422362977396688
 31
0.0
  0
LINE
  5
8E
  8
0
 10
122.8076752574074
 20
78.422362977396688
 30
0.0
 11
106.8076752574074
 21
78.422362977396674
 31
0.0
  0
LINE
  5
8F
  8
2
 10
109.3076757685283
 20
146.11048368988961
 30
0.0
 11
107.96607457661381
 21
145.33590996921791
 31
0.0
  0
LINE
  5
90
  8
2
 10
116.71780507339651
 20
144.0378711288393
 30
0.0
 11
117.50963476483351
 21
141.86233841732141
 31
0.0
  0
LINE
  5
91
  8
2
 10
120.3076752574075
 20
152.461335896024
 30
0.0
 11
121.64927600043021
 21
153.235909892969
 31
0.0
  0
LINE
  5
92
  8
2
 10
112.8975449464553
 20
154.53394890266071
 30
0.0
 11
112.1057165565506
 21
156.70948184621659
 31
0.0
  0
LINE
  5
93
  8
2
 10
116.7178057275005
 20
154.53394881078069
 30
0.0
 11
117.5096353521763
 21
156.7094813388741
 31
0.0
  0
LINE
  5
94
  8
2
 10
118.3975463551285
 20
153.5641502540123
 30
0.0
 11
119.8856982078362
 21
155.33766038589579
 31
0.0
  0
LINE
  5
95
  8
2
 10
120.3076752574075
 20
151.28774586705839
 30
0.0
 11
122.2312473324136
 21
151.9878680985002
 31
0.0
  0
LINE
  5
96
  8
2
 10
120.3076752574075
 20
146.11048407394679
 30
0.0
 11
121.64927600043021
 21
145.33591007700181
 31
0.0
  0
LINE
  5
97
  8
2
 10
118.3975458773245
 20
145.00767009280199
 30
0.0
 11
119.88569743054281
 21
143.23415893184841
 31
0.0
  0
LINE
  5
98
  8
2
 10
115.82403440339669
 20
143.5218523075074
 30
0.0
 11
116.17949618500759
 21
141.50592879332439
 31
0.0
  0
LINE
  5
99
  8
2
 10
111.2178058685729
 20
145.00766938203611
 30
0.0
 11
109.7296541566848
 21
143.23415803198739
 31
0.0
  0
LINE
  5
9A
  8
2
 10
112.8975456005583
 20
144.03787103695981
 30
0.0
 11
112.1057171438926
 21
141.86233790997929
 31
0.0
  0
LINE
  5
9B
  8
2
 10
109.3076752574074
 20
147.28407308466109
 30
0.0
 11
107.38410390351881
 21
146.58394989021659
 31
0.0
  0
LINE
  5
9C
  8
2
 10
111.2178053907686
 20
153.56415096477781
 30
0.0
 11
109.729653379391
 21
155.3376612857567
 31
0.0
  0
LINE
  5
9D
  8
2
 10
109.3076752574074
 20
152.461336575177
 30
0.0
 11
107.96607457661381
 21
153.23591000075291
 31
0.0
  0
LINE
  5
9E
  8
2
 10
113.7913174480157
 20
155.04996861894071
 30
0.0
 11
113.43585578966869
 21
157.06589143405921
 31
0.0
  0
LINE
  5
A2
  8
2
 10
106.8076752574075
 20
153.28590998498541
 30
0.0
 11
106.8076752574074
 21
145.28590998498541
 31
0.0
  0
LINE
  5
A3
  8
2
 10
122.8076752574075
 20
153.28590998498541
 30
0.0
 11
122.8076752574075
 21
145.28590998498541
 31
0.0
  0
LINE
  5
A6
  8
2
 10
119.2913153687264
 20
145.52368823366999
 30
0.0
 11
120.85942631054441
 21
144.2078878118499
 31
0.0
  0
LINE
  5
A7
  8
2
 10
120.3076752574075
 20
147.2840737498118
 30
0.0
 11
122.23124682507149
 21
146.5839504775594
 31
0.0
  0
LINE
  5
A8
  8
2
 10
120.3076752574074
 20
148.31611134182481
 30
0.0
 11
122.5876564490684
 21
147.91408905738521
 31
0.0
  0
LINE
  5
A9
  8
2
 10
120.3076752574074
 20
150.2557068006607
 30
0.0
 11
122.5876567615867
 21
150.65772914020559
 31
0.0
  0
LINE
  5
AA
  8
2
 10
119.2913172344429
 20
153.0481314743364
 30
0.0
 11
120.8594272104055
 21
154.363931085708
 31
0.0
  0
LINE
  5
AB
  8
2
 10
117.5576754970423
 20
154.04904984663219
 30
0.0
 11
118.7576752731749
 21
156.12751066577911
 31
0.0
  0
LINE
  5
AC
  8
2
 10
115.8240347254317
 20
155.04996766132899
 30
0.0
 11
116.1794964975261
 21
157.06589112154089
 31
0.0
  0
LINE
  5
AD
  8
2
 10
112.0576750177726
 20
154.04904984663219
 30
0.0
 11
110.85767524164
 21
156.12751066577911
 31
0.0
  0
LINE
  5
AE
  8
2
 10
110.324033489548
 20
153.04813159510419
 30
0.0
 11
108.7559239566362
 21
154.3639318630018
 31
0.0
  0
LINE
  5
AF
  8
2
 10
109.3076752574074
 20
151.2877465322079
 30
0.0
 11
107.3841033961762
 21
151.98786868584219
 31
0.0
  0
LINE
  5
B0
  8
2
 10
109.3076752574074
 20
150.2557071228957
 30
0.0
 11
107.02769380833359
 21
150.65772945272411
 31
0.0
  0
LINE
  5
B1
  8
2
 10
109.3076752574074
 20
148.3161110195897
 30
0.0
 11
107.027694120852
 21
147.9140887448668
 31
0.0
  0
LINE
  5
B2
  8
2
 10
112.0576759642077
 20
144.52277007691399
 30
0.0
 11
110.8576753494239
 21
142.44430924196271
 31
0.0
  0
LINE
  5
B3
  8
2
 10
110.3240353552636
 20
145.5236881129027
 30
0.0
 11
108.7559248564971
 21
144.20788703455659
 31
0.0
  0
LINE
  5
B4
  8
2
 10
113.7913177700506
 20
143.52185134989529
 30
0.0
 11
113.4358561021872
 21
141.5059284808062
 31
0.0
  0
LINE
  5
B5
  8
2
 10
117.5576745506071
 20
144.52277007691399
 30
0.0
 11
118.75767516539111
 21
142.44430924196271
 31
0.0
  0
LINE
  5
DC
  8
0
 10
187.53544158825761
 20
78.422362977396688
 30
0.0
 11
179.5354415882577
 21
78.422362977396688
 31
0.0
  0
LINE
  5
FE
  8
0
 10
193.0354415882577
 20
104.4223629773967
 30
0.0
 11
193.0354415882577
 21
84.422362977396702
 31
0.0
  0
LINE
  5
FF
  8
1
 10
183.5354415882577
 20
111.4223629773967
 30
0.0
 11
183.53544158825761
 21
66.922362977396773
 31
0.0
  0
ARC
  5
100
  8
0
 10
191.0354415882577
 20
104.4223629773967
 30
0.0
 40
2.0
 50
0.0
 51
90.0
  0
ARC
  5
101
  8
0
 10
191.0354415882577
 20
84.422362977396702
 30
0.0
 40
2.0
 50
270.0
 51
0.0
  0
LINE
  5
102
  8
0
 10
191.0354415882577
 20
106.4223629773967
 30
0.0
 11
176.03544158825781
 21
106.4223629773967
 31
0.0
  0
ARC
  5
103
  8
0
 10
176.03544158825781
 20
104.4223629773967
 30
0.0
 40
2.0
 50
90.000000000000028
 51
180.0
  0
ARC
  5
104
  8
0
 10
176.03544158825781
 20
84.422362977396702
 30
0.0
 40
2.0
 50
180.0
 51
270.00000000000011
  0
LINE
  5
105
  8
0
 10
176.03544158825781
 20
82.422362977396716
 30
0.0
 11
191.0354415882577
 21
82.422362977396716
 31
0.0
  0
LINE
  5
106
  8
0
 10
174.03544158825781
 20
104.4223629773967
 30
0.0
 11
174.03544158825781
 21
84.422362977396702
 31
0.0
  0
LINE
  5
107
  8
0
 10
187.5354415882577
 20
82.422362977396716
 30
0.0
 11
187.5354415882577
 21
78.422362977396688
 31
0.0
  0
LINE
  5
108
  8
0
 10
179.5354415882577
 20
82.422362977396716
 30
0.0
 11
179.5354415882577
 21
78.422362977396688
 31
0.0
  0
LINE
  5
153
  8
2
 10
122.8076752574074
 20
153.28590998498541
 30
0.0
 11
121.6201637895079
 21
153.28590998498541
 31
0.0
  0
LINE
  5
154
  8
2
 10
122.8076752574074
 20
145.28590998498541
 30
0.0
 11
121.6201637895079
 21
145.28590998498541
 31
0.0
  0
LINE
  5
155
  8
2
 10
107.99518672530699
 20
153.28590998498541
 30
0.0
 11
106.8076752574075
 21
153.28590998498541
 31
0.0
  0
LINE
  5
156
  8
2
 10
107.99518672530699
 20
145.28590998498541
 30
0.0
 11
106.8076752574075
 21
145.28590998498541
 31
0.0
  0
CIRCLE
  5
159
  8
2
 10
114.8076752574075
 20
149.28590998498541
 30
0.0
 40
7.9000000000000004
  0
LINE
  5
15A
  8
1
 10
114.8076752574075
 20
159.68590998498539
 30
0.0
 11
114.8076752574075
 21
138.8859099849854
 31
0.0
  0
LINE
  5
15B
  8
1
 10
125.2076752574075
 20
149.28590998498541
 30
0.0
 11
104.4076752574075
 21
149.28590998498541
 31
0.0
  0
LINE
  5
163
  8
2
 10
177.6552917344566
 20
84.369731398449204
 30
0.0
 11
177.1651784303628
 21
85.422362977396631
 31
0.0
  0
LINE
  5
164
  8
2
 10
175.63544158825769
 20
85.008765211210985
 30
0.0
 11
175.63544158825769
 21
82.462771183170176
 31
0.0
  0
LINE
  5
165
  8
2
 10
177.1651784303628
 20
85.422362977396631
 30
0.0
 11
176.72354648591849
 21
84.369731398449204
 31
0.0
  0
LINE
  5
166
  8
2
 10
176.72354648591849
 20
84.369731398449204
 30
0.0
 11
176.33375664673721
 21
85.422362977396631
 31
0.0
  0
LINE
  5
167
  8
2
 10
176.33375664673721
 20
85.422362977396631
 30
0.0
 11
175.99877674907631
 21
84.369731398449204
 31
0.0
  0
LINE
  5
168
  8
2
 10
175.99877674907631
 20
84.369731398449204
 30
0.0
 11
175.72115613504121
 21
85.422362977396631
 31
0.0
  0
LINE
  5
169
  8
2
 10
175.72115613504121
 20
85.422362977396631
 30
0.0
 11
175.63544158825769
 21
85.008765211210843
 31
0.0
  0
LINE
  5
16A
  8
2
 10
184.9794638835794
 20
85.422362977396631
 30
0.0
 11
185.68772777246829
 21
84.369731398449204
 31
0.0
  0
LINE
  5
16B
  8
2
 10
182.09142112042139
 20
85.422362977396631
 30
0.0
 11
181.38315723153249
 21
84.369731398449204
 31
0.0
  0
LINE
  5
16C
  8
2
 10
181.38315723153249
 20
84.369731398449204
 30
0.0
 11
180.691274921591
 21
85.422362977396631
 31
0.0
  0
LINE
  5
16D
  8
2
 10
180.691274921591
 20
85.422362977396631
 30
0.0
 11
180.02103734849169
 21
84.369731398449204
 31
0.0
  0
LINE
  5
16E
  8
2
 10
180.02103734849169
 20
84.369731398449204
 30
0.0
 11
179.37754685141559
 21
85.422362977396631
 31
0.0
  0
LINE
  5
16F
  8
2
 10
179.37754685141559
 20
85.422362977396631
 30
0.0
 11
178.7657010911816
 21
84.369731398449204
 31
0.0
  0
LINE
  5
170
  8
2
 10
178.7657010911816
 20
84.369731398449204
 30
0.0
 11
178.19015650053831
 21
85.422362977396631
 31
0.0
  0
LINE
  5
171
  8
2
 10
178.19015650053831
 20
85.422362977396631
 30
0.0
 11
177.6552917344566
 21
84.369731398449204
 31
0.0
  0
LINE
  5
172
  8
2
 10
183.5354415882577
 20
85.422362977396631
 30
0.0
 11
182.810673678901
 21
84.369731398449204
 31
0.0
  0
LINE
  5
173
  8
2
 10
182.810673678901
 20
84.369731398449204
 30
0.0
 11
182.09142112042139
 21
85.422362977396631
 31
0.0
  0
LINE
  5
174
  8
2
 10
184.26021132509979
 20
84.369731398449204
 30
0.0
 11
184.9794638835794
 21
85.422362977396631
 31
0.0
  0
LINE
  5
175
  8
2
 10
183.5354415882577
 20
85.422362977396631
 30
0.0
 11
184.26021132509979
 21
84.369731398449204
 31
0.0
  0
LINE
  5
177
  8
2
 10
188.88072850346251
 20
85.422362977396631
 30
0.0
 11
189.41559326954419
 21
84.369731398449204
 31
0.0
  0
LINE
  5
178
  8
2
 10
188.30518391281919
 20
84.369731398449204
 30
0.0
 11
188.88072850346251
 21
85.422362977396631
 31
0.0
  0
LINE
  5
179
  8
2
 10
187.69333632509989
 20
85.422362977396631
 30
0.0
 11
188.30518391281919
 21
84.369731398449204
 31
0.0
  0
LINE
  5
17A
  8
2
 10
187.04984765550921
 20
84.369731398449204
 30
0.0
 11
187.69333632509989
 21
85.422362977396631
 31
0.0
  0
LINE
  5
17B
  8
2
 10
186.37961008240981
 20
85.422362977396631
 30
0.0
 11
187.04984765550921
 21
84.369731398449204
 31
0.0
  0
LINE
  5
17C
  8
2
 10
185.68772777246829
 20
84.369731398449204
 30
0.0
 11
186.37961008240981
 21
85.422362977396631
 31
0.0
  0
LINE
  5
17D
  8
2
 10
191.4354415882577
 20
85.008774029362698
 30
0.0
 11
191.4354415882577
 21
82.422362977396716
 31
0.0
  0
LINE
  5
17E
  8
2
 10
191.072106427439
 20
84.369731398449204
 30
0.0
 11
191.3497288689596
 21
85.422362977396631
 31
0.0
  0
LINE
  5
17F
  8
2
 10
190.73712652977829
 20
85.422362977396631
 30
0.0
 11
191.072106427439
 21
84.369731398449204
 31
0.0
  0
LINE
  5
180
  8
2
 10
190.3473385180823
 20
84.369731398449204
 30
0.0
 11
190.73712652977829
 21
85.422362977396631
 31
0.0
  0
LINE
  5
181
  8
2
 10
189.9057065736379
 20
85.422362977396631
 30
0.0
 11
190.3473385180823
 21
84.369731398449204
 31
0.0
  0
LINE
  5
182
  8
2
 10
189.41559326954419
 20
84.369731398449204
 30
0.0
 11
189.9057065736379
 21
85.422362977396631
 31
0.0
  0
LINE
  5
183
  8
2
 10
191.3497288689596
 20
85.422362977396631
 30
0.0
 11
191.4354415882577
 21
85.008774029363025
 31
0.0
  0
LINE
  5
184
  8
2
 10
112.3491752574074
 20
96.922362977396773
 30
0.0
 11
111.8076752574075
 21
97.86026848969513
 31
0.0
  0
LINE
  5
185
  8
2
 10
117.2661752574075
 20
96.922362977396773
 30
0.0
 11
117.8076752574074
 21
97.86026848969513
 31
0.0
  0
LINE
  5
186
  8
2
 10
111.8076752574074
 20
96.922362977396816
 30
0.0
 11
117.8076752574074
 21
96.922362977396773
 31
0.0
  0
LINE
  5
187
  8
0
 10
111.8076752574074
 20
72.922362977396773
 30
0.0
 11
117.8076752574074
 21
72.922362977396745
 31
0.0
  0
LINE
  5
188
  8
0
 10
112.8076752574074
 20
71.922362977396773
 30
0.0
 11
111.8076752574074
 21
72.922362977396773
 31
0.0
  0
LINE
  5
189
  8
0
 10
117.8076752574074
 20
72.922362977396773
 30
0.0
 11
116.8076752574074
 21
71.922362977396773
 31
0.0
  0
LINE
  5
18A
  8
2
 10
117.8076752574074
 20
99.922362977396773
 30
0.0
 11
117.8076752574074
 21
95.063857977396694
 31
0.0
  0
LINE
  5
18B
  8
2
 10
117.2661752574075
 20
96.922362977396773
 30
0.0
 11
117.2661752574075
 21
95.063857977396708
 31
0.0
  0
LINE
  5
18C
  8
3
 10
112.3491752574073
 20
95.063857977396708
 30
0.0
 11
112.3491752574073
 21
93.78086797739671
 31
0.0
  0
LINE
  5
18D
  8
0
 10
111.8076752574074
 20
95.063857977396708
 30
0.0
 11
111.8076752574075
 21
93.780867977396696
 31
0.0
  0
LINE
  5
18E
  8
0
 10
116.8076752574074
 20
71.922362977396773
 30
0.0
 11
112.8076752574074
 21
71.922362977396773
 31
0.0
  0
LINE
  5
18F
  8
2
 10
109.8076752574074
 20
105.5223629773968
 30
0.0
 11
110.5004955804349
 21
105.9223629773967
 31
0.0
  0
LINE
  5
190
  8
2
 10
119.8076752574074
 20
105.5223629773967
 30
0.0
 11
119.11485493437991
 21
105.9223629773967
 31
0.0
  0
LINE
  5
191
  8
2
 10
109.8076752574074
 20
105.5223629773967
 30
0.0
 11
119.8076752574074
 21
105.5223629773968
 31
0.0
  0
LINE
  5
192
  8
2
 10
110.5004955804349
 20
105.9223629773967
 30
0.0
 11
119.11485493437991
 21
105.9223629773967
 31
0.0
  0
LINE
  5
193
  8
2
 10
109.8076752574074
 20
99.922362977396773
 30
0.0
 11
109.8076752574074
 21
106.4223629773967
 31
0.0
  0
LINE
  5
194
  8
2
 10
119.8076752574074
 20
99.922362977396773
 30
0.0
 11
109.8076752574074
 21
99.922362977396773
 31
0.0
  0
LINE
  5
195
  8
2
 10
119.8076752574074
 20
106.4223629773967
 30
0.0
 11
119.8076752574074
 21
99.922362977396773
 31
0.0
  0
CIRCLE
  5
197
  8
0
 10
114.8076752574075
 20
149.28590998498541
 30
0.0
 40
4.3071796769724946
  0
LINE
  5
198
  8
0
 10
112.30767525740769
 20
147.84253431201159
 30
0.0
 11
114.80767525740769
 21
146.39915863903741
 31
0.0
  0
LINE
  5
199
  8
0
 10
114.80767525740769
 20
146.39915863903741
 30
0.0
 11
117.3076752574075
 21
147.84253431201159
 31
0.0
  0
LINE
  5
19A
  8
0
 10
117.3076752574075
 20
147.84253431201159
 30
0.0
 11
117.3076752574075
 21
150.72928565796011
 31
0.0
  0
LINE
  5
19B
  8
0
 10
117.3076752574075
 20
150.72928565796011
 30
0.0
 11
114.8076752574075
 21
152.17266133093369
 31
0.0
  0
LINE
  5
19C
  8
0
 10
114.8076752574075
 20
152.17266133093369
 30
0.0
 11
112.3076752574072
 21
150.72928565795931
 31
0.0
  0
LINE
  5
19D
  8
0
 10
112.3076752574072
 20
150.72928565795931
 30
0.0
 11
112.30767525740769
 21
147.84253431201159
 31
0.0
  0
CIRCLE
  5
19E
  8
0
 10
114.8076752574075
 20
149.28590998498541
 30
0.0
 40
5.0
  0
LINE
  5
1C4
  8
2
 10
117.8076752574074
 20
93.780867977396696
 30
0.0
 11
117.8076752574073
 21
85.177624140551373
 31
0.0
  0
LINE
  5
1C5
  8
2
 10
117.2661752574075
 20
93.780867977396696
 30
0.0
 11
117.2661752574075
 21
84.835605908866015
 31
0.0
  0
LINE
  5
1C6
  8
2
 10
111.8076752574074
 20
99.922362977396773
 30
0.0
 11
111.8076752574075
 21
95.063857977396694
 31
0.0
  0
LINE
  5
1C7
  8
2
 10
112.3491752574073
 20
96.922362977396773
 30
0.0
 11
112.3491752574074
 21
95.063857977396708
 31
0.0
  0
LINE
  5
1C8
  8
0
 10
117.8076752574074
 20
95.063857977396708
 30
0.0
 11
117.8076752574074
 21
93.780867977396696
 31
0.0
  0
LINE
  5
1C9
  8
3
 10
117.2661752574075
 20
95.063857977396708
 30
0.0
 11
117.2661752574075
 21
93.78086797739671
 31
0.0
  0
LINE
  5
1CA
  8
0
 10
117.8076752574073
 20
78.422362977396688
 30
0.0
 11
117.8076752574073
 21
72.922362977396716
 31
0.0
  0
LINE
  5
1CB
  8
3
 10
117.2661752574075
 20
78.422362977396674
 30
0.0
 11
117.2661752574075
 21
72.380862977396873
 31
0.0
  0
LINE
  5
1CC
  8
2
 10
112.3491752574073
 20
93.780867977396696
 30
0.0
 11
112.3491752574074
 21
84.835605908866015
 31
0.0
  0
LINE
  5
1CD
  8
2
 10
111.8076752574075
 20
93.780867977396696
 30
0.0
 11
111.8076752574075
 21
85.177624140551373
 31
0.0
  0
LINE
  5
1CE
  8
3
 10
112.3491752574073
 20
78.422362977396674
 30
0.0
 11
112.3491752574073
 21
72.380862977396873
 31
0.0
  0
LINE
  5
1CF
  8
0
 10
111.8076752574075
 20
78.422362977396688
 30
0.0
 11
111.8076752574075
 21
72.922362977396716
 31
0.0
  0
LINE
  5
1D0
  8
2
 10
178.5354415882577
 20
99.922362977396688
 30
0.0
 11
178.5354415882577
 21
106.4223629773966
 31
0.0
  0
LINE
  5
1D1
  8
2
 10
188.5354415882577
 20
106.4223629773966
 30
0.0
 11
188.5354415882577
 21
99.922362977396688
 31
0.0
  0
LINE
  5
1D2
  8
2
 10
188.5354415882577
 20
99.922362977396688
 30
0.0
 11
178.5354415882577
 21
99.922362977396688
 31
0.0
  0
LINE
  5
1D3
  8
2
 10
180.5354415882577
 20
96.922362977396716
 30
0.0
 11
186.5354415882577
 21
96.922362977396674
 31
0.0
  0
LINE
  5
1D4
  8
2
 10
181.07694158825771
 20
96.922362977396674
 30
0.0
 11
180.5354415882577
 21
97.860268489695045
 31
0.0
  0
LINE
  5
1D5
  8
2
 10
185.9939415882578
 20
96.922362977396674
 30
0.0
 11
186.5354415882577
 21
97.860268489695045
 31
0.0
  0
LINE
  5
1D6
  8
2
 10
179.2282619112851
 20
105.9223629773967
 30
0.0
 11
187.84262126523021
 21
105.9223629773967
 31
0.0
  0
LINE
  5
1D7
  8
2
 10
178.5354415882577
 20
105.5223629773966
 30
0.0
 11
188.5354415882577
 21
105.5223629773967
 31
0.0
  0
LINE
  5
1D8
  8
2
 10
178.5354415882577
 20
105.5223629773967
 30
0.0
 11
179.2282619112851
 21
105.9223629773967
 31
0.0
  0
LINE
  5
1D9
  8
2
 10
188.5354415882577
 20
105.5223629773966
 30
0.0
 11
187.84262126523021
 21
105.9223629773967
 31
0.0
  0
LINE
  5
1E2
  8
2
 10
185.99394158825771
 20
96.922362977396674
 30
0.0
 11
185.99394158825771
 21
84.835605908865944
 31
0.0
  0
LINE
  5
1E3
  8
2
 10
186.5354415882577
 20
99.922362977396688
 30
0.0
 11
186.53544158825761
 21
85.177624140551288
 31
0.0
  0
LINE
  5
1E4
  8
2
 10
180.5354415882577
 20
99.922362977396688
 30
0.0
 11
180.53544158825781
 21
85.177624140551288
 31
0.0
  0
LINE
  5
1E5
  8
2
 10
181.0769415882576
 20
96.922362977396716
 30
0.0
 11
181.07694158825771
 21
84.835605908865944
 31
0.0
  0
LINE
  5
1E6
  8
0
 10
180.5354415882577
 20
72.922362977396688
 30
0.0
 11
186.5354415882577
 21
72.922362977396659
 31
0.0
  0
LINE
  5
1E7
  8
0
 10
185.5354415882577
 20
71.922362977396674
 30
0.0
 11
181.5354415882577
 21
71.922362977396674
 31
0.0
  0
LINE
  5
1E8
  8
3
 10
185.9939415882578
 20
78.422362977396588
 30
0.0
 11
185.9939415882578
 21
72.380862977396802
 31
0.0
  0
LINE
  5
1E9
  8
0
 10
186.53544158825761
 20
78.422362977396602
 30
0.0
 11
186.53544158825761
 21
72.922362977396631
 31
0.0
  0
LINE
  5
1EA
  8
0
 10
186.5354415882577
 20
72.922362977396688
 30
0.0
 11
185.5354415882577
 21
71.922362977396674
 31
0.0
  0
LINE
  5
1EB
  8
0
 10
180.53544158825781
 20
78.422362977396602
 30
0.0
 11
180.53544158825781
 21
72.922362977396631
 31
0.0
  0
LINE
  5
1EC
  8
3
 10
181.0769415882576
 20
78.422362977396588
 30
0.0
 11
181.0769415882576
 21
72.380862977396802
 31
0.0
  0
LINE
  5
1ED
  8
0
 10
181.5354415882577
 20
71.922362977396674
 30
0.0
 11
180.5354415882577
 21
72.922362977396688
 31
0.0
  0
TEXT
  5
2C9
  8
0
 62
     3
 10
0.0
 20
0.0
 30
0.0
 40
10.0
  1
DE-LSH-18
  7
STANDARD1
  0
ENDSEC
  0
EOF
