  0
SECTION
  2
HEADER
  9
$ACADVER
  1
AC1009
  9
$INSBASE
 10
0.0
 20
0.0
 30
0.0
  9
$EXTMIN
 10
0.0
 20
-2.960436562073669
 30
0.0
  9
$EXTMAX
 10
118.3495152436119
 20
86.300051407199746
 30
0.0
  9
$LIMMIN
 10
0.0
 20
0.0
  9
$LIMMAX
 10
187.5
 20
135.0
  9
$ORTHOMODE
 70
     1
  9
$REGENMODE
 70
     1
  9
$FILLMODE
 70
     1
  9
$QTEXTMODE
 70
     0
  9
$MIRRTEXT
 70
     0
  9
$DRAGMODE
 70
     2
  9
$LTSCALE
 40
5.0
  9
$OSMODE
 70
  3071
  9
$ATTMODE
 70
     1
  9
$TEXTSIZE
 40
5.0
  9
$TRACEWID
 40
0.05
  9
$TEXTSTYLE
  7
STANDARD
  9
$CLAYER
  8
0
  9
$CELTYPE
  6
BYLAYER
  9
$CECOLOR
 62
   256
  9
$DIMSCALE
 40
0.5
  9
$DIMASZ
 40
3.0
  9
$DIMEXO
 40
2.0
  9
$DIMDLI
 40
0.3799999999999999
  9
$DIMRND
 40
0.0
  9
$DIMDLE
 40
0.0
  9
$DIMEXE
 40
2.0
  9
$DIMTP
 40
0.0
  9
$DIMTM
 40
0.0
  9
$DIMTXT
 40
3.2000000000000002
  9
$DIMCEN
 40
0.0
  9
$DIMTSZ
 40
0.0
  9
$DIMTOL
 70
     0
  9
$DIMLIM
 70
     0
  9
$DIMTIH
 70
     0
  9
$DIMTOH
 70
     0
  9
$DIMSE1
 70
     0
  9
$DIMSE2
 70
     0
  9
$DIMTAD
 70
     1
  9
$DIMZIN
 70
     0
  9
$DIMBLK
  1

  9
$DIMASO
 70
     0
  9
$DIMSHO
 70
     0
  9
$DIMPOST
  1

  9
$DIMAPOST
  1

  9
$DIMALT
 70
     0
  9
$DIMALTD
 70
     2
  9
$DIMALTF
 40
25.399999999999999
  9
$DIMLFAC
 40
1.0
  9
$DIMTOFL
 70
     1
  9
$DIMTVP
 40
0.0
  9
$DIMTIX
 70
     1
  9
$DIMSOXD
 70
     0
  9
$DIMSAH
 70
     0
  9
$DIMBLK1
  1

  9
$DIMBLK2
  1

  9
$DIMSTYLE
  2
STANDARD
  9
$DIMCLRD
 70
     0
  9
$DIMCLRE
 70
     0
  9
$DIMCLRT
 70
     0
  9
$DIMTFAC
 40
1.0
  9
$DIMGAP
 40
0.09
  9
$LUNITS
 70
     2
  9
$LUPREC
 70
     4
  9
$SKETCHINC
 40
0.1
  9
$FILLETRAD
 40
7.0
  9
$AUNITS
 70
     0
  9
$AUPREC
 70
     4
  9
$MENU
  1
E:\r13\win\SUPPORT\ACAD
  9
$ELEVATION
 40
0.0
  9
$PELEVATION
 40
0.0
  9
$THICKNESS
 40
0.0
  9
$LIMCHECK
 70
     0
  9
$BLIPMODE
 70
     0
  9
$CHAMFERA
 40
0.0
  9
$CHAMFERB
 40
0.0
  9
$SKPOLY
 70
     0
  9
$TDCREATE
 40
2449840.6504976852
  9
$TDUPDATE
 40
2456598.603344549
  9
$TDINDWG
 40
0.0013043287
  9
$TDUSRTIMER
 40
0.0013043287
  9
$USRTIMER
 70
     1
  9
$ANGBASE
 50
0.0
  9
$ANGDIR
 70
     0
  9
$PDMODE
 70
     0
  9
$PDSIZE
 40
0.0
  9
$PLINEWID
 40
0.0
  9
$COORDS
 70
     1
  9
$SPLFRAME
 70
     0
  9
$SPLINETYPE
 70
     6
  9
$SPLINESEGS
 70
     8
  9
$ATTDIA
 70
     0
  9
$ATTREQ
 70
     1
  9
$HANDLING
 70
     1
  9
$HANDSEED
  5
1D8
  9
$SURFTAB1
 70
     6
  9
$SURFTAB2
 70
     6
  9
$SURFTYPE
 70
     6
  9
$SURFU
 70
     6
  9
$SURFV
 70
     6
  9
$UCSNAME
  2

  9
$UCSORG
 10
0.0
 20
0.0
 30
0.0
  9
$UCSXDIR
 10
1.0
 20
0.0
 30
0.0
  9
$UCSYDIR
 10
0.0
 20
1.0
 30
0.0
  9
$PUCSNAME
  2

  9
$PUCSORG
 10
0.0
 20
0.0
 30
0.0
  9
$PUCSXDIR
 10
1.0
 20
0.0
 30
0.0
  9
$PUCSYDIR
 10
0.0
 20
1.0
 30
0.0
  9
$USERI1
 70
     0
  9
$USERI2
 70
     1
  9
$USERI3
 70
     0
  9
$USERI4
 70
     0
  9
$USERI5
 70
     0
  9
$USERR1
 40
0.0
  9
$USERR2
 40
0.0
  9
$USERR3
 40
0.0
  9
$USERR4
 40
0.0
  9
$USERR5
 40
0.0
  9
$WORLDVIEW
 70
     1
  9
$SHADEDGE
 70
     3
  9
$SHADEDIF
 70
    70
  9
$TILEMODE
 70
     1
  9
$MAXACTVP
 70
    16
  9
$PLIMCHECK
 70
     0
  9
$PEXTMIN
 10
1.0000000000000000E+020
 20
1.0000000000000000E+020
 30
1.0000000000000000E+020
  9
$PEXTMAX
 10
-1.0000000000000000E+020
 20
-1.0000000000000000E+020
 30
-1.0000000000000000E+020
  9
$PLIMMIN
 10
0.0
 20
0.0
  9
$PLIMMAX
 10
12.0
 20
9.0
  9
$UNITMODE
 70
     0
  9
$VISRETAIN
 70
     0
  9
$PLINEGEN
 70
     0
  9
$PSLTSCALE
 70
     0
  0
ENDSEC
  0
SECTION
  2
TABLES
  0
TABLE
  2
VPORT
 70
     1
  0
VPORT
  2
*ACTIVE
 70
     0
 10
0.0
 20
0.0
 11
1.0
 21
1.0
 12
97.570150770051072
 22
66.014785922033241
 13
0.0
 23
0.0
 14
5.0
 24
5.0
 15
5.0
 25
5.0
 16
0.0
 26
0.0
 36
1.0
 17
0.0
 27
0.0
 37
0.0
 40
139.20783109903601
 41
1.831871345029239
 42
50.0
 43
0.0
 44
0.0
 50
0.0
 51
0.0
 71
     0
 72
  1000
 73
     1
 74
     0
 75
     0
 76
     0
 77
     0
 78
     2
  0
ENDTAB
  0
TABLE
  2
LTYPE
 70
     4
  0
LTYPE
  2
CONTINUOUS
 70
     0
  3
Solid Line
 72
    65
 73
     0
 40
0.0
  0
LTYPE
  2
CENTER
 70
     0
  3
____ _ ____ _ ____ _ ____ _ ____ _ ____ _ ____
 72
    65
 73
     4
 40
2.0
 49
1.25
 49
-0.25
 49
0.25
 49
-0.25
  0
LTYPE
  2
HIDDEN
 70
     0
  3
_ _ _ _ _ _ _ _ _ _ _ _ _ _ _ _ _ _ _ _ _ _ _
 72
    65
 73
     2
 40
0.375
 49
0.25
 49
-0.125
  0
LTYPE
  2
PHANTOM2
 70
     0
  3
___ _ _ ___ _ _ ___ _ _ ___ _ _
 72
    65
 73
     6
 40
1.25
 49
0.625
 49
-0.125
 49
0.125
 49
-0.125
 49
0.125
 49
-0.125
  0
ENDTAB
  0
TABLE
  2
LAYER
 70
     3
  0
LAYER
  2
0
 70
     0
 62
     7
  6
CONTINUOUS
  0
LAYER
  2
1
 70
     0
 62
     1
  6
CENTER
  0
LAYER
  2
2
 70
     0
 62
     2
  6
HIDDEN
  0
ENDTAB
  0
TABLE
  2
STYLE
 70
     2
  0
STYLE
  2
STANDARD
 70
     0
 40
0.0
 41
1.0
 50
0.0
 71
     0
 42
5.0
  3
TXT
  4
BIGFONT
  0
STYLE
  2
STANDARD1
 70
     0
 40
0.0
 41
1.0
 50
0.0
 71
     0
 42
3.0
  3
txt
  4

  0
ENDTAB
  0
TABLE
  2
VIEW
 70
     1
  0
VIEW
  2
ALL
 70
     0
 40
175.0
 10
143.23529411764699
 20
87.5
 41
0.0
 11
0.0
 21
0.0
 31
1.0
 12
0.0
 22
0.0
 32
0.0
 42
0.0
 43
0.0
 44
0.0
 50
0.0
 71
     0
  0
ENDTAB
  0
TABLE
  2
UCS
 70
     0
  0
ENDTAB
  0
TABLE
  2
APPID
 70
     3
  0
APPID
  2
ACAD
 70
     0
  0
APPID
  2
ACAD_MLEADERVER
 70
     0
  0
APPID
  2
ACAD_NAV_VCDISPLAY
 70
     0
  0
ENDTAB
  0
TABLE
  2
DIMSTYLE
 70
     1
  0
DIMSTYLE
  2
STANDARD
 70
     0
  3

  4

  5

  6

  7

 40
1.0
 41
0.18
 42
0.0625
 43
0.38
 44
0.18
 45
0.0
 46
0.0
 47
0.0
 48
0.0
140
0.18
141
0.09
142
0.0
143
25.399999999999999
144
1.0
145
0.0
146
1.0
147
0.09
 71
     0
 72
     0
 73
     1
 74
     1
 75
     0
 76
     0
 77
     0
 78
     0
170
     0
171
     2
172
     0
173
     0
174
     0
175
     0
176
     0
177
     0
178
     0
  0
ENDTAB
  0
ENDSEC
  0
SECTION
  2
BLOCKS
  0
BLOCK
  8
0
  2
$MODEL_SPACE
 70
     0
 10
0.0
 20
0.0
 30
0.0
  3
$MODEL_SPACE
  1

  0
ENDBLK
  5
92
  8
0
  0
BLOCK
 67
     1
  8
0
  2
$PAPER_SPACE
 70
     0
 10
0.0
 20
0.0
 30
0.0
  3
$PAPER_SPACE
  1

  0
ENDBLK
  5
90
 67
     1
  8
0
  0
ENDSEC
  0
SECTION
  2
ENTITIES
  0
LINE
  5
37
  8
0
 10
95.849515243611918
 20
72.800051407199518
 30
0.0
 11
95.849515243611947
 21
55.700051407199979
 31
0.0
  0
LINE
  5
38
  8
0
 10
95.84951524361189
 20
72.800051407199518
 30
0.0
 11
96.849515243612117
 21
72.800051407199518
 31
0.0
  0
LINE
  5
39
  8
0
 10
115.8495152436119
 20
72.800051407199518
 30
0.0
 11
114.8495152436118
 21
72.800051407199518
 31
0.0
  0
LINE
  5
3A
  8
0
 10
115.8495152436119
 20
72.800051407199518
 30
0.0
 11
115.8495152436119
 21
55.700051407199979
 31
0.0
  0
LINE
  5
3B
  8
0
 10
115.8495152436119
 20
55.700051407199958
 30
0.0
 11
114.8495152436118
 21
55.70005140719995
 31
0.0
  0
LINE
  5
3C
  8
0
 10
95.84951524361189
 20
55.700051407199958
 30
0.0
 11
96.849515243612117
 21
55.700051407199979
 31
0.0
  0
LINE
  5
3D
  8
0
 10
99.772813806574504
 20
44.300051407199717
 30
0.0
 11
103.58642530287609
 21
47.500051407199727
 31
0.0
  0
LINE
  5
3E
  8
0
 10
111.9262166806493
 20
44.300051407199717
 30
0.0
 11
108.112605184348
 21
47.500051407199727
 31
0.0
  0
CIRCLE
  5
3F
  8
0
 10
45.043311848855211
 20
64.250051407199734
 30
0.0
 40
19.550000000000001
  0
CIRCLE
  5
40
  8
0
 10
45.043311848855211
 20
64.250051407199734
 30
0.0
 40
12.5
  0
CIRCLE
  5
41
  8
0
 10
45.043311848855211
 20
64.250051407199734
 30
0.0
 40
8.5
  0
CIRCLE
  5
42
  8
0
 10
45.043311848855211
 20
64.250051407199734
 30
0.0
 40
6.0
  0
LINE
  5
43
  8
0
 10
114.8495152436118
 20
84.200051407199751
 30
0.0
 11
114.8495152436118
 21
44.300051407199703
 31
0.0
  0
LINE
  5
44
  8
0
 10
96.849515243612103
 20
84.200051407199723
 30
0.0
 11
96.849515243612103
 21
44.300051407199739
 31
0.0
  0
LINE
  5
45
  8
0
 10
111.8995152436119
 20
84.177646241229866
 30
0.0
 11
111.8995152436119
 21
44.32245657316966
 31
0.0
  0
LINE
  5
46
  8
0
 10
99.799515243611907
 20
84.177646241229709
 30
0.0
 11
99.799515243611907
 21
44.322456573169752
 31
0.0
  0
LINE
  5
47
  8
0
 10
114.8495152436118
 20
44.300051407199717
 30
0.0
 11
111.9262166806493
 21
44.300051407199717
 31
0.0
  0
LINE
  5
48
  8
0
 10
96.849515243612103
 20
44.30005140719976
 30
0.0
 11
99.772813806574504
 21
44.300051407199739
 31
0.0
  0
LINE
  5
49
  8
0
 10
108.0995152436119
 20
81.000051407199706
 30
0.0
 11
108.0995152436119
 21
47.500051407199763
 31
0.0
  0
LINE
  5
4A
  8
0
 10
103.5995152436119
 20
81.000051407199706
 30
0.0
 11
103.5995152436119
 21
47.500051407199763
 31
0.0
  0
LINE
  5
4B
  8
0
 10
111.9262166806493
 20
84.200051407199751
 30
0.0
 11
108.112605184348
 21
81.000051407199734
 31
0.0
  0
LINE
  5
4C
  8
0
 10
99.772813806574504
 20
84.200051407199723
 30
0.0
 11
103.58642530287599
 21
81.000051407199734
 31
0.0
  0
LINE
  5
4D
  8
0
 10
114.8495152436118
 20
84.200051407199751
 30
0.0
 11
111.9262166806493
 21
84.200051407199751
 31
0.0
  0
LINE
  5
4E
  8
0
 10
96.849515243612103
 20
84.200051407199723
 30
0.0
 11
99.772813806574504
 21
84.200051407199723
 31
0.0
  0
LINE
  5
4F
  8
0
 10
103.5995152436119
 20
81.000051407199706
 30
0.0
 11
108.0995152436119
 21
81.000051407199734
 31
0.0
  0
LINE
  5
50
  8
0
 10
103.5995152436119
 20
47.500051407199749
 30
0.0
 11
108.0995152436119
 21
47.500051407199749
 31
0.0
  0
LINE
  5
5A
  8
1
 10
67.093311848855194
 20
64.250051407199734
 30
0.0
 11
22.993311848855221
 21
64.250051407199734
 31
0.0
  0
LINE
  5
5B
  8
1
 10
45.043311848855211
 20
86.300051407199732
 30
0.0
 11
45.043311848855197
 21
42.20005140719973
 31
0.0
  0
LINE
  5
5C
  8
1
 10
93.349515243611918
 20
64.250051407199734
 30
0.0
 11
118.3495152436119
 21
64.250051407199734
 31
0.0
  0
LINE
  5
5D
  8
1
 10
105.8495152436119
 20
86.300051407199746
 30
0.0
 11
105.8495152436119
 21
42.200051407199751
 31
0.0
  0
LINE
  5
102
  8
2
 10
95.849515243611918
 20
70.250051407199734
 30
0.0
 11
115.8495152436119
 21
70.250051407199734
 31
0.0
  0
LINE
  5
103
  8
2
 10
95.849515243611918
 20
58.250051407199763
 30
0.0
 11
115.8495152436119
 21
58.250051407199763
 31
0.0
  0
CIRCLE
  5
105
  8
2
 10
45.043311848855211
 20
64.250051407199734
 30
0.0
 40
16.749999999999972
  0
TEXT
  5
170
  8
0
 62
     3
 10
0.0
 20
0.0
 30
0.0
 40
10.0
  1
DE-RL14
  7
STANDARD1
  0
ENDSEC
  0
EOF
