  0
SECTION
  2
HEADER
  9
$ACADVER
  1
AC1009
  9
$INSBASE
 10
0.0
 20
0.0
 30
0.0
  9
$EXTMIN
 10
0.0
 20
-2.960436562073669
 30
0.0
  9
$EXTMAX
 10
374.06800516793561
 20
240.5059046010586
 30
0.0
  9
$LIMMIN
 10
0.0
 20
0.0
  9
$LIMMAX
 10
275.0
 20
175.0
  9
$ORTHOMODE
 70
     1
  9
$REGENMODE
 70
     1
  9
$FILLMODE
 70
     1
  9
$QTEXTMODE
 70
     0
  9
$MIRRTEXT
 70
     0
  9
$DRAGMODE
 70
     2
  9
$LTSCALE
 40
10.0
  9
$OSMODE
 70
    37
  9
$ATTMODE
 70
     1
  9
$TEXTSIZE
 40
0.2
  9
$TRACEWID
 40
0.05
  9
$TEXTSTYLE
  7
STANDARD
  9
$CLAYER
  8
0
  9
$CELTYPE
  6
BYLAYER
  9
$CECOLOR
 62
   256
  9
$DIMSCALE
 40
1.0
  9
$DIMASZ
 40
3.0
  9
$DIMEXO
 40
1.0
  9
$DIMDLI
 40
6.0
  9
$DIMRND
 40
0.0
  9
$DIMDLE
 40
0.0
  9
$DIMEXE
 40
1.0
  9
$DIMTP
 40
495.0
  9
$DIMTM
 40
0.0
  9
$DIMTXT
 40
3.0
  9
$DIMCEN
 40
0.0
  9
$DIMTSZ
 40
0.0
  9
$DIMTOL
 70
     0
  9
$DIMLIM
 70
     0
  9
$DIMTIH
 70
     0
  9
$DIMTOH
 70
     0
  9
$DIMSE1
 70
     0
  9
$DIMSE2
 70
     0
  9
$DIMTAD
 70
     1
  9
$DIMZIN
 70
     0
  9
$DIMBLK
  1

  9
$DIMASO
 70
     0
  9
$DIMSHO
 70
     0
  9
$DIMPOST
  1

  9
$DIMAPOST
  1

  9
$DIMALT
 70
     0
  9
$DIMALTD
 70
     2
  9
$DIMALTF
 40
25.399999999999999
  9
$DIMLFAC
 40
1.0
  9
$DIMTOFL
 70
     1
  9
$DIMTVP
 40
0.0
  9
$DIMTIX
 70
     1
  9
$DIMSOXD
 70
     0
  9
$DIMSAH
 70
     0
  9
$DIMBLK1
  1

  9
$DIMBLK2
  1

  9
$DIMSTYLE
  2
STANDARD
  9
$DIMCLRD
 70
     0
  9
$DIMCLRE
 70
     0
  9
$DIMCLRT
 70
     4
  9
$DIMTFAC
 40
1.0
  9
$DIMGAP
 40
1.0
  9
$LUNITS
 70
     2
  9
$LUPREC
 70
     4
  9
$SKETCHINC
 40
0.1
  9
$FILLETRAD
 40
0.0
  9
$AUNITS
 70
     0
  9
$AUPREC
 70
     0
  9
$MENU
  1
E:\r13\win\SUPPORT\ACAD
  9
$ELEVATION
 40
0.0
  9
$PELEVATION
 40
0.0
  9
$THICKNESS
 40
0.0
  9
$LIMCHECK
 70
     0
  9
$BLIPMODE
 70
     0
  9
$CHAMFERA
 40
0.0
  9
$CHAMFERB
 40
0.0
  9
$SKPOLY
 70
     0
  9
$TDCREATE
 40
2450653.5278402781
  9
$TDUPDATE
 40
2458753.395414352
  9
$TDINDWG
 40
0.1608004282
  9
$TDUSRTIMER
 40
0.1608004282
  9
$USRTIMER
 70
     1
  9
$ANGBASE
 50
0.0
  9
$ANGDIR
 70
     0
  9
$PDMODE
 70
     0
  9
$PDSIZE
 40
0.0
  9
$PLINEWID
 40
0.0
  9
$COORDS
 70
     1
  9
$SPLFRAME
 70
     0
  9
$SPLINETYPE
 70
     6
  9
$SPLINESEGS
 70
     8
  9
$ATTDIA
 70
     0
  9
$ATTREQ
 70
     1
  9
$HANDLING
 70
     1
  9
$HANDSEED
  5
215E
  9
$SURFTAB1
 70
     6
  9
$SURFTAB2
 70
     6
  9
$SURFTYPE
 70
     6
  9
$SURFU
 70
     6
  9
$SURFV
 70
     6
  9
$UCSNAME
  2

  9
$UCSORG
 10
0.0
 20
0.0
 30
0.0
  9
$UCSXDIR
 10
1.0
 20
0.0
 30
0.0
  9
$UCSYDIR
 10
0.0
 20
1.0
 30
0.0
  9
$PUCSNAME
  2

  9
$PUCSORG
 10
0.0
 20
0.0
 30
0.0
  9
$PUCSXDIR
 10
1.0
 20
0.0
 30
0.0
  9
$PUCSYDIR
 10
0.0
 20
1.0
 30
0.0
  9
$USERI1
 70
     4
  9
$USERI2
 70
     1
  9
$USERI3
 70
     0
  9
$USERI4
 70
     0
  9
$USERI5
 70
     0
  9
$USERR1
 40
1.0
  9
$USERR2
 40
3.0
  9
$USERR3
 40
3.0
  9
$USERR4
 40
3.0
  9
$USERR5
 40
10.0
  9
$WORLDVIEW
 70
     1
  9
$SHADEDGE
 70
     3
  9
$SHADEDIF
 70
    70
  9
$TILEMODE
 70
     1
  9
$MAXACTVP
 70
    16
  9
$PLIMCHECK
 70
     0
  9
$PEXTMIN
 10
1.0000000000000000E+020
 20
1.0000000000000000E+020
 30
1.0000000000000000E+020
  9
$PEXTMAX
 10
-1.0000000000000000E+020
 20
-1.0000000000000000E+020
 30
-1.0000000000000000E+020
  9
$PLIMMIN
 10
0.0
 20
0.0
  9
$PLIMMAX
 10
12.0
 20
9.0
  9
$UNITMODE
 70
     0
  9
$VISRETAIN
 70
     0
  9
$PLINEGEN
 70
     0
  9
$PSLTSCALE
 70
     0
  0
ENDSEC
  0
SECTION
  2
TABLES
  0
TABLE
  2
VPORT
 70
     1
  0
VPORT
  2
*ACTIVE
 70
     0
 10
0.0
 20
0.0
 11
1.0
 21
1.0
 12
362.34662576687123
 22
150.0
 13
0.0
 23
0.0
 14
5.0
 24
5.0
 15
10.0
 25
10.0
 16
0.0
 26
0.0
 36
1.0
 17
0.0
 27
0.0
 37
0.0
 40
300.0
 41
2.415644171779141
 42
50.0
 43
0.0
 44
0.0
 50
0.0
 51
0.0
 71
     0
 72
   100
 73
     1
 74
     0
 75
     0
 76
     0
 77
     0
 78
     0
  0
ENDTAB
  0
TABLE
  2
LTYPE
 70
     4
  0
LTYPE
  2
CONTINUOUS
 70
     0
  3
Solid Line
 72
    65
 73
     0
 40
0.0
  0
LTYPE
  2
CENTER
 70
     0
  3
____ _ ____ _ ____ _ ____ _ ____ _ ____ _ ____
 72
    65
 73
     4
 40
2.0
 49
1.25
 49
-0.25
 49
0.25
 49
-0.25
  0
LTYPE
  2
HIDDEN
 70
     0
  3
__ __ __ __ __ __ __ __ __ __ __ __ __ __ __ __
 72
    65
 73
     2
 40
0.375
 49
0.25
 49
-0.125
  0
LTYPE
  2
PHANTOM2
 70
     0
  3
___ _ _ ___ _ _ ___ _ _ ___ _ _
 72
    65
 73
     6
 40
1.25
 49
0.625
 49
-0.125
 49
0.125
 49
-0.125
 49
0.125
 49
-0.125
  0
ENDTAB
  0
TABLE
  2
LAYER
 70
     4
  0
LAYER
  2
0
 70
     0
 62
     7
  6
CONTINUOUS
  0
LAYER
  2
1
 70
     0
 62
     1
  6
CENTER
  0
LAYER
  2
2
 70
     0
 62
     2
  6
HIDDEN
  0
LAYER
  2
3
 70
     0
 62
     3
  6
CONTINUOUS
  0
ENDTAB
  0
TABLE
  2
STYLE
 70
     2
  0
STYLE
  2
STANDARD
 70
     0
 40
0.0
 41
1.0
 50
0.0
 71
     0
 42
0.2
  3
simplex
  4
bigfont
  0
STYLE
  2
STANDARD1
 70
     0
 40
0.0
 41
1.0
 50
0.0
 71
     0
 42
3.0
  3
txt
  4

  0
ENDTAB
  0
TABLE
  2
VIEW
 70
     0
  0
ENDTAB
  0
TABLE
  2
UCS
 70
     0
  0
ENDTAB
  0
TABLE
  2
APPID
 70
    47
  0
APPID
  2
ACAD
 70
     0
  0
APPID
  2
GENIUS_GENODEF_13
 70
     0
  0
APPID
  2
GENIUS_GENOBJ-N-FIL_13
 70
     0
  0
APPID
  2
GENIUS_GENOENT_13
 70
     0
  0
APPID
  2
GENIUS_GENOBJ_13
 70
     0
  0
APPID
  2
GENIUS_GENOLIS_13
 70
     0
  0
APPID
  2
GENIUS_GENOREF_13
 70
     0
  0
APPID
  2
GENIUS_GENOBJ-N-SEC_13
 70
     0
  0
APPID
  2
GENIUS_GENOBJ-N-CRS_13
 70
     0
  0
APPID
  2
GENIUS_GENBH_13
 70
     0
  0
APPID
  2
GENIUS_GENOBJ-NBEHI-BHF_13
 70
     0
  0
APPID
  2
GENIUS_GENOBJ-NBEHI-BHB_13
 70
     0
  0
APPID
  2
GENIUS_GENOBJ-F-PART_13
 70
     0
  0
APPID
  2
GENIUS_GEFSTDP_13
 70
     0
  0
APPID
  2
GENIUS_GENOBJ-N-RSSYM_13
 70
     0
  0
APPID
  2
GENIUS_GENSYMENT_13
 70
     0
  0
APPID
  2
GENIUS_GEFINERT_13
 70
     0
  0
APPID
  2
GENIUS_GENOBJ-F-INER_13
 70
     0
  0
APPID
  2
GENIUS_GENOBJ-N-TIT_13
 70
     0
  0
APPID
  2
GENIUS_GENTITLE_13
 70
     0
  0
APPID
  2
GENIUS_GENZVEED_13
 70
     0
  0
APPID
  2
GENIUS_GENOBJ-N-LEADER_13
 70
     0
  0
APPID
  2
GENIUS_GENOBJ-N-ZOO_13
 70
     0
  0
APPID
  2
GENIUS_GENZOO_13
 70
     0
  0
APPID
  2
GENIUS_GENOBJ-F-TOL_13
 70
     0
  0
APPID
  2
GENIUS_GENOBJ-N-REV_13
 70
     0
  0
APPID
  2
GENIUS_GENOBJ-F-ROD_13
 70
     0
  0
APPID
  2
GENIUS_GENOBJ-F-SPR_13
 70
     0
  0
APPID
  2
GENIUS_GEFSPRING_13
 70
     0
  0
APPID
  2
GENIUS_GENCFG_13
 70
     0
  0
APPID
  2
GENIUS_GENCFG0_13
 70
     0
  0
APPID
  2
GENIUS_GENCFG1_13
 70
     0
  0
APPID
  2
GENIUS_GENCFG2_13
 70
     0
  0
APPID
  2
GENIUS_GENCFG3_13
 70
     0
  0
APPID
  2
GENIUS_GENCFG4_13
 70
     0
  0
APPID
  2
GENIUS_GEVCFG0_13
 70
     0
  0
APPID
  2
GENIUS_GENOBJ-N-REC_13
 70
     0
  0
APPID
  2
GENIUS_GENFIL_13
 70
     0
  0
APPID
  2
GENIUS_GENOBJ-N-CHA_13
 70
     0
  0
APPID
  2
GENIUS_GENREC_13
 70
     0
  0
APPID
  2
GENIUS_GENOBJ-F-FEM_13
 70
     0
  0
APPID
  2
GENIUS_GEFFEM_13
 70
     0
  0
APPID
  2
GENIUS_GENOBJ-N-CEN_13
 70
     0
  0
APPID
  2
GENIUS_GENREC_14
 70
     0
  0
APPID
  2
ACAD_MLEADERVER
 70
     0
  0
APPID
  2
ACAD_NAV_VCDISPLAY
 70
     0
  0
APPID
  2
ACAD_EXEMPT_FROM_CAD_STANDARDS
 70
     0
  0
ENDTAB
  0
TABLE
  2
DIMSTYLE
 70
     1
  0
DIMSTYLE
  2
STANDARD
 70
     0
  3

  4

  5

  6

  7

 40
1.0
 41
0.18
 42
0.0625
 43
0.38
 44
0.18
 45
0.0
 46
0.0
 47
0.0
 48
0.0
140
0.18
141
0.09
142
0.0
143
25.399999999999999
144
1.0
145
0.0
146
1.0
147
0.09
 71
     0
 72
     0
 73
     1
 74
     1
 75
     0
 76
     0
 77
     0
 78
     0
170
     0
171
     2
172
     0
173
     0
174
     0
175
     0
176
     0
177
     0
178
     0
  0
ENDTAB
  0
ENDSEC
  0
SECTION
  2
BLOCKS
  0
BLOCK
  8
0
  2
$MODEL_SPACE
 70
     0
 10
0.0
 20
0.0
 30
0.0
  3
$MODEL_SPACE
  1

  0
ENDBLK
  5
1ABF
  8
0
  0
BLOCK
 67
     1
  8
0
  2
$PAPER_SPACE
 70
     0
 10
0.0
 20
0.0
 30
0.0
  3
$PAPER_SPACE
  1

  0
ENDBLK
  5
1ABD
 67
     1
  8
0
  0
ENDSEC
  0
SECTION
  2
ENTITIES
  0
LINE
  5
1825
  8
0
 10
256.9999999999942
 20
54.55094386357797
 30
0.0
 11
196.9999999999942
 21
54.55094386357797
 31
0.0
  0
LINE
  5
1826
  8
0
 10
196.9999999999942
 20
57.199999999999982
 30
0.0
 11
256.9999999999942
 21
57.199999999999982
 31
0.0
  0
LINE
  5
1827
  8
0
 10
256.9999999999942
 20
50.0
 30
0.0
 11
196.9999999999942
 21
50.0
 31
0.0
  0
LINE
  5
1837
  8
0
 10
253.00000000000489
 20
81.69999999995116
 30
0.0
 11
141.00000000002689
 21
81.700000000263685
 31
0.0
  0
LINE
  5
183F
  8
0
 10
196.9999999999942
 20
50.0
 30
0.0
 11
196.9999999999942
 21
57.199999999999982
 31
0.0
  0
LINE
  5
1840
  8
0
 10
59.66649887579274
 20
54.55094386355961
 30
0.0
 11
64.607610897966197
 21
50.127472148471043
 31
0.0
  0
LINE
  5
1841
  8
0
 10
77.33350112421158
 20
54.55094386355961
 30
0.0
 11
72.392389102038351
 21
50.127472148471163
 31
0.0
  0
LINE
  5
1842
  8
1
 10
68.500000000001464
 20
44.99999999998164
 30
0.0
 11
68.5000000000162
 21
158.50708094222469
 31
0.0
1001
GENIUS_GENODEF_13
1002
{
1000
HIER
1070
     0
1002
}
1002
{
1000
MANEDIT
1070
     0
1002
}
1002
{
1000
NOSEL
1070
     0
1002
}
1002
{
1000
BEHIND
1070
     0
1002
}
1002
{
1000
REACTOR
1002
}
1001
GENIUS_GENOBJ-N-CEN_13
1002
{
1000
OWNER
1000
GEN
1002
}
  0
LINE
  5
1843
  8
1
 10
227.0000000000347
 20
45.0
 30
0.0
 11
227.0000000000484
 21
148.10000000002381
 31
0.0
1001
GENIUS_GENODEF_13
1002
{
1000
HIER
1070
     0
1002
}
1002
{
1000
MANEDIT
1070
     0
1002
}
1002
{
1000
NOSEL
1070
     0
1002
}
1002
{
1000
BEHIND
1070
     0
1002
}
1002
{
1000
REACTOR
1002
}
1001
GENIUS_GENOBJ-N-CEN_13
1002
{
1000
OWNER
1000
GEN
1002
}
  0
ARC
  5
1844
  8
0
 10
72.058887977828817
 20
50.499999999981704
 30
0.0
 40
0.5
 50
270.0
 51
311.8361163811183
  0
ARC
  5
1845
  8
0
 10
64.941112022175503
 20
50.499999999981583
 30
0.0
 40
0.5
 50
228.16388361888099
 51
270.0
  0
LINE
  5
1846
  8
0
 10
72.058887977828817
 20
49.999999999981704
 30
0.0
 11
64.941112022175503
 21
49.999999999981583
 31
0.0
  0
ARC
  5
1847
  8
0
 10
141.00000000001401
 20
67.700000000383397
 30
0.0
 40
3.9999999999995159
 50
179.99999999999261
 51
270.00000000002598
  0
ARC
  5
1848
  8
0
 10
141.0000000000158
 20
77.700000000383909
 30
0.0
 40
4.0
 50
135.0000000000006
 51
180.71728229467311
  0
LINE
  5
184B
  8
0
 10
54.000000000002963
 20
62.400000000028122
 30
0.0
 11
83.000000000003183
 21
62.400000000028122
 31
0.0
  0
LINE
  5
184E
  8
0
 10
50.000000000003183
 20
65.700000000372881
 30
0.0
 11
49.999999999996817
 21
79.699999999940189
 31
0.0
  0
LINE
  5
184F
  8
0
 10
53.999999999996817
 20
81.699999999940175
 30
0.0
 11
54.000000000003652
 21
62.400000000028101
 31
0.0
  0
LINE
  5
1850
  8
2
 10
72.500000000007276
 20
72.70000000033275
 30
0.0
 11
72.500000000007276
 21
81.700000000180694
 31
0.0
  0
LINE
  5
1851
  8
2
 10
73.000000000007276
 20
72.700000000385785
 30
0.0
 11
73.000000000007276
 21
81.700000000188822
 31
0.0
  0
LINE
  5
1852
  8
2
 10
71.733205000007274
 20
75.82500000033275
 30
0.0
 11
71.733205000007274
 21
81.700000000204284
 31
0.0
  0
LINE
  5
1853
  8
2
 10
64.500000000007276
 20
72.70000000033275
 30
0.0
 11
64.500000000007276
 21
81.700000000216576
 31
0.0
  0
LINE
  5
1854
  8
2
 10
64.000000000007276
 20
81.700000000188822
 30
0.0
 11
64.000000000007276
 21
72.700000000388044
 31
0.0
  0
LINE
  5
1855
  8
2
 10
65.266795000007278
 20
75.82500000033275
 30
0.0
 11
65.266795000007278
 21
81.700000000214914
 31
0.0
  0
ARC
  5
1857
  8
0
 10
52.00000000000319
 20
65.700000000372881
 30
0.0
 40
2.0
 50
180.0
 51
270.0
  0
LINE
  5
1858
  8
0
 10
85.000000000011354
 20
63.700000000372881
 30
0.0
 11
52.00000000000319
 21
63.700000000372881
 31
0.0
  0
LINE
  5
185A
  8
0
 10
64.500000000003411
 20
61.900000000081768
 30
0.0
 11
72.500000000003638
 21
61.900000000081768
 31
0.0
  0
LINE
  5
185B
  8
0
 10
72.500000000003411
 20
57.199999999981621
 30
0.0
 11
72.500000000003638
 21
62.400000000000936
 31
0.0
  0
LINE
  5
185C
  8
0
 10
64.500000000003411
 20
57.199999999981621
 30
0.0
 11
64.500000000003411
 21
62.400000000000936
 31
0.0
  0
LINE
  5
185D
  8
0
 10
77.500000000002274
 20
56.699999999981628
 30
0.0
 11
77.500000000002274
 21
54.92347171507015
 31
0.0
  0
ARC
  5
185E
  8
0
 10
77.000000000002274
 20
54.92347171507015
 30
0.0
 40
0.5
 50
311.8361163811183
 51
359.9999999999992
  0
ARC
  5
185F
  8
3
 10
73.250000000029786
 20
61.90000000004698
 30
0.0
 40
1.5
 50
160.52877936627601
 51
179.99999999870619
1001
GENIUS_GENODEF_13
1002
{
1000
HIER
1070
     0
1002
}
1002
{
1000
MANEDIT
1070
     0
1002
}
1002
{
1000
NOSEL
1070
     0
1002
}
1002
{
1000
BEHIND
1070
     0
1002
}
1002
{
1000
REACTOR
1002
}
1001
GENIUS_GENOBJ-N-FIL_13
1002
{
1000
OWNER
1000
GEN
1002
}
  0
LINE
  5
1860
  8
3
 10
71.750000000004093
 20
61.9000000000471
 30
0.0
 11
71.750000000003183
 21
57.199999999981621
 31
0.0
  0
ARC
  5
1861
  8
3
 10
63.749999999978627
 20
61.900000000048003
 30
0.0
 40
1.5
 50
0.0000000012815854
 51
19.47122063368208
1001
GENIUS_GENODEF_13
1002
{
1000
HIER
1070
     0
1002
}
1002
{
1000
MANEDIT
1070
     0
1002
}
1002
{
1000
NOSEL
1070
     0
1002
}
1002
{
1000
BEHIND
1070
     0
1002
}
1002
{
1000
REACTOR
1002
}
1001
GENIUS_GENOBJ-N-FIL_13
1002
{
1000
OWNER
1000
GEN
1002
}
  0
LINE
  5
1862
  8
0
 10
59.500000000002267
 20
56.699999999981628
 30
0.0
 11
59.500000000002267
 21
54.9234717150701
 31
0.0
  0
ARC
  5
1863
  8
0
 10
60.000000000002267
 20
54.9234717150701
 30
0.0
 40
0.5
 50
180.0000000000008
 51
228.16388361888099
  0
ARC
  5
1864
  8
0
 10
60.000000000002267
 20
56.699999999981628
 30
0.0
 40
0.5
 50
90.0
 51
180.0000000000008
  0
LINE
  5
1865
  8
3
 10
65.250000000004093
 20
61.900000000047903
 30
0.0
 11
65.250000000003183
 21
57.199999999981621
 31
0.0
  0
LINE
  5
1866
  8
0
 10
60.000000000002267
 20
57.199999999981621
 30
0.0
 11
77.000000000002274
 21
57.199999999981621
 31
0.0
  0
ARC
  5
1867
  8
0
 10
77.000000000002274
 20
56.699999999981628
 30
0.0
 40
0.5
 50
0.0
 51
90.0
  0
LINE
  5
1868
  8
2
 10
75.000000000007276
 20
65.500000000332761
 30
0.0
 11
62.000000000007269
 21
65.500000000332761
 31
0.0
  0
LINE
  5
1869
  8
2
 10
62.80000000000723
 20
64.70000000033275
 30
0.0
 11
74.200000000007321
 21
64.70000000033275
 31
0.0
  0
LINE
  5
186A
  8
2
 10
74.200000000007321
 20
64.70000000033275
 30
0.0
 11
75.000000000007276
 21
65.500000000332761
 31
0.0
  0
LINE
  5
186B
  8
2
 10
76.000000000007276
 20
63.700000000321097
 30
0.0
 11
76.000000000007276
 21
72.70000000033275
 31
0.0
  0
LINE
  5
186C
  8
2
 10
75.000000000007276
 20
65.500000000332761
 30
0.0
 11
75.000000000007276
 21
72.70000000033275
 31
0.0
  0
LINE
  5
186D
  8
2
 10
71.965000000007194
 20
68.70000000033275
 30
0.0
 11
68.500000000007276
 21
70.70051868307479
 31
0.0
  0
ARC
  5
186E
  8
2
 10
71.098750000007158
 20
67.586406254318547
 30
0.0
 40
1.4108437523914601
 50
52.121120508283248
 51
127.8788794917167
  0
ARC
  5
186F
  8
2
 10
65.901250000007167
 20
67.586406254318547
 30
0.0
 40
1.4108437523914601
 50
52.121120508283248
 51
127.8788794917167
  0
LINE
  5
1870
  8
2
 10
65.03500000000713
 20
68.70000000033275
 30
0.0
 11
68.500000000007276
 21
70.70051868307479
 31
0.0
  0
ARC
  5
1871
  8
2
 10
68.500000000007276
 20
63.799750006709992
 30
0.0
 40
5.1974999999999998
 50
70.528779365507106
 51
109.47122063449289
  0
LINE
  5
1872
  8
2
 10
65.03500000000713
 20
64.70000000033275
 30
0.0
 11
65.03500000000713
 21
68.70000000033275
 31
0.0
  0
LINE
  5
1873
  8
2
 10
66.767500000007203
 20
64.70000000033275
 30
0.0
 11
66.767500000007203
 21
68.70000000033275
 31
0.0
  0
LINE
  5
1874
  8
2
 10
70.232500000007121
 20
64.70000000033275
 30
0.0
 11
70.232500000007121
 21
68.70000000033275
 31
0.0
  0
LINE
  5
1875
  8
2
 10
71.965000000007194
 20
64.70000000033275
 30
0.0
 11
71.965000000007194
 21
68.70000000033275
 31
0.0
  0
LINE
  5
1876
  8
2
 10
62.80000000000723
 20
64.70000000033275
 30
0.0
 11
62.000000000007269
 21
65.500000000332761
 31
0.0
  0
LINE
  5
1877
  8
2
 10
61.000000000007269
 20
72.70000000033275
 30
0.0
 11
61.000000000007269
 21
63.700000000321097
 31
0.0
  0
LINE
  5
1878
  8
2
 10
62.000000000007269
 20
65.500000000332761
 30
0.0
 11
62.000000000007269
 21
72.70000000033275
 31
0.0
  0
LINE
  5
1879
  8
2
 10
61.000000000007269
 20
72.700000000332764
 30
0.0
 11
76.000000000007276
 21
72.70000000033275
 31
0.0
  0
LINE
  5
187E
  8
2
 10
72.500000000007276
 20
72.70000000033275
 30
0.0
 11
71.733205000007274
 21
75.82500000033275
 31
0.0
  0
LINE
  5
187F
  8
2
 10
64.500000000007276
 20
72.70000000033275
 30
0.0
 11
65.266795000007278
 21
75.82500000033275
 31
0.0
  0
LINE
  5
1881
  8
2
 10
64.500000000007276
 20
75.82500000033275
 30
0.0
 11
72.500000000007276
 21
75.82500000033275
 31
0.0
  0
LINE
  5
1883
  8
0
 10
51.999999999996817
 20
81.699999999940175
 30
0.0
 11
85.000000000017735
 21
81.699999999940175
 31
0.0
  0
ARC
  5
1884
  8
0
 10
51.999999999996817
 20
79.699999999940189
 30
0.0
 40
2.0
 50
90.0
 51
180.0
  0
LINE
  5
1889
  8
0
 10
72.500000000007276
 20
81.700000000180694
 30
0.0
 11
72.500000000007276
 21
86.200000000216335
 31
0.0
  0
LINE
  5
188A
  8
3
 10
71.733205000007274
 20
81.700000000204284
 30
0.0
 11
71.733205000007274
 21
86.200000000216335
 31
0.0
  0
LINE
  5
188B
  8
0
 10
64.500000000007276
 20
81.700000000216576
 30
0.0
 11
64.500000000007276
 21
86.200000000216335
 31
0.0
  0
LINE
  5
188C
  8
3
 10
65.266795000007278
 20
81.700000000214914
 30
0.0
 11
65.266795000007278
 21
86.200000000216335
 31
0.0
  0
ARC
  5
1891
  8
0
 10
68.500000000007276
 20
89.500000000243631
 30
0.0
 40
4.0
 50
47.702441896767013
 51
90.0
  0
ARC
  5
1892
  8
0
 10
68.500000000007276
 20
89.500000000243631
 30
0.0
 40
3.9999999999999938
 50
90.0
 51
132.29755810328959
  0
ARC
  5
1893
  8
0
 10
68.500000000007276
 20
91.950000000242653
 30
0.0
 40
1.9999999999999749
 50
37.733517642180743
 51
142.26648235782179
  0
ARC
  5
1894
  8
0
 10
60.391160642163861
 20
80.652611354700412
 30
0.0
 40
16.001211818305251
 50
20.284720962333878
 51
47.546115055092429
  0
LINE
  5
1895
  8
0
 10
75.400000000007822
 20
86.200000000243506
 30
0.0
 11
61.60000000000673
 21
86.200000000243506
 31
0.0
  0
ARC
  5
1896
  8
0
 10
76.608839357843863
 20
80.652611354705357
 30
0.0
 40
16.00121181829692
 50
132.4538849449136
 51
159.71527903767389
  0
LINE
  5
1897
  8
0
 10
83.000000000017735
 20
81.699999999940175
 30
0.0
 11
83.000000000010886
 21
62.400000000028101
 31
0.0
  0
LINE
  5
1898
  8
0
 10
87.000000000011369
 20
65.700000000372881
 30
0.0
 11
87.000000000017735
 21
79.699999999940189
 31
0.0
  0
LINE
  5
1899
  8
0
 10
137.00000000001441
 20
67.700000000383852
 30
0.0
 11
137.0000000000158
 21
77.700000000383909
 31
0.0
  0
ARC
  5
189B
  8
0
 10
85.000000000011354
 20
65.700000000372881
 30
0.0
 40
2.0
 50
270.0
 51
0.0
  0
ARC
  5
189E
  8
0
 10
85.000000000017735
 20
79.699999999940189
 30
0.0
 40
2.0
 50
0.0
 51
90.0
  0
LINE
  5
1903
  8
3
 10
139.50005843546739
 20
77.69999999995099
 30
0.0
 11
139.5000584354687
 21
67.700000000071157
 31
0.0
  0
LINE
  5
1904
  8
2
 10
152.49999999994481
 20
81.700000000215994
 30
0.0
 11
152.49999999994481
 21
72.70000000041523
 31
0.0
  0
LINE
  5
1905
  8
2
 10
161.49999999994481
 20
72.700000000412956
 30
0.0
 11
161.49999999994481
 21
81.700000000215994
 31
0.0
  0
LINE
  5
1906
  8
1
 10
156.99999999994481
 20
58.700000000383866
 30
0.0
 11
156.99999999994481
 21
98.50000000024346
 31
0.0
  0
LINE
  5
1907
  8
2
 10
152.99999999994481
 20
72.700000000359921
 30
0.0
 11
152.99999999994481
 21
81.700000000243733
 31
0.0
  0
LINE
  5
1908
  8
2
 10
160.99999999994481
 20
72.700000000359921
 30
0.0
 11
160.99999999994481
 21
81.700000000207865
 31
0.0
  0
LINE
  5
1909
  8
2
 10
160.2332049999448
 20
75.825000000359921
 30
0.0
 11
160.2332049999448
 21
81.700000000231455
 31
0.0
  0
LINE
  5
190A
  8
2
 10
153.76679499994481
 20
75.825000000359921
 30
0.0
 11
153.76679499994481
 21
81.700000000242085
 31
0.0
  0
LINE
  5
190F
  8
2
 10
151.29999999994479
 20
64.700000000359921
 30
0.0
 11
162.69999999994491
 21
64.700000000359921
 31
0.0
  0
LINE
  5
1910
  8
2
 10
163.49999999994481
 20
65.500000000359933
 30
0.0
 11
150.49999999994481
 21
65.500000000359933
 31
0.0
  0
LINE
  5
1911
  8
2
 10
152.99999999994481
 20
72.700000000359921
 30
0.0
 11
153.76679499994481
 21
75.825000000359921
 31
0.0
  0
LINE
  5
1913
  8
2
 10
160.99999999994481
 20
72.700000000359921
 30
0.0
 11
160.2332049999448
 21
75.825000000359921
 31
0.0
  0
LINE
  5
1914
  8
2
 10
152.99999999994481
 20
75.825000000359921
 30
0.0
 11
160.99999999994481
 21
75.825000000359921
 31
0.0
  0
ARC
  5
1915
  8
2
 10
156.99999999994481
 20
63.799750006737163
 30
0.0
 40
5.1974999999999998
 50
70.528779365507106
 51
109.47122063449289
  0
ARC
  5
1916
  8
2
 10
154.4012499999447
 20
67.586406254345718
 30
0.0
 40
1.4108437523914601
 50
52.121120508283248
 51
127.8788794917167
  0
ARC
  5
1917
  8
2
 10
159.59874999994491
 20
67.586406254345718
 30
0.0
 40
1.4108437523914601
 50
52.121120508283248
 51
127.8788794917167
  0
LINE
  5
1918
  8
2
 10
160.46499999994501
 20
68.700000000359921
 30
0.0
 11
156.99999999994481
 21
70.700518683101961
 31
0.0
  0
LINE
  5
1919
  8
2
 10
153.53499999994469
 20
68.700000000359921
 30
0.0
 11
156.99999999994481
 21
70.700518683101961
 31
0.0
  0
LINE
  5
191C
  8
2
 10
151.29999999994479
 20
64.700000000359921
 30
0.0
 11
150.49999999994481
 21
65.500000000359933
 31
0.0
  0
LINE
  5
191D
  8
2
 10
149.49999999994481
 20
72.700000000359921
 30
0.0
 11
149.49999999994481
 21
63.700000000348268
 31
0.0
  0
ARC
  5
191E
  8
3
 10
141.0000584354687
 20
67.700000000071384
 30
0.0
 40
1.5
 50
180.0000000000081
 51
270.00000000016291
1001
GENIUS_GENODEF_13
1002
{
1000
HIER
1070
     0
1002
}
1002
{
1000
MANEDIT
1070
     0
1002
}
1002
{
1000
NOSEL
1070
     0
1002
}
1002
{
1000
BEHIND
1070
     0
1002
}
1002
{
1000
REACTOR
1002
}
1001
GENIUS_GENOBJ-N-FIL_13
1002
{
1000
OWNER
1000
GEN
1002
}
  0
LINE
  5
191F
  8
2
 10
150.49999999994481
 20
65.500000000359933
 30
0.0
 11
150.49999999994481
 21
72.700000000359921
 31
0.0
  0
LINE
  5
1920
  8
2
 10
160.46499999994501
 20
64.700000000359921
 30
0.0
 11
160.46499999994501
 21
68.700000000359921
 31
0.0
  0
LINE
  5
1921
  8
2
 10
158.73249999994491
 20
64.700000000359921
 30
0.0
 11
158.73249999994491
 21
68.700000000359921
 31
0.0
  0
LINE
  5
1922
  8
2
 10
155.26749999994479
 20
64.700000000359921
 30
0.0
 11
155.26749999994479
 21
68.700000000359921
 31
0.0
  0
LINE
  5
1923
  8
2
 10
153.53499999994469
 20
64.700000000359921
 30
0.0
 11
153.53499999994469
 21
68.700000000359921
 31
0.0
  0
LINE
  5
1924
  8
3
 10
252.99999999999841
 20
66.200000000383497
 30
0.0
 11
141.00005843547291
 21
66.200000000071455
 31
0.0
  0
LINE
  5
1925
  8
2
 10
149.49999999994481
 20
72.700000000359921
 30
0.0
 11
164.49999999994481
 21
72.700000000359921
 31
0.0
  0
LINE
  5
1926
  8
2
 10
162.69999999994491
 20
64.700000000359921
 30
0.0
 11
163.49999999994481
 21
65.500000000359933
 31
0.0
  0
LINE
  5
1927
  8
2
 10
164.49999999994481
 20
63.700000000348268
 30
0.0
 11
164.49999999994481
 21
72.700000000359921
 31
0.0
  0
LINE
  5
1928
  8
2
 10
163.49999999994481
 20
65.500000000359933
 30
0.0
 11
163.49999999994481
 21
72.700000000359921
 31
0.0
  0
LINE
  5
192A
  8
0
 10
160.8999999999499
 20
93.500000000243503
 30
0.0
 11
163.9499999999492
 21
93.500000000243503
 31
0.0
  0
LINE
  5
192C
  8
0
 10
172.49999999994941
 20
86.200000000243506
 30
0.0
 11
149.49999999994941
 21
86.200000000243506
 31
0.0
  0
LINE
  5
192D
  8
0
 10
160.99999999994481
 20
81.700000000207865
 30
0.0
 11
160.99999999994481
 21
86.200000000243506
 31
0.0
  0
LINE
  5
192E
  8
3
 10
160.2332049999448
 20
81.700000000231455
 30
0.0
 11
160.2332049999448
 21
86.200000000243506
 31
0.0
  0
LINE
  5
192F
  8
3
 10
153.76679499994481
 20
81.700000000242085
 30
0.0
 11
153.76679499994481
 21
86.200000000243506
 31
0.0
  0
LINE
  5
1930
  8
0
 10
152.99999999994481
 20
81.700000000243733
 30
0.0
 11
152.99999999994481
 21
86.200000000243506
 31
0.0
  0
LINE
  5
1931
  8
0
 10
159.98711669599001
 20
92.700000000359921
 30
0.0
 11
154.01288330390881
 21
92.700000000359921
 31
0.0
  0
ARC
  5
1932
  8
0
 10
156.99999999994941
 20
97.029458653520194
 30
0.0
 40
5.2599504166094118
 50
222.144761267538
 51
317.855238732462
  0
LINE
  5
1933
  8
0
 10
149.49999999994941
 20
93.500000000243503
 30
0.0
 11
153.09999999994881
 21
93.500000000243503
 31
0.0
  0
ARC
  5
1934
  8
0
 10
141.0000000000158
 20
77.700000000383852
 30
0.0
 40
4.0
 50
89.999999999837158
 51
135.0
  0
LINE
  5
1936
  8
0
 10
149.49999999994941
 20
86.200000000243506
 30
0.0
 11
149.49999999994941
 21
93.500000000243503
 31
0.0
  0
ARC
  5
1937
  8
3
 10
141.00005843546739
 20
77.699999999951217
 30
0.0
 40
1.5
 50
90.0
 51
180.0000000000081
1001
GENIUS_GENODEF_13
1002
{
1000
HIER
1070
     0
1002
}
1002
{
1000
MANEDIT
1070
     0
1002
}
1002
{
1000
NOSEL
1070
     0
1002
}
1002
{
1000
BEHIND
1070
     0
1002
}
1002
{
1000
REACTOR
1002
}
1001
GENIUS_GENOBJ-N-FIL_13
1002
{
1000
OWNER
1000
GEN
1002
}
  0
LINE
  5
1938
  8
3
 10
252.999999999994
 20
79.199999999951231
 30
0.0
 11
141.00005843546739
 21
79.199999999951203
 31
0.0
  0
LINE
  5
1939
  8
0
 10
172.49999999994941
 20
93.500000000243503
 30
0.0
 11
172.49999999994941
 21
86.200000000243506
 31
0.0
  0
ARC
  5
193A
  8
0
 10
165.99999999994941
 20
96.934748899381873
 30
0.0
 40
4.0000000000165139
 50
239.16950256835321
 51
300.83049743164651
  0
ARC
  5
193B
  8
0
 10
165.99999999994941
 20
91.950000000243961
 30
0.0
 40
2.0
 50
40.11707006304664
 51
139.8829299369533
  0
LINE
  5
193C
  8
0
 10
168.04999999994959
 20
93.50000000024346
 30
0.0
 11
172.49999999994941
 21
93.50000000024346
 31
0.0
  0
LINE
  5
193D
  8
0
 10
245.2410924373452
 20
62.400000000046397
 30
0.0
 11
208.75890756268231
 21
62.400000000046411
 31
0.0
  0
LINE
  5
193E
  8
0
 10
208.75890756268231
 20
62.400000000046411
 30
0.0
 11
208.75890756268231
 21
63.607321296239597
 31
0.0
  0
LINE
  5
193F
  8
0
 10
231.00000000003689
 20
57.199999999999982
 30
0.0
 11
231.0000000000372
 21
62.40000000001924
 31
0.0
  0
LINE
  5
1940
  8
0
 10
223.00000000003689
 20
61.900000000100079
 30
0.0
 11
231.0000000000372
 21
61.900000000100079
 31
0.0
  0
LINE
  5
1941
  8
0
 10
223.00000000003689
 20
57.199999999999982
 30
0.0
 11
223.00000000003689
 21
62.40000000001924
 31
0.0
  0
ARC
  5
1942
  8
3
 10
231.7500000000631
 20
61.90000000006534
 30
0.0
 40
1.5
 50
160.52877936627601
 51
179.99999999870619
1001
GENIUS_GENODEF_13
1002
{
1000
HIER
1070
     0
1002
}
1002
{
1000
MANEDIT
1070
     0
1002
}
1002
{
1000
NOSEL
1070
     0
1002
}
1002
{
1000
BEHIND
1070
     0
1002
}
1002
{
1000
REACTOR
1002
}
1001
GENIUS_GENOBJ-N-FIL_13
1002
{
1000
OWNER
1000
GEN
1002
}
  0
ARC
  5
1943
  8
3
 10
222.25000000001199
 20
61.90000000006637
 30
0.0
 40
1.5
 50
0.0000000012815854
 51
19.47122063368208
1001
GENIUS_GENODEF_13
1002
{
1000
HIER
1070
     0
1002
}
1002
{
1000
MANEDIT
1070
     0
1002
}
1002
{
1000
NOSEL
1070
     0
1002
}
1002
{
1000
BEHIND
1070
     0
1002
}
1002
{
1000
REACTOR
1002
}
1001
GENIUS_GENOBJ-N-FIL_13
1002
{
1000
OWNER
1000
GEN
1002
}
  0
LINE
  5
1944
  8
3
 10
230.2500000000376
 20
61.900000000065461
 30
0.0
 11
230.25000000003629
 21
57.199999999999982
 31
0.0
  0
LINE
  5
1945
  8
3
 10
223.7500000000376
 20
61.900000000066193
 30
0.0
 11
223.75000000003629
 21
57.199999999999982
 31
0.0
  0
LINE
  5
195F
  8
0
 10
137.000000000071
 20
207.5059046010376
 30
0.0
 11
256.99999999999028
 21
207.505904601026
 31
0.0
  0
ARC
  5
1960
  8
0
 10
139.000000000071
 20
205.50590460103771
 30
0.0
 40
2.0
 50
180.0
 51
270.0
  0
LINE
  5
1964
  8
0
 10
254.99999999999039
 20
203.5059046010262
 30
0.0
 11
139.000000000071
 21
203.50590460103771
 31
0.0
  0
LINE
  5
1967
  8
0
 10
172.49999999994481
 20
215.10590460102759
 30
0.0
 11
149.49999999994481
 21
215.10590460102759
 31
0.0
  0
LINE
  5
1968
  8
0
 10
149.49999999994481
 20
228.9059046010276
 30
0.0
 11
172.49999999994481
 21
228.9059046010276
 31
0.0
  0
CIRCLE
  5
196B
  8
0
 10
156.99999999994481
 20
222.00590460102759
 30
0.0
 40
3.900000000000019
  0
LINE
  5
196C
  8
0
 10
149.49999999994481
 20
215.10590460102759
 30
0.0
 11
149.49999999994481
 21
228.9059046010276
 31
0.0
  0
CIRCLE
  5
196D
  8
0
 10
165.99999999994941
 20
222.00590460102759
 30
0.0
 40
1.5294589279820341
  0
LINE
  5
196E
  8
0
 10
172.49999999994481
 20
215.10590460102759
 30
0.0
 11
172.49999999994481
 21
228.9059046010276
 31
0.0
  0
ARC
  5
1980
  8
0
 10
139.000000000071
 20
238.5059046010586
 30
0.0
 40
2.0
 50
90.0
 51
180.0
  0
LINE
  5
1981
  8
0
 10
137.000000000071
 20
236.5059046010586
 30
0.0
 11
256.99999999999397
 21
236.50590460103459
 31
0.0
  0
LINE
  5
1982
  8
0
 10
137.000000000071
 20
238.5059046010586
 30
0.0
 11
137.000000000071
 21
205.50590460103771
 31
0.0
  0
LINE
  5
1983
  8
0
 10
254.99999999999099
 20
240.50590460103459
 30
0.0
 11
139.000000000071
 21
240.5059046010586
 31
0.0
  0
LINE
  5
198A
  8
0
 10
346.73450404371061
 20
54.55094386355961
 30
0.0
 11
351.67561606588401
 21
50.127472148471043
 31
0.0
  0
LINE
  5
198B
  8
0
 10
364.4015062921294
 20
54.55094386355961
 30
0.0
 11
359.46039426995623
 21
50.127472148471163
 31
0.0
  0
LINE
  5
198C
  8
1
 10
355.56800516791941
 20
44.999999999981618
 30
0.0
 11
355.5680051679339
 21
158.50708094228099
 31
0.0
1001
GENIUS_GENODEF_13
1002
{
1000
HIER
1070
     0
1002
}
1002
{
1000
MANEDIT
1070
     0
1002
}
1002
{
1000
NOSEL
1070
     0
1002
}
1002
{
1000
BEHIND
1070
     0
1002
}
1002
{
1000
REACTOR
1002
}
1001
GENIUS_GENOBJ-N-CEN_13
1002
{
1000
OWNER
1000
GEN
1002
}
  0
LINE
  5
198D
  8
0
 10
256.9999999999942
 20
57.199999999999982
 30
0.0
 11
256.9999999999942
 21
50.0
 31
0.0
  0
LINE
  5
198E
  8
0
 10
359.12689314574669
 20
49.999999999981704
 30
0.0
 11
352.00911719009332
 21
49.999999999981583
 31
0.0
  0
ARC
  5
198F
  8
0
 10
352.00911719009332
 20
50.499999999981583
 30
0.0
 40
0.5
 50
228.16388361888099
 51
270.0
  0
ARC
  5
1990
  8
0
 10
359.12689314574669
 20
50.499999999981704
 30
0.0
 40
0.5
 50
270.0
 51
311.83611638111842
  0
LINE
  5
1992
  8
0
 10
256.99999999999397
 20
77.699999999951274
 30
0.0
 11
256.9999999999942
 21
67.700000000383966
 31
0.0
  0
LINE
  5
1993
  8
3
 10
254.499999999994
 20
77.69999999995099
 30
0.0
 11
254.49999999999241
 21
67.700000000383682
 31
0.0
  0
ARC
  5
1995
  8
3
 10
252.9999999999942
 20
67.700000000383397
 30
0.0
 40
1.5
 50
270.00000000000392
 51
0.0000000000122133
1001
GENIUS_GENODEF_13
1002
{
1000
HIER
1070
     0
1002
}
1002
{
1000
MANEDIT
1070
     0
1002
}
1002
{
1000
NOSEL
1070
     0
1002
}
1002
{
1000
BEHIND
1070
     0
1002
}
1002
{
1000
REACTOR
1002
}
1001
GENIUS_GENOBJ-N-FIL_13
1002
{
1000
OWNER
1000
GEN
1002
}
  0
LINE
  5
1996
  8
0
 10
252.9999999999942
 20
63.700000000383852
 30
0.0
 11
141.0000000000139
 21
63.700000000384662
 31
0.0
  0
LINE
  5
1997
  8
0
 10
245.2410924373452
 20
62.400000000046482
 30
0.0
 11
245.2410924373454
 21
63.607106772920531
 31
0.0
  0
ARC
  5
1998
  8
0
 10
252.9999999999942
 20
67.700000000383909
 30
0.0
 40
4.0
 50
270.0
 51
0.0000000000008142
1001
GENIUS_GENODEF_13
1002
{
1000
HIER
1070
     0
1002
}
1002
{
1000
MANEDIT
1070
     0
1002
}
1002
{
1000
NOSEL
1070
     0
1002
}
1002
{
1000
BEHIND
1070
     0
1002
}
1002
{
1000
REACTOR
1002
}
1001
GENIUS_GENOBJ-N-FIL_13
1002
{
1000
OWNER
1000
GEN
1002
}
  0
ARC
  5
199A
  8
0
 10
252.999999999994
 20
77.69999999995116
 30
0.0
 40
4.0
 50
0.0000000000016284
 51
89.999999999837158
1001
GENIUS_GENODEF_13
1002
{
1000
HIER
1070
     0
1002
}
1002
{
1000
MANEDIT
1070
     0
1002
}
1002
{
1000
NOSEL
1070
     0
1002
}
1002
{
1000
BEHIND
1070
     0
1002
}
1002
{
1000
REACTOR
1002
}
1001
GENIUS_GENOBJ-N-FIL_13
1002
{
1000
OWNER
1000
GEN
1002
}
  0
ARC
  5
199B
  8
3
 10
252.999999999994
 20
77.69999999995116
 30
0.0
 40
1.5
 50
359.99999999999193
 51
90.0
1001
GENIUS_GENODEF_13
1002
{
1000
HIER
1070
     0
1002
}
1002
{
1000
MANEDIT
1070
     0
1002
}
1002
{
1000
NOSEL
1070
     0
1002
}
1002
{
1000
BEHIND
1070
     0
1002
}
1002
{
1000
REACTOR
1002
}
1001
GENIUS_GENOBJ-N-FIL_13
1002
{
1000
OWNER
1000
GEN
1002
}
  0
ARC
  5
19A1
  8
2
 10
355.56800516792509
 20
89.500000000243631
 30
0.0
 40
4.0
 50
47.702441896767013
 51
90.0
  0
LINE
  5
19A3
  8
2
 10
351.56800516792509
 20
75.82500000033275
 30
0.0
 11
359.56800516792509
 21
75.82500000033275
 31
0.0
  0
LINE
  5
19A4
  8
0
 10
346.06800516794442
 20
81.700000000022612
 30
0.0
 11
365.06800516794419
 21
81.699999999969634
 31
0.0
  0
LINE
  5
19A5
  8
2
 10
362.46800516792558
 20
86.200000000243506
 30
0.0
 11
348.66800516792449
 21
86.200000000243506
 31
0.0
  0
LINE
  5
19A7
  8
0
 10
351.56800516792123
 20
61.900000000081768
 30
0.0
 11
359.5680051679214
 21
61.900000000081768
 31
0.0
  0
LINE
  5
19A9
  8
2
 10
359.03300516792501
 20
68.70000000033275
 30
0.0
 11
355.56800516792509
 21
70.70051868307479
 31
0.0
  0
ARC
  5
19AA
  8
2
 10
358.16675516792498
 20
67.586406254318547
 30
0.0
 40
1.4108437523914601
 50
52.121120508283312
 51
127.8788794917166
  0
LINE
  5
19AB
  8
0
 10
341.06800516792077
 20
62.400000000028122
 30
0.0
 11
370.068005167921
 21
62.400000000028122
 31
0.0
  0
LINE
  5
19AC
  8
2
 10
362.06800516792509
 20
65.500000000332761
 30
0.0
 11
349.06800516792509
 21
65.500000000332761
 31
0.0
  0
LINE
  5
19AD
  8
2
 10
349.86800516792499
 20
64.70000000033275
 30
0.0
 11
361.2680051679252
 21
64.70000000033275
 31
0.0
  0
LINE
  5
19B0
  8
0
 10
347.06800516792009
 20
57.199999999981621
 30
0.0
 11
364.06800516792009
 21
57.199999999981621
 31
0.0
  0
LINE
  5
19B1
  8
2
 10
352.3348001679251
 20
75.82500000033275
 30
0.0
 11
352.3348001679251
 21
81.700000000214914
 31
0.0
  0
LINE
  5
19B2
  8
0
 10
341.06800516791458
 20
81.699999999940175
 30
0.0
 11
341.068005167921
 21
63.700000000372881
 31
0.0
  0
LINE
  5
19B3
  8
2
 10
351.56800516792509
 20
72.70000000033275
 30
0.0
 11
351.56800516792509
 21
81.700000000216576
 31
0.0
  0
LINE
  5
19B4
  8
2
 10
351.06800516792509
 20
81.700000000188822
 30
0.0
 11
351.06800516792509
 21
72.700000000388044
 31
0.0
  0
LINE
  5
19B5
  8
0
 10
337.068005167921
 20
65.700000000372881
 30
0.0
 11
337.06800516791458
 21
79.699999999940189
 31
0.0
  0
LINE
  5
19B7
  8
0
 10
372.06800516792919
 20
63.700000000372881
 30
0.0
 11
339.068005167921
 21
63.700000000372881
 31
0.0
  0
LINE
  5
19B8
  8
0
 10
341.06800516792077
 20
62.400000000028122
 30
0.0
 11
341.068005167921
 21
63.700000000372881
 31
0.0
  0
LINE
  5
19B9
  8
2
 10
349.86800516792499
 20
64.70000000033275
 30
0.0
 11
349.06800516792509
 21
65.500000000332761
 31
0.0
  0
LINE
  5
19BA
  8
2
 10
348.06800516792509
 20
72.70000000033275
 30
0.0
 11
348.06800516792509
 21
63.700000000321097
 31
0.0
  0
LINE
  5
19BB
  8
2
 10
349.06800516792509
 20
65.500000000332761
 30
0.0
 11
349.06800516792509
 21
72.70000000033275
 31
0.0
  0
ARC
  5
19BE
  8
3
 10
350.81800516789639
 20
61.900000000048003
 30
0.0
 40
1.5
 50
0.0000000012815854
 51
19.47122063368208
1001
GENIUS_GENODEF_13
1002
{
1000
HIER
1070
     0
1002
}
1002
{
1000
MANEDIT
1070
     0
1002
}
1002
{
1000
NOSEL
1070
     0
1002
}
1002
{
1000
BEHIND
1070
     0
1002
}
1002
{
1000
REACTOR
1002
}
1001
GENIUS_GENOBJ-N-FIL_13
1002
{
1000
OWNER
1000
GEN
1002
}
  0
ARC
  5
19BF
  8
2
 10
352.96925516792498
 20
67.586406254318547
 30
0.0
 40
1.4108437523914601
 50
52.121120508283312
 51
127.8788794917166
  0
LINE
  5
19C0
  8
2
 10
352.10300516792489
 20
68.70000000033275
 30
0.0
 11
355.56800516792509
 21
70.70051868307479
 31
0.0
  0
ARC
  5
19C1
  8
2
 10
355.56800516792509
 20
63.799750006709992
 30
0.0
 40
5.1974999999999998
 50
70.528779365507049
 51
109.47122063449289
  0
LINE
  5
19C2
  8
2
 10
352.10300516792489
 20
64.70000000033275
 30
0.0
 11
352.10300516792489
 21
68.70000000033275
 31
0.0
  0
LINE
  5
19C3
  8
2
 10
353.83550516792502
 20
64.70000000033275
 30
0.0
 11
353.83550516792502
 21
68.70000000033275
 31
0.0
  0
LINE
  5
19C4
  8
2
 10
357.30050516792488
 20
64.70000000033275
 30
0.0
 11
357.30050516792488
 21
68.70000000033275
 31
0.0
  0
LINE
  5
19C5
  8
2
 10
351.56800516792509
 20
72.70000000033275
 30
0.0
 11
352.3348001679251
 21
75.82500000033275
 31
0.0
  0
ARC
  5
19C6
  8
0
 10
339.068005167921
 20
65.700000000372881
 30
0.0
 40
2.0
 50
180.0
 51
270.0
  0
LINE
  5
19C7
  8
0
 10
346.56800516792009
 20
56.699999999981628
 30
0.0
 11
346.56800516792009
 21
54.9234717150701
 31
0.0
  0
ARC
  5
19C8
  8
0
 10
347.06800516792009
 20
54.9234717150701
 30
0.0
 40
0.5
 50
180.0000000000008
 51
228.16388361888099
  0
ARC
  5
19C9
  8
0
 10
347.06800516792009
 20
56.699999999981628
 30
0.0
 40
0.5
 50
90.0
 51
180.0000000000008
  0
LINE
  5
19CA
  8
0
 10
351.56800516792123
 20
57.199999999981621
 30
0.0
 11
351.56800516792123
 21
62.400000000000936
 31
0.0
  0
LINE
  5
19CB
  8
3
 10
352.31800516792191
 20
61.900000000047903
 30
0.0
 11
352.318005167921
 21
57.199999999981621
 31
0.0
  0
ARC
  5
19CC
  8
2
 10
355.56800516792509
 20
89.500000000243631
 30
0.0
 40
3.9999999999999938
 50
90.0
 51
132.29755810328959
  0
ARC
  5
19CD
  8
2
 10
355.56800516792509
 20
91.950000000242653
 30
0.0
 40
1.9999999999999749
 50
37.733517642180722
 51
142.2664823578219
  0
LINE
  5
19CF
  8
0
 10
339.06800516791458
 20
81.699999999940175
 30
0.0
 11
372.06800516793561
 21
81.699999999940175
 31
0.0
  0
LINE
  5
19D0
  8
2
 10
351.56800516792509
 20
81.700000000216576
 30
0.0
 11
351.56800516792509
 21
86.200000000216335
 31
0.0
  0
LINE
  5
19D5
  8
2
 10
352.3348001679251
 20
81.700000000214914
 30
0.0
 11
352.3348001679251
 21
86.200000000216335
 31
0.0
  0
ARC
  5
19D6
  8
0
 10
339.06800516791458
 20
79.699999999940189
 30
0.0
 40
2.0
 50
90.0
 51
180.0
  0
ARC
  5
19D7
  8
2
 10
363.67684452576168
 20
80.652611354705357
 30
0.0
 40
16.00121181829692
 50
132.4538849449136
 51
159.71527903767389
  0
LINE
  5
19D8
  8
2
 10
358.80121016792509
 20
75.82500000033275
 30
0.0
 11
358.80121016792509
 21
81.700000000204284
 31
0.0
  0
LINE
  5
19D9
  8
0
 10
370.06800516793561
 20
81.699999999940175
 30
0.0
 11
370.06800516792919
 21
63.700000000372881
 31
0.0
  0
LINE
  5
19DA
  8
0
 10
374.06800516792919
 20
65.700000000372881
 30
0.0
 11
374.06800516793561
 21
79.699999999940189
 31
0.0
  0
LINE
  5
19DB
  8
2
 10
359.56800516792509
 20
72.70000000033275
 30
0.0
 11
359.56800516792509
 21
81.700000000180694
 31
0.0
  0
LINE
  5
19DC
  8
2
 10
360.06800516792509
 20
72.700000000385785
 30
0.0
 11
360.06800516792509
 21
81.700000000188822
 31
0.0
  0
ARC
  5
19DD
  8
0
 10
372.06800516792919
 20
65.700000000372881
 30
0.0
 40
2.0
 50
270.0
 51
0.0
  0
LINE
  5
19DF
  8
0
 10
370.068005167921
 20
62.400000000028122
 30
0.0
 11
370.06800516792123
 21
63.700000000369243
 31
0.0
  0
LINE
  5
19E0
  8
2
 10
361.2680051679252
 20
64.70000000033275
 30
0.0
 11
362.06800516792509
 21
65.500000000332761
 31
0.0
  0
LINE
  5
19E1
  8
2
 10
363.06800516792509
 20
63.700000000321097
 30
0.0
 11
363.06800516792509
 21
72.70000000033275
 31
0.0
  0
LINE
  5
19E2
  8
2
 10
362.06800516792509
 20
65.500000000332761
 30
0.0
 11
362.06800516792509
 21
72.70000000033275
 31
0.0
  0
LINE
  5
19E3
  8
2
 10
348.06800516792509
 20
72.700000000332764
 30
0.0
 11
363.06800516792509
 21
72.70000000033275
 31
0.0
  0
ARC
  5
19E4
  8
3
 10
360.3180051679476
 20
61.90000000004698
 30
0.0
 40
1.5
 50
160.52877936627601
 51
179.99999999870619
1001
GENIUS_GENODEF_13
1002
{
1000
HIER
1070
     0
1002
}
1002
{
1000
MANEDIT
1070
     0
1002
}
1002
{
1000
NOSEL
1070
     0
1002
}
1002
{
1000
BEHIND
1070
     0
1002
}
1002
{
1000
REACTOR
1002
}
1001
GENIUS_GENOBJ-N-FIL_13
1002
{
1000
OWNER
1000
GEN
1002
}
  0
LINE
  5
19E5
  8
2
 10
359.03300516792501
 20
64.70000000033275
 30
0.0
 11
359.03300516792501
 21
68.70000000033275
 31
0.0
  0
LINE
  5
19E7
  8
2
 10
359.56800516792509
 20
72.70000000033275
 30
0.0
 11
358.80121016792509
 21
75.82500000033275
 31
0.0
  0
LINE
  5
19E8
  8
0
 10
364.56800516792009
 20
56.699999999981628
 30
0.0
 11
364.56800516792009
 21
54.92347171507015
 31
0.0
  0
ARC
  5
19E9
  8
0
 10
364.06800516792009
 20
54.92347171507015
 30
0.0
 40
0.5
 50
311.83611638111842
 51
359.9999999999992
  0
ARC
  5
19EA
  8
0
 10
364.06800516792009
 20
56.699999999981628
 30
0.0
 40
0.5
 50
0.0
 51
90.0
  0
LINE
  5
19EB
  8
0
 10
359.56800516792123
 20
57.199999999981621
 30
0.0
 11
359.5680051679214
 21
62.400000000000936
 31
0.0
  0
LINE
  5
19EC
  8
3
 10
358.81800516792191
 20
61.9000000000471
 30
0.0
 11
358.818005167921
 21
57.199999999981621
 31
0.0
  0
ARC
  5
19ED
  8
0
 10
372.06800516793561
 20
79.699999999940189
 30
0.0
 40
2.0
 50
0.0
 51
90.0
  0
LINE
  5
19F0
  8
2
 10
359.56800516792509
 20
81.700000000180694
 30
0.0
 11
359.56800516792509
 21
86.200000000216335
 31
0.0
  0
LINE
  5
19F1
  8
2
 10
358.80121016792509
 20
81.700000000204284
 30
0.0
 11
358.80121016792509
 21
86.200000000216335
 31
0.0
  0
ARC
  5
19F3
  8
2
 10
347.45916581008169
 20
80.652611354700412
 30
0.0
 40
16.001211818305251
 50
20.284720962333878
 51
47.546115055092429
  0
LINE
  5
1A10
  8
0
 10
256.99999999999028
 20
213.00590460102759
 30
0.0
 11
256.99999999999028
 21
205.5059046010262
 31
0.0
  0
ARC
  5
1A11
  8
0
 10
254.99999999999059
 20
205.5059046010262
 30
0.0
 40
2.0
 50
270.0
 51
0.0
  0
ARC
  5
1A15
  8
0
 10
254.99999999999059
 20
238.50590460103459
 30
0.0
 40
2.0
 50
0.0
 51
90.0
  0
LINE
  5
1A16
  8
0
 10
257.00000000000227
 20
231.00590460102759
 30
0.0
 11
257.00000000001171
 21
238.5059046010287
 31
0.0
  0
LINE
  5
1A2E
  8
1
 10
165.8999999999449
 20
222.00590460102759
 30
0.0
 11
148.0999999999448
 21
222.00590460102759
 31
0.0
  0
LINE
  5
1A2F
  8
1
 10
156.99999999994481
 20
230.9059046010276
 30
0.0
 11
156.99999999994481
 21
213.10590460102759
 31
0.0
  0
CIRCLE
  5
1A31
  8
3
 10
156.99999999994481
 20
222.00590460102759
 30
0.0
 40
3.2332049999999981
  0
LINE
  5
1A32
  8
1
 10
292.14148591770709
 20
222.00590460102759
 30
0.0
 11
213.00000000004849
 21
222.00590460102759
 31
0.0
  0
LINE
  5
1A33
  8
1
 10
227.00000000004849
 20
236.00590460102759
 30
0.0
 11
227.00000000004849
 21
208.00590460102759
 31
0.0
  0
TEXT
  5
1B87
  8
0
 62
     3
 10
0.0
 20
0.0
 30
0.0
 40
10.0
  1
DE-SC8N
  7
STANDARD1
  0
LINE
  5
1DB9
  8
0
 10
220.25000000010431
 20
110.5000000000237
 30
0.0
 11
221.05000000005529
 21
109.7000000000729
 31
0.0
  0
LINE
  5
1DBA
  8
0
 10
232.950000000024
 20
109.7000000000729
 30
0.0
 11
233.7499999999749
 21
110.5000000000237
 31
0.0
  0
LINE
  5
1DBB
  8
0
 10
220.25000000003959
 20
113.70000000002371
 30
0.0
 11
220.25000000003959
 21
110.5000000000237
 31
0.0
  0
LINE
  5
1DBC
  8
0
 10
233.75000000003959
 20
110.5000000000237
 30
0.0
 11
233.75000000003959
 21
113.70000000002371
 31
0.0
  0
ARC
  5
1DBD
  8
0
 10
276.22884621769668
 20
154.76322432735671
 30
0.0
 40
12.000000000364681
 50
285.99999999941872
 51
334.59037788635987
  0
LINE
  5
1DBE
  8
0
 10
218.00000000003959
 20
137.75000000002379
 30
0.0
 11
218.00000000003959
 21
113.70000000002371
 31
0.0
  0
LINE
  5
1DBF
  8
0
 10
236.00000000003959
 20
113.70000000002371
 30
0.0
 11
236.00000000003959
 21
130.74419506920111
 31
0.0
  0
LINE
  5
1DC0
  8
0
 10
219.4000000000396
 20
139.6000000000237
 30
0.0
 11
218.00000000003959
 21
137.75000000002379
 31
0.0
  0
LINE
  5
1DC1
  8
0
 10
286.35134804328368
 20
152.11346276150411
 30
0.0
 11
284.49565256048692
 21
153.5059046010293
 31
0.0
  0
LINE
  5
1DC2
  8
0
 10
287.06800516792919
 20
149.61418235195131
 30
0.0
 11
286.35134804282598
 21
152.1134627613728
 31
0.0
  0
LINE
  5
1DC3
  8
0
 10
236.00000000006591
 20
130.74419506922479
 30
0.0
 11
279.53649448758438
 21
143.2280839753623
 31
0.0
  0
LINE
  5
1DC4
  8
0
 10
220.37500000003959
 20
143.10000000002381
 30
0.0
 11
220.37500000003959
 21
139.6000000000237
 31
0.0
  0
LINE
  5
1DC5
  8
0
 10
233.62500000003959
 20
139.6000000000237
 30
0.0
 11
233.62500000003959
 21
143.10000000002381
 31
0.0
  0
LINE
  5
1DC9
  8
0
 10
217.00000000003959
 20
109.70000000002381
 30
0.0
 11
217.00000000003959
 21
81.700000000023735
 31
0.0
  0
LINE
  5
1DCA
  8
0
 10
237.00000000003959
 20
81.700000000023735
 30
0.0
 11
237.00000000003959
 21
109.70000000002381
 31
0.0
  0
LINE
  5
1DD8
  8
0
 10
220.25000000010431
 20
110.5000000000237
 30
0.0
 11
233.7499999999749
 21
110.5000000000237
 31
0.0
  0
LINE
  5
1DDA
  8
3
 10
287.06800516791782
 20
149.61418235199119
 30
0.0
 11
227.00000000003959
 21
132.38995903874161
 31
0.0
  0
LINE
  5
1DDB
  8
3
 10
236.26000054423361
 20
137.75000000002379
 30
0.0
 11
218.00000000003959
 21
137.75000000002379
 31
0.0
  0
LINE
  5
1DDC
  8
3
 10
286.35134804328379
 20
152.113462761504
 30
0.0
 11
236.26000054423361
 21
137.75000000002379
 31
0.0
  0
LINE
  5
1DDE
  8
0
 10
284.49565256058128
 20
153.5059046009585
 30
0.0
 11
236.00000000003959
 21
139.6000000000237
 31
0.0
  0
LINE
  5
1DDF
  8
0
 10
218.00000000003959
 20
113.70000000002371
 30
0.0
 11
236.00000000003959
 21
113.70000000002371
 31
0.0
  0
POLYLINE
  5
1DE1
  8
3
 66
     1
 10
0.0
 20
0.0
 30
0.0
 70
   128
  0
VERTEX
  5
2099
  8
3
 10
227.00000000001691
 20
132.38995903877759
 30
0.0
  0
VERTEX
  5
209A
  8
3
 10
227.54373393863469
 20
132.52652039271661
 30
0.0
  0
VERTEX
  5
209B
  8
3
 10
228.6684425273217
 20
132.6879256146261
 30
0.0
  0
VERTEX
  5
209C
  8
3
 10
229.23987054035621
 20
132.7097499443893
 30
0.0
  0
VERTEX
  5
209D
  8
3
 10
229.77826799093259
 20
132.6953939813761
 30
0.0
  0
VERTEX
  5
209E
  8
3
 10
230.83224102368351
 20
132.57678899759861
 30
0.0
  0
VERTEX
  5
209F
  8
3
 10
231.34089784629811
 20
132.4805000910367
 30
0.0
  0
VERTEX
  5
20A0
  8
3
 10
231.97512866703491
 20
132.32856738196639
 30
0.0
  0
VERTEX
  5
20A1
  8
3
 10
232.5763689493152
 20
132.15485749152779
 30
0.0
  0
VERTEX
  5
20A2
  8
3
 10
233.14906994574091
 20
131.96520077358161
 30
0.0
  0
VERTEX
  5
20A3
  8
3
 10
233.68113909289269
 20
131.76990966478169
 30
0.0
  0
VERTEX
  5
20A4
  8
3
 10
234.15552238261881
 20
131.5817223060165
 30
0.0
  0
VERTEX
  5
20A5
  8
3
 10
234.58498138239091
 20
131.4008986127042
 30
0.0
  0
VERTEX
  5
20A6
  8
3
 10
234.97085393597729
 20
131.23061085090981
 30
0.0
  0
VERTEX
  5
20A7
  8
3
 10
235.3024145491824
 20
131.07879391973731
 30
0.0
  0
VERTEX
  5
20A8
  8
3
 10
235.564086422749
 20
130.95560547569559
 30
0.0
  0
VERTEX
  5
20A9
  8
3
 10
235.76790149048421
 20
130.8576942862808
 30
0.0
  0
VERTEX
  5
20AA
  8
3
 10
235.9118807039213
 20
130.78753203954679
 30
0.0
  0
VERTEX
  5
20AB
  8
3
 10
235.98810471761391
 20
130.7500624582373
 30
0.0
  0
VERTEX
  5
20AC
  8
3
 10
236.00000000003959
 20
130.74419506921731
 30
0.0
  0
SEQEND
  5
20AD
  8
3
  0
LINE
  5
1DE3
  8
0
 10
236.00000000003959
 20
139.6000000000237
 30
0.0
 11
219.4000000000396
 21
139.6000000000237
 31
0.0
  0
LINE
  5
1DE6
  8
0
 10
233.62500000003959
 20
143.10000000002381
 30
0.0
 11
220.37500000003959
 21
143.10000000002381
 31
0.0
  0
LINE
  5
1DF3
  8
0
 10
237.00000000003959
 20
109.70000000002381
 30
0.0
 11
217.00000000003959
 21
109.70000000002381
 31
0.0
  0
LINE
  5
1E52
  8
0
 10
61.750000000009877
 20
113.6999999999401
 30
0.0
 11
61.750000000009877
 21
110.4999999999401
 31
0.0
  0
LINE
  5
1E53
  8
0
 10
75.250000000009877
 20
110.4999999999401
 30
0.0
 11
75.250000000009877
 21
113.6999999999401
 31
0.0
  0
LINE
  5
1E54
  8
0
 10
61.750000000074557
 20
110.4999999999401
 30
0.0
 11
62.55000000002552
 21
109.6999999999893
 31
0.0
  0
LINE
  5
1E55
  8
0
 10
74.449999999994233
 20
109.6999999999893
 30
0.0
 11
75.249999999945075
 21
110.4999999999401
 31
0.0
  0
LINE
  5
1E58
  8
0
 10
77.285551420389183
 20
150.17103765252361
 30
0.0
 11
75.918910088233233
 21
151.86563450900979
 31
0.0
  0
LINE
  5
1E59
  8
0
 10
61.08108991178652
 20
151.86563450900991
 30
0.0
 11
59.71444857963057
 21
150.17103765252369
 31
0.0
  0
LINE
  5
1E5A
  8
0
 10
61.875000000009869
 20
143.0999999999402
 30
0.0
 11
61.875000000009869
 21
139.59999999994011
 31
0.0
  0
LINE
  5
1E5B
  8
0
 10
75.125000000009877
 20
139.59999999994011
 30
0.0
 11
75.125000000009877
 21
143.0999999999402
 31
0.0
  0
LINE
  5
1E5C
  8
0
 10
58.500000000009877
 20
109.6999999999402
 30
0.0
 11
58.500000000009877
 21
81.699999999940133
 31
0.0
  0
LINE
  5
1E5D
  8
0
 10
78.500000000009877
 20
81.699999999940133
 30
0.0
 11
78.500000000009877
 21
109.6999999999402
 31
0.0
  0
LINE
  5
1E72
  8
0
 10
61.750000000009877
 20
110.4999999999401
 30
0.0
 11
75.250000000009877
 21
110.4999999999401
 31
0.0
  0
LINE
  5
1E73
  8
0
 10
77.500000000009877
 20
137.7499999999402
 30
0.0
 11
59.500000000009869
 21
137.7499999999402
 31
0.0
  0
LINE
  5
1E74
  8
0
 10
59.500000000009869
 20
137.7499999999402
 30
0.0
 11
60.900000000009847
 21
139.59999999994011
 31
0.0
  0
LINE
  5
1E75
  8
0
 10
76.100000000009899
 20
139.59999999994011
 30
0.0
 11
60.900000000009847
 21
139.59999999994011
 31
0.0
  0
LINE
  5
1E76
  8
0
 10
76.100000000009899
 20
139.59999999994011
 30
0.0
 11
77.500000000009877
 21
137.7499999999402
 31
0.0
  0
LINE
  5
1E77
  8
0
 10
59.500000000009869
 20
113.6999999999401
 30
0.0
 11
77.500000000009877
 21
113.6999999999401
 31
0.0
  0
LINE
  5
1E7A
  8
3
 10
76.099999999923156
 20
151.4110606965707
 30
0.0
 11
76.100000000009899
 21
139.59999999994011
 31
0.0
  0
LINE
  5
1E7B
  8
3
 10
60.900000000009847
 20
139.59999999994011
 30
0.0
 11
60.90000000009659
 21
151.4110606965707
 31
0.0
  0
POLYLINE
  5
1E7C
  8
0
 66
     1
 10
0.0
 20
0.0
 30
0.0
 70
   128
  0
VERTEX
  5
20AE
  8
0
 10
76.099999999923156
 20
151.4110606965707
 30
0.0
  0
VERTEX
  5
20AF
  8
0
 10
76.006431388454743
 20
151.73876648206101
 30
0.0
  0
VERTEX
  5
20B0
  8
0
 10
75.728029523783661
 20
152.05840306352249
 30
0.0
  0
VERTEX
  5
20B1
  8
0
 10
75.271649583781013
 20
152.36209992750639
 30
0.0
  0
VERTEX
  5
20B2
  8
0
 10
74.648529157207903
 20
152.64237904930931
 30
0.0
  0
VERTEX
  5
20B3
  8
0
 10
73.87401153698498
 20
152.8923390267592
 30
0.0
  0
VERTEX
  5
20B4
  8
0
 10
72.967167917398783
 20
153.1058250156417
 30
0.0
  0
VERTEX
  5
20B5
  8
0
 10
71.950327798005091
 20
153.277580282391
 30
0.0
  0
VERTEX
  5
20B6
  8
0
 10
70.848529157242723
 20
153.40337564231689
 30
0.0
  0
VERTEX
  5
20B7
  8
0
 10
69.688901934307282
 20
153.4801135961668
 30
0.0
  0
VERTEX
  5
20B8
  8
0
 10
68.500000000009877
 20
153.50590460083839
 30
0.0
  0
VERTEX
  5
20B9
  8
0
 10
67.311098065712358
 20
153.48011359620119
 30
0.0
  0
VERTEX
  5
20BA
  8
0
 10
66.151470842776902
 20
153.4033756423849
 30
0.0
  0
VERTEX
  5
20BB
  8
0
 10
65.049672202014548
 20
153.27758028249099
 30
0.0
  0
VERTEX
  5
20BC
  8
0
 10
64.032832082620857
 20
153.1058250157711
 30
0.0
  0
VERTEX
  5
20BD
  8
0
 10
63.125988463034652
 20
152.8923390269149
 30
0.0
  0
VERTEX
  5
20BE
  8
0
 10
62.351470842811729
 20
152.6423790494874
 30
0.0
  0
VERTEX
  5
20BF
  8
0
 10
61.728350416238619
 20
152.36209992770259
 30
0.0
  0
VERTEX
  5
20C0
  8
0
 10
61.271970476236092
 20
152.0584030637319
 30
0.0
  0
VERTEX
  5
20C1
  8
0
 10
60.993568611565003
 20
151.73876648227849
 30
0.0
  0
VERTEX
  5
20C2
  8
0
 10
60.90000000009659
 20
151.4110606965707
 30
0.0
  0
SEQEND
  5
20C3
  8
0
  0
POLYLINE
  5
1E7D
  8
0
 66
     1
 10
0.0
 20
0.0
 30
0.0
 70
   128
  0
VERTEX
  5
20C4
  8
0
 10
62.000000000009869
 20
151.41106069654131
 30
0.0
  0
VERTEX
  5
20C5
  8
0
 10
62.098749605430477
 20
151.72217620601069
 30
0.0
  0
VERTEX
  5
20C6
  8
0
 10
62.391997964901513
 20
152.02383862815921
 30
0.0
  0
VERTEX
  5
20C7
  8
0
 10
62.870834875410978
 20
152.30688210293829
 30
0.0
  0
VERTEX
  5
20C8
  8
0
 10
63.520711119736447
 20
152.56270649759369
 30
0.0
  0
VERTEX
  5
20C9
  8
0
 10
64.321880537047363
 20
152.78353871734731
 30
0.0
  0
VERTEX
  5
20CA
  8
0
 10
65.250000000009877
 20
152.96266888694831
 30
0.0
  0
VERTEX
  5
20CB
  8
0
 10
66.276869068392998
 20
153.09465422683769
 30
0.0
  0
VERTEX
  5
20CC
  8
0
 10
67.371286845174822
 20
153.1754844292507
 30
0.0
  0
VERTEX
  5
20CD
  8
0
 10
68.500000000009877
 20
153.2027035093889
 30
0.0
  0
VERTEX
  5
20CE
  8
0
 10
69.628713154844931
 20
153.17548442927611
 30
0.0
  0
VERTEX
  5
20CF
  8
0
 10
70.723130931626756
 20
153.09465422688771
 30
0.0
  0
VERTEX
  5
20D0
  8
0
 10
71.750000000009877
 20
152.96266888702161
 30
0.0
  0
VERTEX
  5
20D1
  8
0
 10
72.67811946297239
 20
152.7835387174415
 30
0.0
  0
VERTEX
  5
20D2
  8
0
 10
73.479288880283192
 20
152.5627064977059
 30
0.0
  0
VERTEX
  5
20D3
  8
0
 10
74.129165124608775
 20
152.30688210306511
 30
0.0
  0
VERTEX
  5
20D4
  8
0
 10
74.608002035118361
 20
152.02383862829689
 30
0.0
  0
VERTEX
  5
20D5
  8
0
 10
74.901250394589269
 20
151.72217620615501
 30
0.0
  0
VERTEX
  5
20D6
  8
0
 10
75.000000000009877
 20
151.41106069654131
 30
0.0
  0
SEQEND
  5
20D7
  8
0
  0
LINE
  5
1E7E
  8
0
 10
62.000000000009869
 20
147.82777507099249
 30
0.0
 11
62.000000000009869
 21
151.41106069654131
 31
0.0
  0
POLYLINE
  5
1E7F
  8
0
 66
     1
 10
0.0
 20
0.0
 30
0.0
 70
   128
  0
VERTEX
  5
20D8
  8
0
 10
75.000000000009877
 20
147.82777507099249
 30
0.0
  0
VERTEX
  5
20D9
  8
0
 10
74.901250394589269
 20
147.51665956152519
 30
0.0
  0
VERTEX
  5
20DA
  8
0
 10
74.608002035118247
 20
147.2149971393834
 30
0.0
  0
VERTEX
  5
20DB
  8
0
 10
74.129165124608775
 20
146.93195366461509
 30
0.0
  0
VERTEX
  5
20DC
  8
0
 10
73.479288880283192
 20
146.6761292699743
 30
0.0
  0
VERTEX
  5
20DD
  8
0
 10
72.67811946297239
 20
146.4552970502387
 30
0.0
  0
VERTEX
  5
20DE
  8
0
 10
71.750000000009763
 20
146.27616688065871
 30
0.0
  0
VERTEX
  5
20DF
  8
0
 10
70.723130931626756
 20
146.14418154079249
 30
0.0
  0
VERTEX
  5
20E0
  8
0
 10
69.628713154844931
 20
146.0633513384042
 30
0.0
  0
VERTEX
  5
20E1
  8
0
 10
68.500000000009877
 20
146.0361322582913
 30
0.0
  0
VERTEX
  5
20E2
  8
0
 10
67.371286845174822
 20
146.0633513384297
 30
0.0
  0
VERTEX
  5
20E3
  8
0
 10
66.276869068392998
 20
146.1441815408426
 30
0.0
  0
VERTEX
  5
20E4
  8
0
 10
65.250000000009877
 20
146.27616688073189
 30
0.0
  0
VERTEX
  5
20E5
  8
0
 10
64.321880537047363
 20
146.455297050333
 30
0.0
  0
VERTEX
  5
20E6
  8
0
 10
63.520711119736447
 20
146.67612927008651
 30
0.0
  0
VERTEX
  5
20E7
  8
0
 10
62.870834875410978
 20
146.931953664742
 30
0.0
  0
VERTEX
  5
20E8
  8
0
 10
62.391997964901513
 20
147.2149971395211
 30
0.0
  0
VERTEX
  5
20E9
  8
0
 10
62.098749605430477
 20
147.5166595616696
 30
0.0
  0
VERTEX
  5
20EA
  8
0
 10
62.000000000009869
 20
147.82777507099249
 30
0.0
  0
SEQEND
  5
20EB
  8
0
  0
LINE
  5
1E80
  8
0
 10
75.000000000009877
 20
151.41106069654131
 30
0.0
 11
75.000000000009877
 21
147.82777507099249
 31
0.0
  0
LINE
  5
1E81
  8
0
 10
59.500000000009869
 20
113.6999999999401
 30
0.0
 11
59.500000000009869
 21
149.63272655897171
 31
0.0
  0
LINE
  5
1E82
  8
0
 10
77.500000000009877
 20
149.63272655897171
 30
0.0
 11
77.500000000009877
 21
113.6999999999401
 31
0.0
  0
POLYLINE
  5
1E85
  8
0
 66
     1
 10
0.0
 20
0.0
 30
0.0
 70
   128
  0
VERTEX
  5
20EC
  8
0
 10
59.500000000009869
 20
149.63272655897171
 30
0.0
  0
VERTEX
  5
20ED
  8
0
 10
59.600522563976583
 20
150.00246110434969
 30
0.0
  0
VERTEX
  5
20EE
  8
0
 10
59.71444857963057
 20
150.17103765252369
 30
0.0
  0
SEQEND
  5
20EF
  8
0
  0
POLYLINE
  5
1E86
  8
0
 66
     1
 10
0.0
 20
0.0
 30
0.0
 70
   128
  0
VERTEX
  5
20F0
  8
0
 10
77.285551420389183
 20
150.17103765252361
 30
0.0
  0
VERTEX
  5
20F1
  8
0
 10
77.399477436043171
 20
150.00246110434961
 30
0.0
  0
VERTEX
  5
20F2
  8
0
 10
77.500000000009877
 20
149.63272655897171
 30
0.0
  0
SEQEND
  5
20F3
  8
0
  0
LINE
  5
1E8D
  8
0
 10
75.125000000009877
 20
143.0999999999402
 30
0.0
 11
61.875000000009869
 21
143.0999999999402
 31
0.0
  0
LINE
  5
1E98
  8
0
 10
78.500000000009877
 20
109.6999999999402
 30
0.0
 11
58.500000000009877
 21
109.6999999999402
 31
0.0
  0
LINE
  5
1EFE
  8
3
 10
277.19006367104208
 20
214.4059046011142
 30
0.0
 11
227.0000000000646
 21
214.4059046010085
 31
0.0
  0
LINE
  5
1EFF
  8
3
 10
236.0000000000486
 20
214.4059046010276
 30
0.0
 11
236.0000000000486
 21
229.6059046010275
 31
0.0
  0
LINE
  5
1F00
  8
3
 10
227.0000000000646
 20
229.60590460104649
 30
0.0
 11
277.19006367104208
 21
229.60590460094079
 31
0.0
  0
ARC
  5
1F01
  8
3
 10
276.94836595843708
 20
222.00590460102759
 30
0.0
 40
7.6038423039251741
 50
271.82152539817258
 51
88.178474601827304
  0
ARC
  5
1F02
  8
0
 10
276.99436307965431
 20
222.00590460102759
 30
0.0
 40
6.502945388167225
 50
271.72452795669471
 51
88.275472043305328
  0
LINE
  5
1F03
  8
0
 10
264.69366162386018
 20
228.50590460102759
 30
0.0
 11
277.19006367107892
 21
228.50590460102759
 31
0.0
  0
ARC
  5
1F04
  8
0
 10
264.88936221524091
 20
222.00590460102759
 30
0.0
 40
6.5029453881659043
 50
91.724527956303646
 51
268.27547204369642
  0
LINE
  5
1F05
  8
0
 10
277.19006367107892
 20
215.50590460102759
 30
0.0
 11
264.69366162386018
 21
215.50590460102759
 31
0.0
  0
ARC
  5
1F09
  8
0
 10
278.13714685510678
 20
222.0059046010455
 30
0.0
 40
9.0043390626002395
 50
271.77879995805279
 51
88.221200042103604
  0
LINE
  5
1F0B
  8
0
 10
227.00000000004849
 20
231.00590460102759
 30
0.0
 11
278.41664990444599
 21
231.00590460102759
 31
0.0
  0
LINE
  5
1F0C
  8
0
 10
278.41664990329548
 20
213.00590460102751
 30
0.0
 11
227.00000000004849
 21
213.00590460102771
 31
0.0
  0
ARC
  5
1F14
  8
3
 10
227.00000000004849
 20
222.00590460102759
 30
0.0
 40
7.6000000000000218
 50
90.0
 51
270.0
  0
ARC
  5
1F16
  8
0
 10
227.00000000004849
 20
222.00590460102759
 30
0.0
 40
9.0
 50
90.0
 51
270.0
  0
CIRCLE
  5
1F1D
  8
0
 10
227.00000000004849
 20
222.00590460102759
 30
0.0
 40
6.6249999999998863
  0
LINE
  5
1F2D
  8
0
 10
348.81800516798882
 20
110.49999999999611
 30
0.0
 11
349.61800516793971
 21
109.70000000004531
 31
0.0
  0
LINE
  5
1F2E
  8
0
 10
361.5180051679086
 20
109.70000000004531
 30
0.0
 11
362.31800516785938
 21
110.49999999999611
 31
0.0
  0
LINE
  5
1F2F
  8
0
 10
348.81800516792401
 20
113.69999999999609
 30
0.0
 11
348.81800516792401
 21
110.49999999999611
 31
0.0
  0
LINE
  5
1F30
  8
0
 10
362.31800516792418
 20
110.49999999999611
 30
0.0
 11
362.31800516792418
 21
113.69999999999609
 31
0.0
  0
LINE
  5
1F31
  8
0
 10
364.35355658830349
 20
150.1710376525796
 30
0.0
 11
362.98691525614743
 21
151.8656345090659
 31
0.0
  0
LINE
  5
1F32
  8
0
 10
348.14909507970088
 20
151.8656345090659
 30
0.0
 11
346.78245374754471
 21
150.1710376525796
 31
0.0
  0
LINE
  5
1F35
  8
0
 10
345.56800516792401
 20
109.69999999999619
 30
0.0
 11
345.56800516792401
 21
81.699999999996123
 31
0.0
  0
LINE
  5
1F36
  8
0
 10
365.56800516792401
 20
81.699999999996123
 30
0.0
 11
365.56800516792401
 21
109.69999999999619
 31
0.0
  0
LINE
  5
1F47
  8
0
 10
348.81800516798882
 20
110.49999999999611
 30
0.0
 11
362.31800516792418
 21
110.49999999999611
 31
0.0
  0
POLYLINE
  5
1F48
  8
3
 66
     1
 10
0.0
 20
0.0
 30
0.0
 70
   128
  0
VERTEX
  5
20F4
  8
3
 10
364.5680051679243
 20
147.13344614965339
 30
0.0
  0
VERTEX
  5
20F5
  8
3
 10
364.46748260395412
 20
147.5031806950295
 30
0.0
  0
VERTEX
  5
20F6
  8
3
 10
364.1681604200071
 20
147.8646559816292
 30
0.0
  0
VERTEX
  5
20F7
  8
3
 10
363.67672497905721
 20
148.20979724886971
 30
0.0
  0
VERTEX
  5
20F8
  8
3
 10
363.00415413678297
 20
148.53089461116949
 30
0.0
  0
VERTEX
  5
20F9
  8
3
 10
362.16547201441051
 20
148.8207752840525
 30
0.0
  0
VERTEX
  5
20FA
  8
3
 10
361.17941338467318
 20
149.07296381229969
 30
0.0
  0
VERTEX
  5
20FB
  8
3
 10
360.06800516794698
 20
149.28182672091921
 30
0.0
  0
VERTEX
  5
20FC
  8
3
 10
358.85607438724611
 20
149.44269835766781
 30
0.0
  0
VERTEX
  5
20FD
  8
3
 10
357.5706935735567
 20
149.5519851160131
 30
0.0
  0
VERTEX
  5
20FE
  8
3
 10
356.24057601022821
 20
149.60724571036451
 30
0.0
  0
VERTEX
  5
20FF
  8
3
 10
354.8954343256724
 20
149.60724571035971
 30
0.0
  0
VERTEX
  5
2100
  8
3
 10
353.565316762343
 20
149.5519851159986
 30
0.0
  0
VERTEX
  5
2101
  8
3
 10
352.27993594865097
 20
149.44269835764391
 30
0.0
  0
VERTEX
  5
2102
  8
3
 10
351.06800516794698
 20
149.2818267208865
 30
0.0
  0
VERTEX
  5
2103
  8
3
 10
349.956596951216
 20
149.07296381225899
 30
0.0
  0
VERTEX
  5
2104
  8
3
 10
348.9705383214735
 20
148.82077528400461
 30
0.0
  0
VERTEX
  5
2105
  8
3
 10
348.13185619909501
 20
148.53089461111551
 30
0.0
  0
VERTEX
  5
2106
  8
3
 10
347.45928535681378
 20
148.20979724881079
 30
0.0
  0
VERTEX
  5
2107
  8
3
 10
346.96784991585662
 20
147.8646559815667
 30
0.0
  0
VERTEX
  5
2108
  8
3
 10
346.66852773190192
 20
147.5031806949649
 30
0.0
  0
VERTEX
  5
2109
  8
3
 10
346.56800516796062
 20
147.13344614966061
 30
0.0
  0
SEQEND
  5
210A
  8
3
  0
POLYLINE
  5
1F49
  8
3
 66
     1
 10
0.0
 20
0.0
 30
0.0
 70
   128
  0
VERTEX
  5
210B
  8
3
 10
364.5680051679243
 20
149.6327265590277
 30
0.0
  0
VERTEX
  5
210C
  8
3
 10
364.46748260395731
 20
150.00246110440571
 30
0.0
  0
VERTEX
  5
210D
  8
3
 10
364.16816042001187
 20
150.3639363910082
 30
0.0
  0
VERTEX
  5
210E
  8
3
 10
363.67672497906221
 20
150.70907765825231
 30
0.0
  0
VERTEX
  5
210F
  8
3
 10
363.0041541367865
 20
151.03017502055661
 30
0.0
  0
VERTEX
  5
2110
  8
3
 10
362.16547201441142
 20
151.32005569344449
 30
0.0
  0
VERTEX
  5
2111
  8
3
 10
361.17941338467051
 20
151.57224422169699
 30
0.0
  0
VERTEX
  5
2112
  8
3
 10
360.06800516793919
 20
151.781107130322
 30
0.0
  0
VERTEX
  5
2113
  8
3
 10
358.85607438723309
 20
151.94197876707611
 30
0.0
  0
VERTEX
  5
2114
  8
3
 10
357.57069357353822
 20
152.05126552542691
 30
0.0
  0
VERTEX
  5
2115
  8
3
 10
356.24057601020428
 20
152.1065261197835
 30
0.0
  0
VERTEX
  5
2116
  8
3
 10
354.89543432564352
 20
152.1065261197835
 30
0.0
  0
VERTEX
  5
2117
  8
3
 10
353.56531676230981
 20
152.05126552542691
 30
0.0
  0
VERTEX
  5
2118
  8
3
 10
352.27993594861471
 20
151.94197876707611
 30
0.0
  0
VERTEX
  5
2119
  8
3
 10
351.06800516790878
 20
151.7811071303218
 30
0.0
  0
VERTEX
  5
211A
  8
3
 10
349.9565969511778
 20
151.57224422169691
 30
0.0
  0
VERTEX
  5
211B
  8
3
 10
348.97053832143672
 20
151.32005569344449
 30
0.0
  0
VERTEX
  5
211C
  8
3
 10
348.13185619906159
 20
151.03017502055661
 30
0.0
  0
VERTEX
  5
211D
  8
3
 10
347.45928535678593
 20
150.70907765825231
 30
0.0
  0
VERTEX
  5
211E
  8
3
 10
346.9678499158361
 20
150.3639363910082
 30
0.0
  0
VERTEX
  5
211F
  8
3
 10
346.668527731891
 20
150.0024611044056
 30
0.0
  0
VERTEX
  5
2120
  8
3
 10
346.56800516792401
 20
149.6327265590277
 30
0.0
  0
SEQEND
  5
2121
  8
3
  0
LINE
  5
1F4A
  8
0
 10
364.5680051679243
 20
149.6327265590277
 30
0.0
 11
364.56800516792418
 21
113.69999999999609
 31
0.0
  0
LINE
  5
1F4B
  8
0
 10
346.56800516845038
 20
113.69999999999609
 30
0.0
 11
346.56800516792401
 21
149.6327265590277
 31
0.0
  0
POLYLINE
  5
1F4C
  8
0
 66
     1
 10
0.0
 20
0.0
 30
0.0
 70
   128
  0
VERTEX
  5
2122
  8
0
 10
348.14909507970088
 20
151.8656345090659
 30
0.0
  0
VERTEX
  5
2123
  8
0
 10
348.3399756441504
 20
152.05840306357851
 30
0.0
  0
VERTEX
  5
2124
  8
0
 10
348.79635558415299
 20
152.36209992756241
 30
0.0
  0
VERTEX
  5
2125
  8
0
 10
349.41947601072599
 20
152.6423790493653
 30
0.0
  0
VERTEX
  5
2126
  8
0
 10
350.19399363094891
 20
152.89233902681519
 30
0.0
  0
VERTEX
  5
2127
  8
0
 10
351.10083725053539
 20
153.10582501569769
 30
0.0
  0
VERTEX
  5
2128
  8
0
 10
352.1176773699288
 20
153.27758028244699
 30
0.0
  0
VERTEX
  5
2129
  8
0
 10
353.21947601069121
 20
153.40337564237291
 30
0.0
  0
VERTEX
  5
212A
  8
0
 10
354.37910323362672
 20
153.48011359622279
 30
0.0
  0
VERTEX
  5
212B
  8
0
 10
355.56800516792418
 20
153.50590460089441
 30
0.0
  0
VERTEX
  5
212C
  8
0
 10
356.75690710222148
 20
153.48011359625721
 30
0.0
  0
VERTEX
  5
212D
  8
0
 10
357.9165343251571
 20
153.40337564244089
 30
0.0
  0
VERTEX
  5
212E
  8
0
 10
359.01833296591951
 20
153.27758028254701
 30
0.0
  0
VERTEX
  5
212F
  8
0
 10
360.0351730853132
 20
153.10582501582709
 30
0.0
  0
VERTEX
  5
2130
  8
0
 10
360.94201670489929
 20
152.89233902697089
 30
0.0
  0
VERTEX
  5
2131
  8
0
 10
361.71653432512232
 20
152.64237904954331
 30
0.0
  0
VERTEX
  5
2132
  8
0
 10
362.33965475169532
 20
152.36209992775861
 30
0.0
  0
VERTEX
  5
2133
  8
0
 10
362.7960346916978
 20
152.05840306378789
 30
0.0
  0
VERTEX
  5
2134
  8
0
 10
362.98691525614743
 20
151.8656345090659
 30
0.0
  0
SEQEND
  5
2135
  8
0
  0
POLYLINE
  5
1F4E
  8
0
 66
     1
 10
0.0
 20
0.0
 30
0.0
 70
   128
  0
VERTEX
  5
2136
  8
0
 10
346.56800516792219
 20
132.38995903874999
 30
0.0
  0
VERTEX
  5
2137
  8
0
 10
346.58444499369358
 20
132.52652039268901
 30
0.0
  0
VERTEX
  5
2138
  8
0
 10
346.72400722959588
 20
132.6879256145985
 30
0.0
  0
VERTEX
  5
2139
  8
0
 10
346.85118350159269
 20
132.7097499443617
 30
0.0
  0
VERTEX
  5
213A
  8
0
 10
347.00755967888682
 20
132.6953939813485
 30
0.0
  0
VERTEX
  5
213B
  8
0
 10
347.42466870571758
 20
132.57678899757099
 30
0.0
  0
VERTEX
  5
213C
  8
0
 10
347.68405908183593
 20
132.48050009100911
 30
0.0
  0
VERTEX
  5
213D
  8
0
 10
348.06813218587678
 20
132.3285673819388
 30
0.0
  0
VERTEX
  5
213E
  8
0
 10
348.50372110359342
 20
132.1548574915002
 30
0.0
  0
VERTEX
  5
213F
  8
0
 10
348.99617598550668
 20
131.96520077355399
 30
0.0
  0
VERTEX
  5
2140
  8
0
 10
349.53788241445142
 20
131.7699096647541
 30
0.0
  0
VERTEX
  5
2141
  8
0
 10
350.10920498542902
 20
131.5817223059889
 30
0.0
  0
VERTEX
  5
2142
  8
0
 10
350.72362105542999
 20
131.4008986126766
 30
0.0
  0
VERTEX
  5
2143
  8
0
 10
351.38883209996612
 20
131.23061085088219
 30
0.0
  0
VERTEX
  5
2144
  8
0
 10
352.0938271854107
 20
131.07879391970971
 30
0.0
  0
VERTEX
  5
2145
  8
0
 10
352.80098081957368
 20
130.95560547566799
 30
0.0
  0
VERTEX
  5
2146
  8
0
 10
353.53726553570652
 20
130.85769428625321
 30
0.0
  0
VERTEX
  5
2147
  8
0
 10
354.31166830235799
 20
130.78753203951919
 30
0.0
  0
VERTEX
  5
2148
  8
0
 10
355.10543237806303
 20
130.7500624582097
 30
0.0
  0
VERTEX
  5
2149
  8
0
 10
355.56800516877439
 20
130.74419506918969
 30
0.0
  0
VERTEX
  5
214A
  8
0
 10
356.26545556353432
 20
130.75753715688171
 30
0.0
  0
VERTEX
  5
214B
  8
0
 10
356.9629059582881
 20
130.797637179617
 30
0.0
  0
VERTEX
  5
214C
  8
0
 10
357.6657716442117
 20
130.8653415125325
 30
0.0
  0
VERTEX
  5
214D
  8
0
 10
358.35780674777573
 20
130.95912513444881
 30
0.0
  0
VERTEX
  5
214E
  8
0
 10
359.00415434987832
 20
131.07143304690271
 30
0.0
  0
VERTEX
  5
214F
  8
0
 10
359.631356560607
 20
131.20365718227461
 30
0.0
  0
VERTEX
  5
2150
  8
0
 10
360.2432679118354
 20
131.3550961894112
 30
0.0
  0
VERTEX
  5
2151
  8
0
 10
360.82797990955589
 20
131.52073662779151
 30
0.0
  0
VERTEX
  5
2152
  8
0
 10
361.39391651846552
 20
131.70046940146329
 30
0.0
  0
VERTEX
  5
2153
  8
0
 10
361.92498985392677
 20
131.88589703798701
 30
0.0
  0
VERTEX
  5
2154
  8
0
 10
362.42419416655872
 20
132.07352398165469
 30
0.0
  0
VERTEX
  5
2155
  8
0
 10
362.88156885139989
 20
132.253939779436
 30
0.0
  0
VERTEX
  5
2156
  8
0
 10
363.23149464594098
 20
132.39393104077851
 30
0.0
  0
VERTEX
  5
2157
  8
0
 10
363.8288520801753
 20
132.61660909285831
 30
0.0
  0
VERTEX
  5
2158
  8
0
 10
364.06994477919449
 20
132.683814461152
 30
0.0
  0
VERTEX
  5
2159
  8
0
 10
364.22654719282571
 20
132.70796047122329
 30
0.0
  0
VERTEX
  5
215A
  8
0
 10
364.45504895129972
 20
132.66618563829871
 30
0.0
  0
VERTEX
  5
215B
  8
0
 10
364.5238266725371
 20
132.59352748855059
 30
0.0
  0
VERTEX
  5
215C
  8
0
 10
364.5680051679243
 20
132.38995903875721
 30
0.0
  0
SEQEND
  5
215D
  8
0
  0
LINE
  5
1F50
  8
0
 10
346.56800516792401
 20
113.69999999999609
 30
0.0
 11
364.5680051679243
 21
113.69999999999609
 31
0.0
  0
LINE
  5
1F57
  8
0
 10
365.56800516792401
 20
109.69999999999619
 30
0.0
 11
345.56800516792401
 21
109.69999999999619
 31
0.0
  0
ENDSEC
  0
EOF
