  0
SECTION
  2
HEADER
  9
$ACADVER
  1
AC1009
  9
$INSBASE
 10
0.0
 20
0.0
 30
0.0
  9
$EXTMIN
 10
0.0
 20
-2.960436562073669
 30
0.0
  9
$EXTMAX
 10
265.55786776486832
 20
148.98117860180329
 30
0.0
  9
$LIMMIN
 10
0.0
 20
0.0
  9
$LIMMAX
 10
275.0
 20
175.0
  9
$ORTHOMODE
 70
     1
  9
$REGENMODE
 70
     1
  9
$FILLMODE
 70
     1
  9
$QTEXTMODE
 70
     0
  9
$MIRRTEXT
 70
     0
  9
$DRAGMODE
 70
     2
  9
$LTSCALE
 40
5.0
  9
$OSMODE
 70
  3071
  9
$ATTMODE
 70
     1
  9
$TEXTSIZE
 40
0.2
  9
$TRACEWID
 40
0.05
  9
$TEXTSTYLE
  7
STANDARD
  9
$CLAYER
  8
0
  9
$CELTYPE
  6
BYLAYER
  9
$CECOLOR
 62
   256
  9
$DIMSCALE
 40
1.0
  9
$DIMASZ
 40
3.0
  9
$DIMEXO
 40
1.0
  9
$DIMDLI
 40
6.0
  9
$DIMRND
 40
0.0
  9
$DIMDLE
 40
0.0
  9
$DIMEXE
 40
1.0
  9
$DIMTP
 40
495.0
  9
$DIMTM
 40
0.0
  9
$DIMTXT
 40
3.0
  9
$DIMCEN
 40
0.0
  9
$DIMTSZ
 40
0.0
  9
$DIMTOL
 70
     0
  9
$DIMLIM
 70
     0
  9
$DIMTIH
 70
     0
  9
$DIMTOH
 70
     0
  9
$DIMSE1
 70
     0
  9
$DIMSE2
 70
     0
  9
$DIMTAD
 70
     1
  9
$DIMZIN
 70
     0
  9
$DIMBLK
  1

  9
$DIMASO
 70
     0
  9
$DIMSHO
 70
     0
  9
$DIMPOST
  1

  9
$DIMAPOST
  1

  9
$DIMALT
 70
     0
  9
$DIMALTD
 70
     2
  9
$DIMALTF
 40
25.399999999999999
  9
$DIMLFAC
 40
1.0
  9
$DIMTOFL
 70
     1
  9
$DIMTVP
 40
0.0
  9
$DIMTIX
 70
     1
  9
$DIMSOXD
 70
     0
  9
$DIMSAH
 70
     0
  9
$DIMBLK1
  1

  9
$DIMBLK2
  1

  9
$DIMSTYLE
  2
STANDARD
  9
$DIMCLRD
 70
     0
  9
$DIMCLRE
 70
     0
  9
$DIMCLRT
 70
     4
  9
$DIMTFAC
 40
1.0
  9
$DIMGAP
 40
1.0
  9
$LUNITS
 70
     2
  9
$LUPREC
 70
     4
  9
$SKETCHINC
 40
0.1
  9
$FILLETRAD
 40
0.0
  9
$AUNITS
 70
     0
  9
$AUPREC
 70
     0
  9
$MENU
  1
E:\r13\win\SUPPORT\ACAD
  9
$ELEVATION
 40
0.0
  9
$PELEVATION
 40
0.0
  9
$THICKNESS
 40
0.0
  9
$LIMCHECK
 70
     0
  9
$BLIPMODE
 70
     0
  9
$CHAMFERA
 40
0.0
  9
$CHAMFERB
 40
0.0
  9
$SKPOLY
 70
     0
  9
$TDCREATE
 40
2450653.5278402781
  9
$TDUPDATE
 40
2456598.6090209489
  9
$TDINDWG
 40
0.0654932176
  9
$TDUSRTIMER
 40
0.0654932176
  9
$USRTIMER
 70
     1
  9
$ANGBASE
 50
0.0
  9
$ANGDIR
 70
     0
  9
$PDMODE
 70
     0
  9
$PDSIZE
 40
0.0
  9
$PLINEWID
 40
0.0
  9
$COORDS
 70
     1
  9
$SPLFRAME
 70
     0
  9
$SPLINETYPE
 70
     6
  9
$SPLINESEGS
 70
     8
  9
$ATTDIA
 70
     0
  9
$ATTREQ
 70
     1
  9
$HANDLING
 70
     1
  9
$HANDSEED
  5
AAA
  9
$SURFTAB1
 70
     6
  9
$SURFTAB2
 70
     6
  9
$SURFTYPE
 70
     6
  9
$SURFU
 70
     6
  9
$SURFV
 70
     6
  9
$UCSNAME
  2

  9
$UCSORG
 10
0.0
 20
0.0
 30
0.0
  9
$UCSXDIR
 10
1.0
 20
0.0
 30
0.0
  9
$UCSYDIR
 10
0.0
 20
1.0
 30
0.0
  9
$PUCSNAME
  2

  9
$PUCSORG
 10
0.0
 20
0.0
 30
0.0
  9
$PUCSXDIR
 10
1.0
 20
0.0
 30
0.0
  9
$PUCSYDIR
 10
0.0
 20
1.0
 30
0.0
  9
$USERI1
 70
     4
  9
$USERI2
 70
     1
  9
$USERI3
 70
     1
  9
$USERI4
 70
     0
  9
$USERI5
 70
     0
  9
$USERR1
 40
1.0
  9
$USERR2
 40
3.0
  9
$USERR3
 40
3.0
  9
$USERR4
 40
3.0
  9
$USERR5
 40
10.0
  9
$WORLDVIEW
 70
     1
  9
$SHADEDGE
 70
     3
  9
$SHADEDIF
 70
    70
  9
$TILEMODE
 70
     1
  9
$MAXACTVP
 70
    16
  9
$PLIMCHECK
 70
     0
  9
$PEXTMIN
 10
1.0000000000000000E+020
 20
1.0000000000000000E+020
 30
1.0000000000000000E+020
  9
$PEXTMAX
 10
-1.0000000000000000E+020
 20
-1.0000000000000000E+020
 30
-1.0000000000000000E+020
  9
$PLIMMIN
 10
0.0
 20
0.0
  9
$PLIMMAX
 10
12.0
 20
9.0
  9
$UNITMODE
 70
     0
  9
$VISRETAIN
 70
     0
  9
$PLINEGEN
 70
     0
  9
$PSLTSCALE
 70
     0
  0
ENDSEC
  0
SECTION
  2
TABLES
  0
TABLE
  2
VPORT
 70
     1
  0
VPORT
  2
*ACTIVE
 70
     0
 10
0.0
 20
0.0
 11
1.0
 21
1.0
 12
142.4271429343581
 22
86.015320026217182
 13
0.0
 23
0.0
 14
5.0
 24
5.0
 15
10.0
 25
10.0
 16
0.0
 26
0.0
 36
1.0
 17
0.0
 27
0.0
 37
0.0
 40
179.56549770494291
 41
1.831871345029239
 42
50.0
 43
0.0
 44
0.0
 50
0.0
 51
0.0
 71
     0
 72
   100
 73
     1
 74
     0
 75
     0
 76
     0
 77
     0
 78
     0
  0
ENDTAB
  0
TABLE
  2
LTYPE
 70
     4
  0
LTYPE
  2
CONTINUOUS
 70
     0
  3
Solid Line
 72
    65
 73
     0
 40
0.0
  0
LTYPE
  2
CENTER
 70
     0
  3
____ _ ____ _ ____ _ ____ _ ____ _ ____ _ ____
 72
    65
 73
     4
 40
2.0
 49
1.25
 49
-0.25
 49
0.25
 49
-0.25
  0
LTYPE
  2
HIDDEN
 70
     0
  3
_ _ _ _ _ _ _ _ _ _ _ _ _ _ _ _ _ _ _ _ _ _ _
 72
    65
 73
     2
 40
0.375
 49
0.25
 49
-0.125
  0
LTYPE
  2
PHANTOM2
 70
     0
  3
___ _ _ ___ _ _ ___ _ _ ___ _ _
 72
    65
 73
     6
 40
1.25
 49
0.625
 49
-0.125
 49
0.125
 49
-0.125
 49
0.125
 49
-0.125
  0
ENDTAB
  0
TABLE
  2
LAYER
 70
     7
  0
LAYER
  2
0
 70
     0
 62
     7
  6
CONTINUOUS
  0
LAYER
  2
11
 70
     0
 62
     3
  6
CONTINUOUS
  0
LAYER
  2
ITTEN
 70
     0
 62
     1
  6
CENTER
  0
LAYER
  2
DEFPOINTS
 70
     0
 62
     7
  6
CONTINUOUS
  0
LAYER
  2
3
 70
     0
 62
     3
  6
CONTINUOUS
  0
LAYER
  2
1
 70
     0
 62
     1
  6
CENTER
  0
LAYER
  2
2
 70
     0
 62
     2
  6
HIDDEN
  0
ENDTAB
  0
TABLE
  2
STYLE
 70
     2
  0
STYLE
  2
STANDARD
 70
     0
 40
0.0
 41
1.0
 50
0.0
 71
     0
 42
0.2
  3
simplex
  4
bigfont
  0
STYLE
  2
STANDARD1
 70
     0
 40
0.0
 41
1.0
 50
0.0
 71
     0
 42
3.0
  3
txt
  4

  0
ENDTAB
  0
TABLE
  2
VIEW
 70
     0
  0
ENDTAB
  0
TABLE
  2
UCS
 70
     0
  0
ENDTAB
  0
TABLE
  2
APPID
 70
     3
  0
APPID
  2
ACAD
 70
     0
  0
APPID
  2
ACAD_MLEADERVER
 70
     0
  0
APPID
  2
ACAD_NAV_VCDISPLAY
 70
     0
  0
ENDTAB
  0
TABLE
  2
DIMSTYLE
 70
     1
  0
DIMSTYLE
  2
STANDARD
 70
     0
  3

  4

  5

  6

  7

 40
1.0
 41
0.18
 42
0.0625
 43
0.38
 44
0.18
 45
0.0
 46
0.0
 47
0.0
 48
0.0
140
0.18
141
0.09
142
0.0
143
25.399999999999999
144
1.0
145
0.0
146
1.0
147
0.09
 71
     0
 72
     0
 73
     1
 74
     1
 75
     0
 76
     0
 77
     0
 78
     0
170
     0
171
     2
172
     0
173
     0
174
     0
175
     0
176
     0
177
     0
178
     0
  0
ENDTAB
  0
ENDSEC
  0
SECTION
  2
BLOCKS
  0
BLOCK
  8
0
  2
$MODEL_SPACE
 70
     0
 10
0.0
 20
0.0
 30
0.0
  3
$MODEL_SPACE
  1

  0
ENDBLK
  5
7
  8
0
  0
BLOCK
 67
     1
  8
0
  2
$PAPER_SPACE
 70
     0
 10
0.0
 20
0.0
 30
0.0
  3
$PAPER_SPACE
  1

  0
ENDBLK
  5
A
 67
     1
  8
0
  0
BLOCK
  8
0
  2
BATU
 70
     0
 10
0.0
 20
0.0
 30
0.0
  3
BATU
  1

  0
LINE
  5
45
  8
ITTEN
 10
0.5
 20
0.0
 30
0.0
 11
-0.5
 21
0.0
 31
0.0
  0
LINE
  5
46
  8
ITTEN
 10
0.0
 20
0.5
 30
0.0
 11
0.0
 21
-0.5
 31
0.0
  0
ENDBLK
  5
48
  8
0
  0
BLOCK
  8
0
  2
STDGX5
 70
     0
 10
0.0
 20
0.0
 30
0.0
  3
STDGX5
  1

  0
ENDBLK
  5
4C
  8
0
  0
ENDSEC
  0
SECTION
  2
ENTITIES
  0
LINE
  5
294
  8
3
 10
176.89327637885739
 20
114.2250117724857
 30
0.0
 11
147.0932763778319
 21
114.2250117724858
 31
0.0
  0
LINE
  5
295
  8
3
 10
176.89327637885739
 20
111.87901032942599
 30
0.0
 11
147.0932763778319
 21
111.87901032942619
 31
0.0
  0
LINE
  5
296
  8
3
 10
176.89327637885739
 20
109.86554944955439
 30
0.0
 11
147.09327637783181
 21
109.86554944955451
 31
0.0
  0
LINE
  5
297
  8
3
 10
176.89327637885731
 20
108.23955109697241
 30
0.0
 11
147.09327637783181
 21
108.2395510969726
 31
0.0
  0
LINE
  5
298
  8
3
 10
176.89327637885731
 20
107.04536826807799
 30
0.0
 11
147.09327637783181
 21
107.04536826807821
 31
0.0
  0
LINE
  5
299
  8
3
 10
176.89327637885731
 20
106.31557515744041
 30
0.0
 11
147.34777983906821
 21
106.31557515744061
 31
0.0
  0
LINE
  5
29A
  8
0
 10
147.59327637781041
 20
106.0700786186983
 30
0.0
 11
179.99327637787849
 21
106.0700786186885
 31
0.0
  0
LINE
  5
29B
  8
3
 10
176.89327637885731
 20
141.8245820799381
 30
0.0
 11
147.34777983906019
 21
141.82458207993821
 31
0.0
  0
LINE
  5
29C
  8
3
 10
176.89327637885731
 20
141.0947889693004
 30
0.0
 11
147.0932763778319
 21
141.09478896930051
 31
0.0
  0
LINE
  5
29D
  8
3
 10
176.89327637885731
 20
139.9006061404057
 30
0.0
 11
147.0932763778319
 21
139.9006061404059
 31
0.0
  0
LINE
  5
29E
  8
3
 10
176.89327637885731
 20
138.27460778782401
 30
0.0
 11
147.0932763778319
 21
138.27460778782421
 31
0.0
  0
LINE
  5
29F
  8
3
 10
176.89327637885731
 20
136.26114690795239
 30
0.0
 11
147.0932763778319
 21
136.26114690795251
 31
0.0
  0
LINE
  5
2A0
  8
3
 10
176.89327637885731
 20
133.9151454648927
 30
0.0
 11
147.0932763778319
 21
133.91514546489279
 31
0.0
  0
LINE
  5
2A1
  8
3
 10
176.89327637885731
 20
131.3005962624425
 30
0.0
 11
147.0932763778319
 21
131.3005962624427
 31
0.0
  0
LINE
  5
2A2
  8
3
 10
176.89327637885731
 20
128.48881738722361
 30
0.0
 11
147.09327637783181
 21
128.48881738722369
 31
0.0
  0
LINE
  5
2A3
  8
3
 10
176.89327637885731
 20
125.55650683719109
 30
0.0
 11
147.0932763778319
 21
125.55650683719129
 31
0.0
  0
LINE
  5
2A4
  8
3
 10
176.89327637885731
 20
122.5836504001872
 30
0.0
 11
147.0932763778319
 21
122.5836504001873
 31
0.0
  0
LINE
  5
2A5
  8
3
 10
176.89327637885731
 20
119.6513398501549
 30
0.0
 11
147.0932763778319
 21
119.6513398501549
 31
0.0
  0
LINE
  5
2A6
  8
3
 10
176.89327637885731
 20
116.83956097493591
 30
0.0
 11
147.09327637783181
 21
116.83956097493611
 31
0.0
  0
LINE
  5
2A7
  8
1
 10
193.89327973801241
 20
124.07007861869531
 30
0.0
 11
141.39327637782571
 21
124.0700786186955
 31
0.0
  0
LINE
  5
2A8
  8
0
 10
147.59327637782039
 20
142.07007861869829
 30
0.0
 11
179.99327637789949
 21
142.07007861868789
 31
0.0
  0
LINE
  5
2A9
  8
0
 10
147.59327637781041
 20
106.0700786186983
 30
0.0
 11
147.59327637782039
 21
142.0700786186984
 31
0.0
  0
LINE
  5
2AA
  8
0
 10
147.0932763778319
 20
141.57007861871
 30
0.0
 11
147.09327637783181
 21
106.5700786186772
 31
0.0
  0
ARC
  5
2AB
  8
0
 10
153.39327637782571
 20
124.07007861873591
 30
0.0
 40
7.0
 50
154.15806723680831
 51
205.8419327631905
  0
LINE
  5
2AC
  8
0
 10
147.09327637783181
 20
106.5700786186772
 30
0.0
 11
147.59327637781041
 21
106.0700786186983
 31
0.0
  0
LINE
  5
2AD
  8
0
 10
147.0932763778319
 20
141.57007861871
 30
0.0
 11
147.59327637782039
 21
142.0700786186984
 31
0.0
  0
LINE
  5
2AE
  8
0
 10
147.0932763778201
 20
141.5700786186982
 30
0.0
 11
147.59327637782039
 21
142.07007861869829
 31
0.0
  0
LINE
  5
2AF
  8
1
 10
196.3932797380117
 20
109.0700786188423
 30
0.0
 11
186.39327973801241
 21
109.0700786188424
 31
0.0
  0
LINE
  5
2B0
  8
2
 10
168.89327637787551
 20
117.0700786186964
 30
0.0
 11
188.89327973801241
 21
117.0700786186962
 31
0.0
  0
LINE
  5
2B1
  8
2
 10
168.89327637787551
 20
117.0700786186963
 30
0.0
 11
168.89327637787579
 21
131.0700786186955
 31
0.0
  0
LINE
  5
2B2
  8
0
 10
176.89327637885731
 20
106.07007861868939
 30
0.0
 11
176.89327637885731
 21
142.07007861868891
 31
0.0
  0
LINE
  5
2B3
  8
0
 10
180.0932763778909
 20
106.0700786188424
 30
0.0
 11
180.09327637789099
 21
142.07007861884259
 31
0.0
  0
LINE
  5
2B4
  8
0
 10
179.99327637789949
 20
142.07007861868789
 30
0.0
 11
179.99327637787849
 21
106.0700786186891
 31
0.0
  0
LINE
  5
2B5
  8
0
 10
180.0932763778909
 20
107.07007861884721
 30
0.0
 11
179.99327637787911
 21
107.07007861884721
 31
0.0
  0
LINE
  5
2B6
  8
0
 10
180.09327637789099
 20
141.0700786185437
 30
0.0
 11
179.9932763778792
 21
141.0700786185437
 31
0.0
  0
LINE
  5
2B7
  8
0
 10
183.39327637787531
 20
142.0700786191282
 30
0.0
 11
180.09327637789099
 21
142.0700786188425
 31
0.0
  0
LINE
  5
2B8
  8
0
 10
193.39327973851161
 20
111.070078613988
 30
0.0
 11
183.39327637787531
 21
111.070078613988
 31
0.0
  0
LINE
  5
2B9
  8
0
 10
188.89327973801241
 20
106.0700786188405
 30
0.0
 11
180.0932763778909
 21
106.0700786188424
 31
0.0
  0
LINE
  5
2BA
  8
0
 10
193.39327973851169
 20
107.0700786179882
 30
0.0
 11
188.89327973801241
 21
107.0700786179881
 31
0.0
  0
LINE
  5
2BC
  8
0
 10
193.39327973851161
 20
111.070078613988
 30
0.0
 11
193.39327973851161
 21
107.070078617988
 31
0.0
  0
LINE
  5
2BD
  8
0
 10
193.89327973801161
 20
110.9361040179066
 30
0.0
 11
193.89327973801161
 21
107.2040532140695
 31
0.0
  0
LINE
  5
2BE
  8
0
 10
193.89327973801161
 20
107.2040532140695
 30
0.0
 11
193.39327973851161
 21
107.070078617988
 31
0.0
  0
LINE
  5
2BF
  8
0
 10
193.89327973801161
 20
110.9361040179066
 30
0.0
 11
193.39327973851161
 21
111.070078613988
 31
0.0
  0
LINE
  5
2C0
  8
2
 10
187.89327637787551
 20
131.0700786186955
 30
0.0
 11
187.89327637787551
 21
136.07007861869559
 31
0.0
  0
LINE
  5
2C1
  8
2
 10
183.89327637787559
 20
136.07007861869559
 30
0.0
 11
183.89327637787559
 21
131.0700786186955
 31
0.0
  0
LINE
  5
2C2
  8
2
 10
188.39327637787599
 20
135.57007861869519
 30
0.0
 11
188.39327637787599
 21
131.57007861869579
 31
0.0
  0
LINE
  5
2C3
  8
2
 10
183.39327637787531
 20
131.57007861869579
 30
0.0
 11
183.39327637787531
 21
135.57007861869519
 31
0.0
  0
LINE
  5
2C4
  8
1
 10
185.89327637787571
 20
128.5700786186955
 30
0.0
 11
185.89327637787579
 21
139.0700786188597
 31
0.0
  0
LINE
  5
2C5
  8
2
 10
188.39327637787599
 20
131.57007861869579
 30
0.0
 11
183.39327637787531
 21
131.57007861869579
 31
0.0
  0
LINE
  5
2C6
  8
2
 10
183.39327637787531
 20
131.57007861869579
 30
0.0
 11
183.89327637787559
 21
131.0700786186955
 31
0.0
  0
LINE
  5
2C7
  8
2
 10
187.89327637787551
 20
131.0700786186955
 30
0.0
 11
188.39327637787599
 21
131.57007861869579
 31
0.0
  0
LINE
  5
2C8
  8
2
 10
188.39327637787599
 20
135.57007861869519
 30
0.0
 11
183.39327637787531
 21
135.57007861869519
 31
0.0
  0
LINE
  5
2C9
  8
2
 10
183.89327637787559
 20
136.07007861869559
 30
0.0
 11
187.89327637787551
 21
136.07007861869559
 31
0.0
  0
LINE
  5
2CA
  8
2
 10
183.39327637787531
 20
135.57007861869519
 30
0.0
 11
183.89327637787559
 21
136.07007861869559
 31
0.0
  0
LINE
  5
2CB
  8
2
 10
187.89327637787551
 20
136.07007861869559
 30
0.0
 11
188.39327637787599
 21
135.57007861869519
 31
0.0
  0
LINE
  5
2CC
  8
2
 10
188.89327973801241
 20
131.0700786186955
 30
0.0
 11
168.89327637787579
 21
131.07007861869559
 31
0.0
  0
INSERT
  5
2CD
  8
0
  2
STDGX5
 10
624.90392597893799
 20
61.253563269138731
 30
0.0
  0
INSERT
  5
2CE
  8
0
  2
STDGX5
 10
624.90392597893799
 20
61.253563269138731
 30
0.0
  0
INSERT
  5
2CF
  8
0
  2
STDGX5
 10
899.90392597893799
 20
61.253563269138731
 30
0.0
  0
INSERT
  5
2D0
  8
0
  2
STDGX5
 10
899.90392597893799
 20
61.253563269138731
 30
0.0
  0
INSERT
  5
2D1
  8
0
  2
STDGX5
 10
624.90392597893799
 20
61.253563269138731
 30
0.0
 41
2.0
 42
2.0
 43
2.0
  0
INSERT
  5
2D2
  8
0
  2
STDGX5
 10
624.90392597893799
 20
61.253563269138731
 30
0.0
 41
2.0
 42
2.0
 43
2.0
  0
INSERT
  5
2D3
  8
0
  2
STDGX5
 10
1174.9039259789381
 20
61.253563269138731
 30
0.0
 41
2.0
 42
2.0
 43
2.0
  0
INSERT
  5
2D4
  8
0
  2
STDGX5
 10
1174.9039259789381
 20
61.253563269138731
 30
0.0
 41
2.0
 42
2.0
 43
2.0
  0
INSERT
  5
2D5
  8
0
  2
STDGX5
 10
624.90392597893799
 20
61.253563269138731
 30
0.0
  0
INSERT
  5
2D6
  8
0
  2
STDGX5
 10
624.90392597893799
 20
61.253563269138731
 30
0.0
  0
INSERT
  5
2D7
  8
0
  2
STDGX5
 10
899.90392597893799
 20
61.253563269138731
 30
0.0
  0
INSERT
  5
2D8
  8
0
  2
STDGX5
 10
899.90392597893799
 20
61.253563269138731
 30
0.0
  0
INSERT
  5
2D9
  8
0
  2
STDGX5
 10
1021.97665687398
 20
75.343675230084102
 30
0.0
  0
INSERT
  5
2DA
  8
0
  2
STDGX5
 10
1021.97665687398
 20
75.343675230084102
 30
0.0
  0
INSERT
  5
2DB
  8
0
  2
STDGX5
 10
1296.9766568739799
 20
75.343675230084102
 30
0.0
  0
INSERT
  5
2DC
  8
0
  2
STDGX5
 10
1296.9766568739799
 20
75.343675230084102
 30
0.0
  0
INSERT
  5
2DD
  8
0
  2
STDGX5
 10
1021.97665687398
 20
75.343675230084102
 30
0.0
 41
2.0
 42
2.0
 43
2.0
  0
INSERT
  5
2DE
  8
0
  2
STDGX5
 10
1021.97665687398
 20
75.343675230084102
 30
0.0
 41
2.0
 42
2.0
 43
2.0
  0
INSERT
  5
2DF
  8
0
  2
STDGX5
 10
1571.9766568739799
 20
75.343675230084102
 30
0.0
 41
2.0
 42
2.0
 43
2.0
  0
INSERT
  5
2E0
  8
0
  2
STDGX5
 10
1571.9766568739799
 20
75.343675230084102
 30
0.0
 41
2.0
 42
2.0
 43
2.0
  0
INSERT
  5
2E1
  8
0
  2
STDGX5
 10
1021.97665687398
 20
75.343675230084102
 30
0.0
  0
INSERT
  5
2E2
  8
0
  2
STDGX5
 10
1021.97665687398
 20
75.343675230084102
 30
0.0
  0
INSERT
  5
2E3
  8
0
  2
STDGX5
 10
1296.9766568739799
 20
75.343675230084102
 30
0.0
  0
INSERT
  5
2E4
  8
0
  2
STDGX5
 10
1296.9766568739799
 20
75.343675230084102
 30
0.0
  0
INSERT
  5
2E5
  8
0
  2
STDGX5
 10
624.90392597893799
 20
61.253563269138731
 30
0.0
 41
0.25
 42
0.25
 43
0.25
  0
INSERT
  5
2E6
  8
0
  2
STDGX5
 10
624.90392597893799
 20
61.253563269138731
 30
0.0
 41
0.25
 42
0.25
 43
0.25
  0
INSERT
  5
2E7
  8
0
  2
STDGX5
 10
693.65392597893799
 20
61.253563269138731
 30
0.0
 41
0.25
 42
0.25
 43
0.25
  0
INSERT
  5
2E8
  8
0
  2
STDGX5
 10
693.65392597893799
 20
61.253563269138731
 30
0.0
 41
0.25
 42
0.25
 43
0.25
  0
INSERT
  5
2E9
  8
0
  2
STDGX5
 10
624.90392597893799
 20
61.253563269138731
 30
0.0
 41
0.5
 42
0.5
 43
0.5
  0
INSERT
  5
2EA
  8
0
  2
STDGX5
 10
624.90392597893799
 20
61.253563269138731
 30
0.0
 41
0.5
 42
0.5
 43
0.5
  0
INSERT
  5
2EB
  8
0
  2
STDGX5
 10
762.40392597893799
 20
61.253563269138731
 30
0.0
 41
0.5
 42
0.5
 43
0.5
  0
INSERT
  5
2EC
  8
0
  2
STDGX5
 10
762.40392597893799
 20
61.253563269138731
 30
0.0
 41
0.5
 42
0.5
 43
0.5
  0
INSERT
  5
2EE
  8
0
  2
STDGX5
 10
589.9039259789381
 20
-38.746436730861262
 30
0.0
 41
0.3333333333333144
 42
0.3333333333333144
 43
0.3333333333333144
  0
INSERT
  5
2EF
  8
0
  2
STDGX5
 10
589.9039259789381
 20
-38.746436730861262
 30
0.0
 41
0.3333333333333144
 42
0.3333333333333144
 43
0.3333333333333144
  0
INSERT
  5
2F0
  8
0
  2
STDGX5
 10
681.57059264560473
 20
-38.746436730861262
 30
0.0
 41
0.3333333333333144
 42
0.3333333333333144
 43
0.3333333333333144
  0
INSERT
  5
2F1
  8
0
  2
STDGX5
 10
681.57059264560473
 20
-38.746436730861262
 30
0.0
 41
0.3333333333333144
 42
0.3333333333333144
 43
0.3333333333333144
  0
INSERT
  5
2F3
  8
0
  2
STDGX5
 10
589.9039259789381
 20
-38.746436730861262
 30
0.0
 41
0.3333333333333144
 42
0.3333333333333144
 43
0.3333333333333144
  0
INSERT
  5
2F4
  8
0
  2
STDGX5
 10
589.9039259789381
 20
-38.746436730861262
 30
0.0
 41
0.3333333333333144
 42
0.3333333333333144
 43
0.3333333333333144
  0
INSERT
  5
2F5
  8
0
  2
STDGX5
 10
681.57059264560473
 20
-38.746436730861262
 30
0.0
 41
0.3333333333333144
 42
0.3333333333333144
 43
0.3333333333333144
  0
INSERT
  5
2F6
  8
0
  2
STDGX5
 10
681.57059264560473
 20
-38.746436730861262
 30
0.0
 41
0.3333333333333144
 42
0.3333333333333144
 43
0.3333333333333144
  0
INSERT
  5
2F7
  8
0
  2
STDGX5
 10
624.90392597893799
 20
61.253563269138731
 30
0.0
  0
INSERT
  5
2F8
  8
0
  2
STDGX5
 10
624.90392597893799
 20
61.253563269138731
 30
0.0
  0
INSERT
  5
2F9
  8
0
  2
STDGX5
 10
899.90392597893799
 20
61.253563269138731
 30
0.0
  0
INSERT
  5
2FA
  8
0
  2
STDGX5
 10
899.90392597893799
 20
61.253563269138731
 30
0.0
  0
INSERT
  5
2FB
  8
0
  2
STDGX5
 10
1200.510256130116
 20
152.11925229911321
 30
0.0
  0
INSERT
  5
2FC
  8
0
  2
STDGX5
 10
1200.510256130116
 20
152.11925229911321
 30
0.0
  0
INSERT
  5
2FD
  8
0
  2
STDGX5
 10
1475.510256130116
 20
152.11925229911321
 30
0.0
  0
INSERT
  5
2FE
  8
0
  2
STDGX5
 10
1475.510256130116
 20
152.11925229911321
 30
0.0
  0
INSERT
  5
2FF
  8
0
  2
STDGX5
 10
1200.510256130116
 20
152.11925229911321
 30
0.0
 41
2.0
 42
2.0
 43
2.0
  0
INSERT
  5
300
  8
0
  2
STDGX5
 10
1200.510256130116
 20
152.11925229911321
 30
0.0
 41
2.0
 42
2.0
 43
2.0
  0
INSERT
  5
301
  8
0
  2
STDGX5
 10
1750.510256130116
 20
152.11925229911321
 30
0.0
 41
2.0
 42
2.0
 43
2.0
  0
INSERT
  5
302
  8
0
  2
STDGX5
 10
1750.510256130116
 20
152.11925229911321
 30
0.0
 41
2.0
 42
2.0
 43
2.0
  0
INSERT
  5
303
  8
0
  2
STDGX5
 10
1200.510256130116
 20
152.11925229911321
 30
0.0
  0
INSERT
  5
304
  8
0
  2
STDGX5
 10
1200.510256130116
 20
152.11925229911321
 30
0.0
  0
INSERT
  5
305
  8
0
  2
STDGX5
 10
1475.510256130116
 20
152.11925229911321
 30
0.0
  0
INSERT
  5
306
  8
0
  2
STDGX5
 10
1475.510256130116
 20
152.11925229911321
 30
0.0
  0
INSERT
  5
307
  8
0
  2
STDGX5
 10
1597.582987025158
 20
166.20936426005861
 30
0.0
  0
INSERT
  5
308
  8
0
  2
STDGX5
 10
1597.582987025158
 20
166.20936426005861
 30
0.0
  0
INSERT
  5
309
  8
0
  2
STDGX5
 10
1872.582987025158
 20
166.20936426005861
 30
0.0
  0
INSERT
  5
30A
  8
0
  2
STDGX5
 10
1872.582987025158
 20
166.20936426005861
 30
0.0
  0
INSERT
  5
30B
  8
0
  2
STDGX5
 10
1597.582987025158
 20
166.20936426005861
 30
0.0
 41
2.0
 42
2.0
 43
2.0
  0
INSERT
  5
30C
  8
0
  2
STDGX5
 10
1597.582987025158
 20
166.20936426005861
 30
0.0
 41
2.0
 42
2.0
 43
2.0
  0
INSERT
  5
30D
  8
0
  2
STDGX5
 10
2147.5829870251582
 20
166.20936426005861
 30
0.0
 41
2.0
 42
2.0
 43
2.0
  0
INSERT
  5
30E
  8
0
  2
STDGX5
 10
2147.5829870251582
 20
166.20936426005861
 30
0.0
 41
2.0
 42
2.0
 43
2.0
  0
INSERT
  5
30F
  8
0
  2
STDGX5
 10
1597.582987025158
 20
166.20936426005861
 30
0.0
  0
INSERT
  5
310
  8
0
  2
STDGX5
 10
1597.582987025158
 20
166.20936426005861
 30
0.0
  0
INSERT
  5
311
  8
0
  2
STDGX5
 10
1872.582987025158
 20
166.20936426005861
 30
0.0
  0
INSERT
  5
312
  8
0
  2
STDGX5
 10
1872.582987025158
 20
166.20936426005861
 30
0.0
  0
INSERT
  5
313
  8
0
  2
STDGX5
 10
1200.510256130116
 20
152.11925229911321
 30
0.0
 41
0.25
 42
0.25
 43
0.25
  0
INSERT
  5
314
  8
0
  2
STDGX5
 10
1200.510256130116
 20
152.11925229911321
 30
0.0
 41
0.25
 42
0.25
 43
0.25
  0
INSERT
  5
315
  8
0
  2
STDGX5
 10
1269.260256130116
 20
152.11925229911321
 30
0.0
 41
0.25
 42
0.25
 43
0.25
  0
INSERT
  5
316
  8
0
  2
STDGX5
 10
1269.260256130116
 20
152.11925229911321
 30
0.0
 41
0.25
 42
0.25
 43
0.25
  0
INSERT
  5
317
  8
0
  2
STDGX5
 10
1200.510256130116
 20
152.11925229911321
 30
0.0
 41
0.5
 42
0.5
 43
0.5
  0
INSERT
  5
318
  8
0
  2
STDGX5
 10
1200.510256130116
 20
152.11925229911321
 30
0.0
 41
0.5
 42
0.5
 43
0.5
  0
INSERT
  5
319
  8
0
  2
STDGX5
 10
1338.010256130116
 20
152.11925229911321
 30
0.0
 41
0.5
 42
0.5
 43
0.5
  0
INSERT
  5
31A
  8
0
  2
STDGX5
 10
1338.010256130116
 20
152.11925229911321
 30
0.0
 41
0.5
 42
0.5
 43
0.5
  0
INSERT
  5
31C
  8
0
  2
STDGX5
 10
1165.510256130116
 20
52.119252299113207
 30
0.0
 41
0.3333333333333144
 42
0.3333333333333144
 43
0.3333333333333144
  0
INSERT
  5
31D
  8
0
  2
STDGX5
 10
1165.510256130116
 20
52.119252299113207
 30
0.0
 41
0.3333333333333144
 42
0.3333333333333144
 43
0.3333333333333144
  0
INSERT
  5
31E
  8
0
  2
STDGX5
 10
1257.1769227967829
 20
52.119252299113207
 30
0.0
 41
0.3333333333333144
 42
0.3333333333333144
 43
0.3333333333333144
  0
INSERT
  5
31F
  8
0
  2
STDGX5
 10
1257.1769227967829
 20
52.119252299113207
 30
0.0
 41
0.3333333333333144
 42
0.3333333333333144
 43
0.3333333333333144
  0
INSERT
  5
321
  8
0
  2
STDGX5
 10
1165.510256130116
 20
52.119252299113207
 30
0.0
 41
0.3333333333333144
 42
0.3333333333333144
 43
0.3333333333333144
  0
INSERT
  5
322
  8
0
  2
STDGX5
 10
1165.510256130116
 20
52.119252299113207
 30
0.0
 41
0.3333333333333144
 42
0.3333333333333144
 43
0.3333333333333144
  0
INSERT
  5
323
  8
0
  2
STDGX5
 10
1257.1769227967829
 20
52.119252299113207
 30
0.0
 41
0.3333333333333144
 42
0.3333333333333144
 43
0.3333333333333144
  0
INSERT
  5
324
  8
0
  2
STDGX5
 10
1257.1769227967829
 20
52.119252299113207
 30
0.0
 41
0.3333333333333144
 42
0.3333333333333144
 43
0.3333333333333144
  0
INSERT
  5
325
  8
0
  2
STDGX5
 10
1200.510256130116
 20
152.11925229911321
 30
0.0
  0
INSERT
  5
326
  8
0
  2
STDGX5
 10
1200.510256130116
 20
152.11925229911321
 30
0.0
  0
INSERT
  5
327
  8
0
  2
STDGX5
 10
1475.510256130116
 20
152.11925229911321
 30
0.0
  0
INSERT
  5
328
  8
0
  2
STDGX5
 10
1475.510256130116
 20
152.11925229911321
 30
0.0
  0
CIRCLE
  5
329
  8
0
 10
92.707269619391795
 20
124.0700786186957
 30
0.0
 40
17.0
  0
ARC
  5
32A
  8
0
 10
103.7479246243129
 20
136.33196823907261
 30
0.0
 40
1.500000000000014
 50
8.5994312462503668
 51
87.400568753749326
  0
ARC
  5
32B
  8
0
 10
81.666614614470745
 20
136.33196823907261
 30
0.0
 40
1.49999999999999
 50
92.599431246250674
 51
171.4005687537495
  0
CIRCLE
  5
32C
  8
0
 10
92.707269619391795
 20
124.0700786186957
 30
0.0
 40
17.999999999999879
  0
CIRCLE
  5
32D
  8
0
 10
92.707269619391795
 20
124.0700786186957
 30
0.0
 40
17.499999999999609
  0
ARC
  5
32E
  8
0
 10
106.0560500265783
 20
114.3716219558699
 30
0.0
 40
1.500000000000002
 50
284.5994312462488
 51
3.400568753748868
  0
ARC
  5
32F
  8
0
 10
79.358489212205313
 20
114.3716219558699
 30
0.0
 40
1.49999999999998
 50
176.5994312462505
 51
255.4005687537512
  0
ARC
  5
330
  8
0
 10
103.29742719012459
 20
108.9010785650653
 30
0.0
 40
1.0000000000000819
 50
124.92061660902679
 51
159.40056875374941
  0
ARC
  5
331
  8
0
 10
87.608489212205086
 20
108.3776460998258
 30
0.0
 40
1.4999999999999829
 50
212.5994312462513
 51
291.40056875375041
  0
ARC
  5
332
  8
0
 10
92.707269619390445
 20
124.0700786186918
 30
0.0
 40
17.49999999999552
 50
244.9206166090236
 51
247.0793833909735
  0
ARC
  5
333
  8
0
 10
84.457269619391809
 20
109.78065945625249
 30
0.0
 40
1.500000000000006
 50
200.5994312462509
 51
279.40056875374933
  0
ARC
  5
334
  8
0
 10
85.502344849351402
 20
107.0307400441487
 30
0.0
 40
0.9999999999999978
 50
32.599431246249928
 51
67.079383390975266
  0
ARC
  5
335
  8
0
 10
78.728339831845005
 20
111.95234277428889
 30
0.0
 40
0.9999999999999699
 50
40.920616609027853
 51
75.400568753751173
  0
ARC
  5
336
  8
0
 10
81.666614614470745
 20
111.8081889983187
 30
0.0
 40
1.500000000000014
 50
188.59943124625039
 51
267.40056875374933
  0
ARC
  5
337
  8
0
 10
92.707269619392036
 20
124.0700786186942
 30
0.0
 40
17.499999999998568
 50
232.9206166090207
 51
235.07938339097109
  0
ARC
  5
338
  8
0
 10
81.553231935170061
 20
109.31076144821149
 30
0.0
 40
1.0000000000000071
 50
52.920616609026787
 51
87.400568753749326
  0
ARC
  5
339
  8
0
 10
82.11711204865901
 20
108.9010785650654
 30
0.0
 40
0.9999999999999829
 50
20.599431246251552
 51
55.079383390977121
  0
ARC
  5
33A
  8
0
 10
84.865609008306805
 20
107.3142331055458
 30
0.0
 40
1.000000000000038
 50
64.920616609025188
 51
99.400568753747635
  0
ARC
  5
33B
  8
0
 10
79.194719951021625
 20
111.4343751772637
 30
0.0
 40
0.9999999999999847
 50
8.5994312462583995
 51
43.079383390982059
  0
ARC
  5
33C
  8
0
 10
92.707269619393855
 20
124.07007861869189
 30
0.0
 40
17.499999999998579
 50
220.92061660901101
 51
223.07938339096091
  0
ARC
  5
33D
  8
0
 10
100.9572696193915
 20
109.78065945625249
 30
0.0
 40
1.5000000000000491
 50
260.59943124625067
 51
339.40056875374933
  0
ARC
  5
33E
  8
0
 10
92.707269619392719
 20
124.07007861869469
 30
0.0
 40
17.49999999999844
 50
292.920616609023
 51
295.07938339097279
  0
ARC
  5
33F
  8
0
 10
94.431989263307969
 20
107.6604673451193
 30
0.0
 40
1.500000000000024
 50
236.59943124624911
 51
315.4005687537483
  0
ARC
  5
340
  8
0
 10
90.982549975475422
 20
107.6604673451193
 30
0.0
 40
1.500000000000002
 50
224.5994312462517
 51
303.4005687537508
  0
ARC
  5
341
  8
0
 10
92.707269619391795
 20
124.0700786186959
 30
0.0
 40
17.499999999999801
 50
256.92061660902499
 51
259.0793833909749
  0
ARC
  5
342
  8
0
 10
88.52070427861031
 20
106.050015615272
 30
0.0
 40
1.0000000000001359
 50
76.920616609026695
 51
111.4005687537486
  0
ARC
  5
343
  8
0
 10
89.202467435559583
 20
105.9051023827577
 30
0.0
 40
0.9999999999999678
 50
44.599431246251989
 51
79.079383390976602
  0
ARC
  5
344
  8
0
 10
93.055766695108105
 20
105.5733613481041
 30
0.0
 40
0.9999999999999637
 50
56.5994312462511
 51
91.079383390975877
  0
ARC
  5
345
  8
0
 10
92.707269619391795
 20
124.07007861869501
 30
0.0
 40
17.49999999999892
 50
268.92061660902573
 51
271.07938339097427
  0
ARC
  5
346
  8
0
 10
92.358772543675514
 20
105.5733613481041
 30
0.0
 40
0.9999999999999026
 50
88.920616609024108
 51
123.40056875374709
  0
ARC
  5
347
  8
0
 10
97.806050026578305
 20
108.3776460998257
 30
0.0
 40
1.499999999999954
 50
248.5994312462513
 51
327.40056875375018
  0
ARC
  5
348
  8
0
 10
96.893834960173081
 20
106.050015615272
 30
0.0
 40
1.000000000000087
 50
68.59943124625309
 51
103.0793833909766
  0
ARC
  5
349
  8
0
 10
92.707269619391596
 20
124.0700786186958
 30
0.0
 40
17.499999999999812
 50
280.92061660902499
 51
283.07938339097501
  0
ARC
  5
34A
  8
0
 10
96.212071803223807
 20
105.9051023827578
 30
0.0
 40
0.999999999999928
 50
100.92061660902669
 51
135.40056875375001
  0
ARC
  5
34B
  8
0
 10
99.912194389431988
 20
107.0307400441486
 30
0.0
 40
1.000000000000004
 50
112.92061660902471
 51
147.40056875374771
  0
ARC
  5
34C
  8
0
 10
100.5489302304765
 20
107.3142331055459
 30
0.0
 40
0.9999999999998964
 50
80.599431246250688
 51
115.0793833909761
  0
ARC
  5
34D
  8
0
 10
103.7479246243129
 20
111.8081889983187
 30
0.0
 40
1.500000000000004
 50
272.59943124625067
 51
351.40056875374898
  0
ARC
  5
34E
  8
0
 10
103.8613073036133
 20
109.31076144821149
 30
0.0
 40
0.9999999999999593
 50
92.599431246250674
 51
127.07938339097539
  0
ARC
  5
34F
  8
0
 10
92.707269619392946
 20
124.07007861869459
 30
0.0
 40
17.499999999998039
 50
304.92061660902442
 51
307.07938339097342
  0
ARC
  5
350
  8
0
 10
92.707269619391354
 20
124.07007861869459
 30
0.0
 40
17.499999999999289
 50
316.92061660902903
 51
319.07938339097768
  0
ARC
  5
351
  8
0
 10
106.21981928776199
 20
111.4343751772636
 30
0.0
 40
1.0000000000000491
 50
136.92061660901939
 51
171.4005687537416
  0
ARC
  5
352
  8
0
 10
106.6861994069386
 20
111.95234277428889
 30
0.0
 40
0.9999999999999685
 50
104.5994312462521
 51
139.07938339097689
  0
ARC
  5
353
  8
0
 10
92.707269619390217
 20
124.0700786186939
 30
0.0
 40
17.499999999998149
 50
172.92061660901919
 51
175.07938339096879
  0
ARC
  5
354
  8
0
 10
92.707269619390217
 20
124.0700786186939
 30
0.0
 40
17.499999999998149
 50
172.92061660901919
 51
175.07938339096879
  0
ARC
  5
355
  8
0
 10
76.567834207284022
 20
120.6395357202027
 30
0.0
 40
1.4999999999999829
 50
152.59943124625011
 51
231.40056875375029
  0
ARC
  5
356
  8
0
 10
77.633769568289154
 20
117.35892400794501
 30
0.0
 40
1.500000000000002
 50
164.59943124625019
 51
243.40056875374941
  0
ARC
  5
357
  8
0
 10
76.862891114299373
 20
114.5199126626851
 30
0.0
 40
0.9999999999999074
 50
356.59943124625028
 51
31.07938339097382
  0
ARC
  5
358
  8
0
 10
92.707269619390658
 20
124.0700786186959
 30
0.0
 40
17.49999999999876
 50
208.92061660902769
 51
211.07938339097689
  0
ARC
  5
359
  8
0
 10
76.514394038583077
 20
115.1235273041147
 30
0.0
 40
0.9999999999999417
 50
28.920616609024691
 51
63.400568753747557
  0
ARC
  5
35A
  8
0
 10
75.22353764801278
 20
118.0228382271645
 30
0.0
 40
1.000000000000008
 50
344.59943124625659
 51
19.0793833909817
  0
ARC
  5
35B
  8
0
 10
92.707269619392264
 20
124.0700786186943
 30
0.0
 40
17.499999999999559
 50
196.92061660902061
 51
199.07938339097001
  0
ARC
  5
35C
  8
0
 10
75.008154610240354
 20
118.685719056704
 30
0.0
 40
1.000000000000012
 50
16.920616609031558
 51
51.40056875375496
  0
ARC
  5
35D
  8
0
 10
74.27545143757402
 20
122.48323315917609
 30
0.0
 40
0.9999999999999794
 50
4.9206166090208319
 51
39.40056875374281
  0
ARC
  5
35E
  8
0
 10
74.27545143757402
 20
122.48323315917609
 30
0.0
 40
0.9999999999999794
 50
4.9206166090208319
 51
39.40056875374281
  0
ARC
  5
35F
  8
0
 10
74.348307165130109
 20
121.7900572146329
 30
0.0
 40
0.999999999999893
 50
332.59943124623942
 51
7.079383390964141
  0
ARC
  5
360
  8
0
 10
74.348307165130109
 20
121.7900572146329
 30
0.0
 40
0.999999999999893
 50
332.59943124623942
 51
7.079383390964141
  0
ARC
  5
361
  8
0
 10
92.707269619393173
 20
124.0700786186988
 30
0.0
 40
17.500000000001169
 50
184.92061660903511
 51
187.0793833909847
  0
ARC
  5
362
  8
0
 10
92.707269619393173
 20
124.0700786186988
 30
0.0
 40
17.500000000001169
 50
184.92061660903511
 51
187.0793833909847
  0
ARC
  5
363
  8
0
 10
74.27545143757402
 20
125.6569240782152
 30
0.0
 40
0.999999999999924
 50
320.59943124625562
 51
355.0793833909795
  0
ARC
  5
364
  8
0
 10
74.27545143757402
 20
125.6569240782152
 30
0.0
 40
0.999999999999924
 50
320.59943124625562
 51
355.0793833909795
  0
ARC
  5
365
  8
0
 10
76.207269619392036
 20
124.0700786186957
 30
0.0
 40
1.499999999999998
 50
140.59943124625011
 51
219.4005687537497
  0
ARC
  5
366
  8
0
 10
76.207269619392036
 20
124.0700786186957
 30
0.0
 40
1.499999999999998
 50
140.59943124625011
 51
219.4005687537497
  0
ARC
  5
367
  8
0
 10
77.633769568288926
 20
130.78123322944629
 30
0.0
 40
1.499999999999992
 50
116.59943124625261
 51
195.40056875375109
  0
ARC
  5
368
  8
0
 10
76.56783420728425
 20
127.50062151718861
 30
0.0
 40
1.4999999999999889
 50
128.59943124624951
 51
207.40056875374961
  0
ARC
  5
369
  8
0
 10
74.348307165129881
 20
126.3501000227585
 30
0.0
 40
1.00000000000003
 50
352.92061660902448
 51
27.40056875374718
  0
ARC
  5
36A
  8
0
 10
74.348307165129881
 20
126.3501000227585
 30
0.0
 40
1.00000000000003
 50
352.92061660902448
 51
27.40056875374718
  0
ARC
  5
36B
  8
0
 10
75.22353764801278
 20
130.11731901022679
 30
0.0
 40
1.0000000000000251
 50
340.92061660902448
 51
15.40056875374669
  0
ARC
  5
36C
  8
0
 10
92.707269619391354
 20
124.0700786186971
 30
0.0
 40
17.49999999999876
 50
160.92061660902939
 51
163.07938339097899
  0
ARC
  5
36D
  8
0
 10
75.008154610240354
 20
129.45443818068719
 30
0.0
 40
0.9999999999999575
 50
308.5994312462513
 51
343.07938339097598
  0
ARC
  5
36E
  8
0
 10
78.728339831845005
 20
136.1878144631024
 30
0.0
 40
0.9999999999999349
 50
284.5994312462488
 51
319.07938339097427
  0
ARC
  5
36F
  8
0
 10
79.358489212205313
 20
133.76853528152151
 30
0.0
 40
1.499999999999976
 50
104.5994312462505
 51
183.4005687537506
  0
ARC
  5
370
  8
0
 10
92.707269619392946
 20
124.07007861869521
 30
0.0
 40
17.500000000000782
 50
148.9206166090261
 51
151.07938339097529
  0
ARC
  5
371
  8
0
 10
76.514394038583077
 20
133.0166299332767
 30
0.0
 40
1.0000000000000131
 50
296.59943124624328
 51
331.07938339096762
  0
ARC
  5
372
  8
0
 10
76.862891114299146
 20
133.62024457470631
 30
0.0
 40
1.0000000000000251
 50
328.92061660902749
 51
3.400568753750087
  0
ARC
  5
373
  8
0
 10
92.707269619390885
 20
124.07007861869531
 30
0.0
 40
17.499999999999261
 50
136.9206166090222
 51
139.07938339097191
  0
ARC
  5
374
  8
0
 10
79.194719951021625
 20
136.70578206012749
 30
0.0
 40
0.9999999999999637
 50
316.92061660902908
 51
351.4005687537524
  0
ARC
  5
375
  8
0
 10
92.707269619392036
 20
124.0700786186955
 30
0.0
 40
17.499999999999321
 50
4.920616609025938
 51
7.0793833909753259
  0
ARC
  5
376
  8
0
 10
108.8467050314994
 20
120.6395357202026
 30
0.0
 40
1.4999999999999909
 50
308.59943124625192
 51
27.400568753750822
  0
ARC
  5
377
  8
0
 10
107.78076967049471
 20
117.35892400794501
 30
0.0
 40
1.500000000000004
 50
296.59943124625062
 51
15.40056875374975
  0
ARC
  5
378
  8
0
 10
108.5516481244845
 20
114.519912662685
 30
0.0
 40
1.0000000000000251
 50
148.9206166090276
 51
183.4005687537493
  0
ARC
  5
379
  8
0
 10
92.707269619393628
 20
124.0700786186958
 30
0.0
 40
17.499999999998071
 50
328.92061660902118
 51
331.07938339097132
  0
ARC
  5
37A
  8
0
 10
108.9001452002005
 20
115.1235273041147
 30
0.0
 40
0.9999999999999101
 50
116.59943124625239
 51
151.07938339097799
  0
ARC
  5
37B
  8
0
 10
110.1910015907708
 20
118.0228382271643
 30
0.0
 40
1.000000000000004
 50
160.92061660901859
 51
195.40056875374219
  0
ARC
  5
37C
  8
0
 10
92.707269619392719
 20
124.0700786186942
 30
0.0
 40
17.499999999998241
 50
340.92061660902891
 51
343.07938339097831
  0
ARC
  5
37D
  8
0
 10
110.40638462854319
 20
118.685719056704
 30
0.0
 40
0.9999999999999575
 50
128.5994312462513
 51
163.07938339097601
  0
ARC
  5
37E
  8
0
 10
109.20726961939179
 20
124.0700786186957
 30
0.0
 40
1.4999999999999929
 50
320.59943124625028
 51
39.400568753749617
  0
ARC
  5
37F
  8
0
 10
111.1390878012096
 20
122.483233159176
 30
0.0
 40
0.9999999999999865
 50
140.5994312462505
 51
175.07938339097581
  0
ARC
  5
380
  8
0
 10
111.06623207365369
 20
121.7900572146327
 30
0.0
 40
1.0000000000000411
 50
172.92061660901871
 51
207.40056875374111
  0
ARC
  5
381
  8
0
 10
92.707269619393628
 20
124.0700786186958
 30
0.0
 40
17.499999999997851
 50
352.92061660902431
 51
355.07938339097359
  0
ARC
  5
382
  8
0
 10
111.1390878012096
 20
125.6569240782153
 30
0.0
 40
1.000000000000042
 50
184.9206166090255
 51
219.40056875374759
  0
ARC
  5
383
  8
0
 10
107.78076967049471
 20
130.78123322944629
 30
0.0
 40
1.500000000000002
 50
344.59943124625028
 51
63.400568753749383
  0
ARC
  5
384
  8
0
 10
108.8467050314996
 20
127.50062151718861
 30
0.0
 40
1.500000000000024
 50
332.59943124625221
 51
51.400568753750591
  0
ARC
  5
385
  8
0
 10
111.06623207365369
 20
126.3501000227584
 30
0.0
 40
1.000000000000022
 50
152.59943124624641
 51
187.079383390971
  0
ARC
  5
386
  8
0
 10
110.40638462854319
 20
129.4544381806873
 30
0.0
 40
0.9999999999999706
 50
196.92061660902681
 51
231.4005687537487
  0
ARC
  5
387
  8
0
 10
110.1910015907708
 20
130.11731901022671
 30
0.0
 40
1.0000000000000291
 50
164.59943124625241
 51
199.07938339097541
  0
ARC
  5
388
  8
0
 10
92.707269619392946
 20
124.0700786186957
 30
0.0
 40
17.49999999999855
 50
16.920616609026311
 51
19.079383390975739
  0
ARC
  5
389
  8
0
 10
106.0560500265783
 20
133.76853528152139
 30
0.0
 40
1.49999999999998
 50
356.5994312462505
 51
75.400568753751216
  0
ARC
  5
38A
  8
0
 10
92.707269619392036
 20
124.07007861869531
 30
0.0
 40
17.499999999999599
 50
28.920616609026052
 51
31.07938339097602
  0
ARC
  5
38B
  8
0
 10
108.9001452002005
 20
133.01662993327659
 30
0.0
 40
0.9999999999999355
 50
208.92061660902499
 51
243.40056875374751
  0
ARC
  5
38C
  8
0
 10
108.5516481244845
 20
133.62024457470619
 30
0.0
 40
1.0000000000000191
 50
176.599431246249
 51
211.0793833909724
  0
ARC
  5
38D
  8
0
 10
92.707269619393401
 20
124.0700786186968
 30
0.0
 40
17.49999999999768
 50
40.920616609025679
 51
43.079383390975501
  0
ARC
  5
38E
  8
0
 10
106.6861994069386
 20
136.18781446310251
 30
0.0
 40
0.999999999999998
 50
220.9206166090253
 51
255.4005687537479
  0
ARC
  5
38F
  8
0
 10
106.21981928776199
 20
136.7057820601276
 30
0.0
 40
1.00000000000005
 50
188.59943124625681
 51
223.0793833909805
  0
ARC
  5
390
  8
0
 10
103.29742719012459
 20
139.2390786723258
 30
0.0
 40
0.9999999999999012
 50
200.5994312462486
 51
235.07938339097339
  0
ARC
  5
391
  8
0
 10
87.608489212205086
 20
139.7625111375655
 30
0.0
 40
1.500000000000028
 50
68.599431246249623
 51
147.40056875374879
  0
ARC
  5
392
  8
0
 10
85.502344849351402
 20
141.10941719324271
 30
0.0
 40
1.000000000000012
 50
292.92061660902471
 51
327.40056875374722
  0
ARC
  5
393
  8
0
 10
84.457269619391809
 20
138.35949778113871
 30
0.0
 40
1.4999999999999929
 50
80.599431246250688
 51
159.40056875374901
  0
ARC
  5
394
  8
0
 10
92.707269619390445
 20
124.0700786186969
 30
0.0
 40
17.499999999997829
 50
124.92061660902429
 51
127.0793833909734
  0
ARC
  5
395
  8
0
 10
81.553231935170061
 20
138.82939578917981
 30
0.0
 40
0.9999999999999879
 50
272.59943124625391
 51
307.07938339097768
  0
ARC
  5
396
  8
0
 10
82.117112048658782
 20
139.23907867232589
 30
0.0
 40
1.000000000000085
 50
304.92061660902681
 51
339.4005687537491
  0
ARC
  5
397
  8
0
 10
84.865609008306805
 20
140.8259241318456
 30
0.0
 40
0.9999999999999865
 50
260.59943124624908
 51
295.07938339097279
  0
ARC
  5
398
  8
0
 10
92.707269619392264
 20
124.0700786186967
 30
0.0
 40
17.49999999999882
 50
112.9206166090283
 51
115.07938339097799
  0
ARC
  5
399
  8
0
 10
94.431989263307969
 20
140.47968989227201
 30
0.0
 40
1.499999999999982
 50
44.599431246250049
 51
123.4005687537493
  0
ARC
  5
39A
  8
0
 10
90.982549975475422
 20
140.47968989227201
 30
0.0
 40
1.500000000000024
 50
56.599431246249161
 51
135.4005687537485
  0
ARC
  5
39B
  8
0
 10
92.707269619391795
 20
124.0700786186936
 30
0.0
 40
17.500000000001592
 50
100.9206166090234
 51
103.07938339097331
  0
ARC
  5
39C
  8
0
 10
88.520704278610538
 20
142.09014162211901
 30
0.0
 40
0.999999999999896
 50
248.5994312462494
 51
283.07938339097331
  0
ARC
  5
39D
  8
0
 10
89.202467435559583
 20
142.23505485463349
 30
0.0
 40
0.9999999999999181
 50
280.92061660902669
 51
315.40056875375029
  0
ARC
  5
39E
  8
0
 10
93.055766695108105
 20
142.56679588928731
 30
0.0
 40
1.000000000000016
 50
268.92061660902408
 51
303.40056875374688
  0
ARC
  5
39F
  8
0
 10
92.358772543675514
 20
142.56679588928739
 30
0.0
 40
1.0000000000000631
 50
236.5994312462511
 51
271.07938339097592
  0
ARC
  5
3A0
  8
0
 10
92.707269619392264
 20
124.07007861869801
 30
0.0
 40
17.499999999997211
 50
88.920616609025757
 51
91.079383390975877
  0
ARC
  5
3A1
  8
0
 10
99.912194389432216
 20
141.10941719324251
 30
0.0
 40
0.9999999999999282
 50
212.59943124624559
 51
247.07938339097001
  0
ARC
  5
3A2
  8
0
 10
100.5489302304768
 20
140.8259241318456
 30
0.0
 40
1.000000000000026
 50
244.92061660902741
 51
279.40056875375092
  0
ARC
  5
3A3
  8
0
 10
92.707269619391596
 20
124.07007861869521
 30
0.0
 40
17.500000000000082
 50
64.920616609025416
 51
67.079383390975266
  0
ARC
  5
3A4
  8
0
 10
100.95726961939179
 20
138.35949778113871
 30
0.0
 40
1.5000000000000011
 50
20.59943124625045
 51
99.400568753749312
  0
ARC
  5
3A5
  8
0
 10
97.806050026578305
 20
139.76251113756561
 30
0.0
 40
1.5000000000000391
 50
32.599431246249821
 51
111.4005687537486
  0
ARC
  5
3A6
  8
0
 10
96.893834960173081
 20
142.09014162211909
 30
0.0
 40
0.9999999999999435
 50
256.92061660902669
 51
291.40056875375041
  0
ARC
  5
3A7
  8
0
 10
92.707269619392491
 20
124.07007861869531
 30
0.0
 40
17.499999999999861
 50
76.920616609028372
 51
79.079383390976602
  0
ARC
  5
3A8
  8
0
 10
96.212071803224035
 20
142.23505485463369
 30
0.0
 40
1.0000000000000511
 50
224.59943124625229
 51
259.0793833909766
  0
ARC
  5
3A9
  8
0
 10
103.8613073036133
 20
138.8293957891799
 30
0.0
 40
1.0000000000000211
 50
232.9206166090265
 51
267.40056875374933
  0
ARC
  5
3AA
  8
0
 10
92.707269619391596
 20
124.0700786186969
 30
0.0
 40
17.499999999998732
 50
52.920616609022439
 51
55.079383390971628
  0
ARC
  5
3AB
  8
3
 10
92.707269619391795
 20
124.0700786186957
 30
0.0
 40
13.799999999999949
 50
203.48760849298549
 51
336.51239150701417
  0
LINE
  5
3AC
  8
3
 10
105.3638884411784
 20
118.5700786186958
 30
0.0
 11
80.050650797605158
 21
118.5700786186958
 31
0.0
  0
LINE
  5
3AD
  8
0
 10
104.3072696193919
 20
127.121307879178
 30
0.0
 11
81.107269619391673
 21
127.1213078791781
 31
0.0
  0
LINE
  5
3AE
  8
0
 10
104.3072696193922
 20
128.57007861870139
 30
0.0
 11
81.107269619390763
 21
128.5700786187015
 31
0.0
  0
LINE
  5
3AF
  8
0
 10
104.3072696193919
 20
121.0188493582135
 30
0.0
 11
81.107269619391673
 21
121.0188493582135
 31
0.0
  0
LINE
  5
3B0
  8
0
 10
104.3072696193922
 20
119.5700786186901
 30
0.0
 11
81.107269619390763
 21
119.5700786186901
 31
0.0
  0
POLYLINE
  5
3B1
  8
3
 66
     1
 10
0.0
 20
0.0
 30
0.0
 70
     1
  0
VERTEX
  5
918
  8
3
 10
95.931305400113956
 20
116.2652467261007
 30
0.0
  0
VERTEX
  5
919
  8
3
 10
95.702500122596106
 20
116.4387780614001
 30
0.0
  0
VERTEX
  5
91A
  8
3
 10
95.466281855997522
 20
116.59798211053069
 30
0.0
  0
VERTEX
  5
91B
  8
3
 10
95.222691034804143
 20
116.7427106137108
 30
0.0
  0
VERTEX
  5
91C
  8
3
 10
94.971808527987491
 20
116.87282878932091
 30
0.0
  0
VERTEX
  5
91D
  8
3
 10
94.71364781370994
 20
116.9881748994174
 30
0.0
  0
VERTEX
  5
91E
  8
3
 10
94.448262804619048
 20
117.0886276405426
 30
0.0
  0
VERTEX
  5
91F
  8
3
 10
94.175734369686893
 20
117.17402527475279
 30
0.0
  0
VERTEX
  5
920
  8
3
 10
93.896074639258813
 20
117.2442060641046
 30
0.0
  0
VERTEX
  5
921
  8
3
 10
93.609351004144969
 20
117.2990621833021
 30
0.0
  0
VERTEX
  5
922
  8
3
 10
93.315610637912187
 20
117.3384184162399
 30
0.0
  0
VERTEX
  5
923
  8
3
 10
93.014900714127293
 20
117.3621399812983
 30
0.0
  0
VERTEX
  5
924
  8
3
 10
92.707269619391695
 20
117.3700786186957
 30
0.0
  0
VERTEX
  5
925
  8
3
 10
92.403684938441188
 20
117.36173563643941
 30
0.0
  0
VERTEX
  5
926
  8
3
 10
92.105324258286828
 20
117.33697625290959
 30
0.0
  0
VERTEX
  5
927
  8
3
 10
91.812519276494413
 20
117.2961374221557
 30
0.0
  0
VERTEX
  5
928
  8
3
 10
91.525604251480672
 20
117.2395965327125
 30
0.0
  0
VERTEX
  5
929
  8
3
 10
91.244908050397598
 20
117.1677040167913
 30
0.0
  0
VERTEX
  5
92A
  8
3
 10
90.970775714191404
 20
117.08083726292681
 30
0.0
  0
VERTEX
  5
92B
  8
3
 10
90.703530718749448
 20
116.9793332251684
 30
0.0
  0
VERTEX
  5
92C
  8
3
 10
90.443523496282637
 20
116.863582770213
 30
0.0
  0
VERTEX
  5
92D
  8
3
 10
90.191064044516096
 20
116.7339363302716
 30
0.0
  0
VERTEX
  5
92E
  8
3
 10
89.946502795661331
 20
116.5907578157174
 30
0.0
  0
VERTEX
  5
92F
  8
3
 10
89.710163225605015
 20
116.4344111369234
 30
0.0
  0
VERTEX
  5
930
  8
3
 10
89.482382288396465
 20
116.2652467261007
 30
0.0
  0
VERTEX
  5
931
  8
3
 10
90.210647813851324
 20
116.2652467261007
 30
0.0
  0
VERTEX
  5
932
  8
3
 10
90.397064271989265
 20
116.3744063598553
 30
0.0
  0
VERTEX
  5
933
  8
3
 10
90.587254615477363
 20
116.47452214693131
 30
0.0
  0
VERTEX
  5
934
  8
3
 10
90.781286235125535
 20
116.56549974019499
 30
0.0
  0
VERTEX
  5
935
  8
3
 10
90.979199565419549
 20
116.6472717488367
 30
0.0
  0
VERTEX
  5
936
  8
3
 10
91.181021562683441
 20
116.7197303475605
 30
0.0
  0
VERTEX
  5
937
  8
3
 10
91.386806139564996
 20
116.7828081455567
 30
0.0
  0
VERTEX
  5
938
  8
3
 10
91.596601817447535
 20
116.8363973175296
 30
0.0
  0
VERTEX
  5
939
  8
3
 10
91.810451726448946
 20
116.88044395083119
 30
0.0
  0
VERTEX
  5
93A
  8
3
 10
92.028397648871646
 20
116.9148536983279
 30
0.0
  0
VERTEX
  5
93B
  8
3
 10
92.250486758282364
 20
116.93953221288569
 30
0.0
  0
VERTEX
  5
93C
  8
3
 10
92.476762184799213
 20
116.9543986255331
 30
0.0
  0
VERTEX
  5
93D
  8
3
 10
92.707269619391695
 20
116.9593720672982
 30
0.0
  0
VERTEX
  5
93E
  8
3
 10
92.94156468705944
 20
116.9547221014203
 30
0.0
  0
VERTEX
  5
93F
  8
3
 10
93.170151618353543
 20
116.9406913348147
 30
0.0
  0
VERTEX
  5
940
  8
3
 10
93.393332458883265
 20
116.9172123766717
 30
0.0
  0
VERTEX
  5
941
  8
3
 10
93.611407771660879
 20
116.8841774016955
 30
0.0
  0
VERTEX
  5
942
  8
3
 10
93.824680815330225
 20
116.84149206275229
 30
0.0
  0
VERTEX
  5
943
  8
3
 10
94.033453500719475
 20
116.78908896903241
 30
0.0
  0
VERTEX
  5
944
  8
3
 10
94.238030434289044
 20
116.72686029524
 30
0.0
  0
VERTEX
  5
945
  8
3
 10
94.438706787785918
 20
116.6547116942413
 30
0.0
  0
VERTEX
  5
946
  8
3
 10
94.635784472038154
 20
116.5725757752266
 30
0.0
  0
VERTEX
  5
947
  8
3
 10
94.829573484771004
 20
116.48034471290021
 30
0.0
  0
VERTEX
  5
948
  8
3
 10
95.020370345547462
 20
116.37793763829011
 30
0.0
  0
VERTEX
  5
949
  8
3
 10
95.208471573930964
 20
116.2652467261007
 30
0.0
  0
SEQEND
  5
94A
  8
3
  0
POLYLINE
  5
3B2
  8
3
 66
     1
 10
0.0
 20
0.0
 30
0.0
 70
     1
  0
VERTEX
  5
94B
  8
3
 10
95.208471573930964
 20
112.550557463251
 30
0.0
  0
VERTEX
  5
94C
  8
3
 10
95.931305400113956
 20
112.550557463251
 30
0.0
  0
VERTEX
  5
94D
  8
3
 10
95.702500122596106
 20
112.37702612795159
 30
0.0
  0
VERTEX
  5
94E
  8
3
 10
95.466281855997522
 20
112.2178220788211
 30
0.0
  0
VERTEX
  5
94F
  8
3
 10
95.222691034804143
 20
112.0730935756409
 30
0.0
  0
VERTEX
  5
950
  8
3
 10
94.971808527987491
 20
111.9429754000307
 30
0.0
  0
VERTEX
  5
951
  8
3
 10
94.71364781370994
 20
111.8276158117724
 30
0.0
  0
VERTEX
  5
952
  8
3
 10
94.448262804619048
 20
111.7271765488091
 30
0.0
  0
VERTEX
  5
953
  8
3
 10
94.175734369686893
 20
111.6417789145989
 30
0.0
  0
VERTEX
  5
954
  8
3
 10
93.896074639258813
 20
111.57159812524721
 30
0.0
  0
VERTEX
  5
955
  8
3
 10
93.609351004144969
 20
111.5167420060496
 30
0.0
  0
VERTEX
  5
956
  8
3
 10
93.315610637912187
 20
111.47738577311181
 30
0.0
  0
VERTEX
  5
957
  8
3
 10
92.707269619391695
 20
111.44572557065599
 30
0.0
  0
VERTEX
  5
958
  8
3
 10
92.403684938441188
 20
111.4540685529123
 30
0.0
  0
VERTEX
  5
959
  8
3
 10
92.105324258286828
 20
111.4788279364421
 30
0.0
  0
VERTEX
  5
95A
  8
3
 10
91.812519276494413
 20
111.519666767196
 30
0.0
  0
VERTEX
  5
95B
  8
3
 10
91.525604251480672
 20
111.5762076566392
 30
0.0
  0
VERTEX
  5
95C
  8
3
 10
91.244908050397598
 20
111.6481001725605
 30
0.0
  0
VERTEX
  5
95D
  8
3
 10
90.970775714191404
 20
111.7349669264249
 30
0.0
  0
VERTEX
  5
95E
  8
3
 10
90.703530718749448
 20
111.8364574860214
 30
0.0
  0
VERTEX
  5
95F
  8
3
 10
90.443523496282637
 20
111.95220794097681
 30
0.0
  0
VERTEX
  5
960
  8
3
 10
90.191064044516096
 20
112.0818543809181
 30
0.0
  0
VERTEX
  5
961
  8
3
 10
89.946502795661331
 20
112.2250463736343
 30
0.0
  0
VERTEX
  5
962
  8
3
 10
89.710163225605015
 20
112.38139305242829
 30
0.0
  0
VERTEX
  5
963
  8
3
 10
89.482382288396465
 20
112.550557463251
 30
0.0
  0
VERTEX
  5
964
  8
3
 10
90.210647813851324
 20
112.550557463251
 30
0.0
  0
VERTEX
  5
965
  8
3
 10
90.397064271989265
 20
112.44139782949649
 30
0.0
  0
VERTEX
  5
966
  8
3
 10
90.587254615477363
 20
112.3412820424204
 30
0.0
  0
VERTEX
  5
967
  8
3
 10
90.781286235125535
 20
112.2503044491567
 30
0.0
  0
VERTEX
  5
968
  8
3
 10
90.979199565419549
 20
112.16853244051499
 30
0.0
  0
VERTEX
  5
969
  8
3
 10
91.181021562683441
 20
112.0960738417912
 30
0.0
  0
VERTEX
  5
96A
  8
3
 10
91.386806139564996
 20
112.03299604379499
 30
0.0
  0
VERTEX
  5
96B
  8
3
 10
91.596601817447535
 20
111.97940687182211
 30
0.0
  0
VERTEX
  5
96C
  8
3
 10
91.810451726448946
 20
111.9353602385205
 30
0.0
  0
VERTEX
  5
96D
  8
3
 10
92.028397648871646
 20
111.90095049102391
 30
0.0
  0
VERTEX
  5
96E
  8
3
 10
92.250486758282364
 20
111.876271976466
 30
0.0
  0
VERTEX
  5
96F
  8
3
 10
92.476762184799213
 20
111.86140556381859
 30
0.0
  0
VERTEX
  5
970
  8
3
 10
92.707269619391695
 20
111.8564321220535
 30
0.0
  0
VERTEX
  5
971
  8
3
 10
92.94156468705944
 20
111.86108208793139
 30
0.0
  0
VERTEX
  5
972
  8
3
 10
93.170151618353543
 20
111.87511285453699
 30
0.0
  0
VERTEX
  5
973
  8
3
 10
93.393332458883265
 20
111.89859181268
 30
0.0
  0
VERTEX
  5
974
  8
3
 10
93.611407771660879
 20
111.9316267876563
 30
0.0
  0
VERTEX
  5
975
  8
3
 10
93.824680815330225
 20
111.9743121265994
 30
0.0
  0
VERTEX
  5
976
  8
3
 10
94.033453500719475
 20
112.0267152203193
 30
0.0
  0
VERTEX
  5
977
  8
3
 10
94.238030434289044
 20
112.08894389411169
 30
0.0
  0
VERTEX
  5
978
  8
3
 10
94.438706787785918
 20
112.1610924951104
 30
0.0
  0
VERTEX
  5
979
  8
3
 10
94.635784472038154
 20
112.2432284141251
 30
0.0
  0
VERTEX
  5
97A
  8
3
 10
94.829573484771004
 20
112.3354594764516
 30
0.0
  0
VERTEX
  5
97B
  8
3
 10
95.020370345547462
 20
112.4378665510616
 30
0.0
  0
SEQEND
  5
97C
  8
3
  0
POLYLINE
  5
3B3
  8
3
 66
     1
 10
0.0
 20
0.0
 30
0.0
 70
     1
  0
VERTEX
  5
97D
  8
3
 10
89.795156514956261
 20
114.7530616488051
 30
0.0
  0
VERTEX
  5
97E
  8
3
 10
89.753940295667334
 20
114.7709390828355
 30
0.0
  0
VERTEX
  5
97F
  8
3
 10
89.711591910773336
 20
114.7900618990315
 30
0.0
  0
VERTEX
  5
980
  8
3
 10
89.66898744080197
 20
114.81077244270691
 30
0.0
  0
VERTEX
  5
981
  8
3
 10
89.627056878928784
 20
114.83341036354329
 30
0.0
  0
VERTEX
  5
982
  8
3
 10
89.586662827519717
 20
114.858313963406
 30
0.0
  0
VERTEX
  5
983
  8
3
 10
89.548748757912222
 20
114.8858228919766
 30
0.0
  0
VERTEX
  5
984
  8
3
 10
89.514177272471883
 20
114.9162781467527
 30
0.0
  0
VERTEX
  5
985
  8
3
 10
89.483878364374604
 20
114.9500193774159
 30
0.0
  0
VERTEX
  5
986
  8
3
 10
89.458755070471852
 20
114.9873848858315
 30
0.0
  0
VERTEX
  5
987
  8
3
 10
89.439683471291346
 20
115.02871432168099
 30
0.0
  0
VERTEX
  5
988
  8
3
 10
89.427580081846713
 20
115.074348682462
 30
0.0
  0
VERTEX
  5
989
  8
3
 10
89.423347938989764
 20
115.1246262700401
 30
0.0
  0
VERTEX
  5
98A
  8
3
 10
89.427054433530088
 20
115.1736261278638
 30
0.0
  0
VERTEX
  5
98B
  8
3
 10
89.43781000677825
 20
115.21995057053751
 30
0.0
  0
VERTEX
  5
98C
  8
3
 10
89.454954228797646
 20
115.263296339417
 30
0.0
  0
VERTEX
  5
98D
  8
3
 10
89.477880582300145
 20
115.3033615236741
 30
0.0
  0
VERTEX
  5
98E
  8
3
 10
89.50595559367332
 20
115.3398428646648
 30
0.0
  0
VERTEX
  5
98F
  8
3
 10
89.538586223790489
 20
115.3724411471934
 30
0.0
  0
VERTEX
  5
990
  8
3
 10
89.575112042715659
 20
115.40085311261559
 30
0.0
  0
VERTEX
  5
991
  8
3
 10
89.614940011322233
 20
115.4247768501034
 30
0.0
  0
VERTEX
  5
992
  8
3
 10
89.657436655997913
 20
115.44390910101269
 30
0.0
  0
VERTEX
  5
993
  8
3
 10
89.701968503130274
 20
115.4579493023317
 30
0.0
  0
VERTEX
  5
994
  8
3
 10
89.747942513592875
 20
115.46659419541599
 30
0.0
  0
VERTEX
  5
995
  8
3
 10
89.794711735611486
 20
115.469543217254
 30
0.0
  0
VERTEX
  5
996
  8
3
 10
89.839418798849366
 20
115.46780183872811
 30
0.0
  0
VERTEX
  5
997
  8
3
 10
89.882279353898056
 20
115.462663963387
 30
0.0
  0
VERTEX
  5
998
  8
3
 10
89.923333835243383
 20
115.45425224250469
 30
0.0
  0
VERTEX
  5
999
  8
3
 10
89.962636155533346
 20
115.4426960664359
 30
0.0
  0
VERTEX
  5
99A
  8
3
 10
90.000253705577634
 20
115.42812078208691
 30
0.0
  0
VERTEX
  5
99B
  8
3
 10
90.036213441700284
 20
115.4106517363642
 30
0.0
  0
VERTEX
  5
99C
  8
3
 10
90.070569276548994
 20
115.390416971806
 30
0.0
  0
VERTEX
  5
99D
  8
3
 10
90.103402079095872
 20
115.36754048750289
 30
0.0
  0
VERTEX
  5
99E
  8
3
 10
90.134752283826401
 20
115.34214897817699
 30
0.0
  0
VERTEX
  5
99F
  8
3
 10
90.164660325226706
 20
115.314369138551
 30
0.0
  0
VERTEX
  5
9A0
  8
3
 10
90.193207072268578
 20
115.2843276633472
 30
0.0
  0
VERTEX
  5
9A1
  8
3
 10
90.220419481275925
 20
115.2521498994719
 30
0.0
  0
VERTEX
  5
9A2
  8
3
 10
90.452028216482503
 20
115.5945275609716
 30
0.0
  0
VERTEX
  5
9A3
  8
3
 10
90.405717251970714
 20
115.6379434162933
 30
0.0
  0
VERTEX
  5
9A4
  8
3
 10
90.353556765166203
 20
115.67858546588261
 30
0.0
  0
VERTEX
  5
9A5
  8
3
 10
90.296449792920484
 20
115.7162650154719
 30
0.0
  0
VERTEX
  5
9A6
  8
3
 10
90.235258937599383
 20
115.7507893273453
 30
0.0
  0
VERTEX
  5
9A7
  8
3
 10
90.170860279730618
 20
115.7819737506837
 30
0.0
  0
VERTEX
  5
9A8
  8
3
 10
90.104129899841936
 20
115.80960398271191
 30
0.0
  0
VERTEX
  5
9A9
  8
3
 10
90.035943878461012
 20
115.8335277201998
 30
0.0
  0
VERTEX
  5
9AA
  8
3
 10
89.967205252439484
 20
115.8535158343939
 30
0.0
  0
VERTEX
  5
9AB
  8
3
 10
89.898749667819288
 20
115.86939310918871
 30
0.0
  0
VERTEX
  5
9AC
  8
3
 10
89.831493639613882
 20
115.8809843284785
 30
0.0
  0
VERTEX
  5
9AD
  8
3
 10
89.766286292027303
 20
115.8880738416721
 30
0.0
  0
VERTEX
  5
9AE
  8
3
 10
89.704030661910906
 20
115.8904729545019
 30
0.0
  0
VERTEX
  5
9AF
  8
3
 10
89.590315409412256
 20
115.8829251838015
 30
0.0
  0
VERTEX
  5
9B0
  8
3
 10
89.482517070016115
 20
115.8609423016366
 30
0.0
  0
VERTEX
  5
9B1
  8
3
 10
89.381390420792741
 20
115.82548125750669
 30
0.0
  0
VERTEX
  5
9B2
  8
3
 10
89.287717195135997
 20
115.7775259572352
 30
0.0
  0
VERTEX
  5
9B3
  8
3
 10
89.202225213791962
 20
115.7180320025055
 30
0.0
  0
VERTEX
  5
9B4
  8
3
 10
89.125682731992697
 20
115.6479846469572
 30
0.0
  0
VERTEX
  5
9B5
  8
3
 10
89.058831048646312
 20
115.5683529704356
 30
0.0
  0
VERTEX
  5
9B6
  8
3
 10
89.002451897146784
 20
115.480106052786
 30
0.0
  0
VERTEX
  5
9B7
  8
3
 10
88.957286576401998
 20
115.384215669486
 30
0.0
  0
VERTEX
  5
9B8
  8
3
 10
88.924076385320291
 20
115.2816535960133
 30
0.0
  0
VERTEX
  5
9B9
  8
3
 10
88.903603057295527
 20
115.1733929556619
 30
0.0
  0
VERTEX
  5
9BA
  8
3
 10
88.896607891235575
 20
115.06040282827691
 30
0.0
  0
VERTEX
  5
9BB
  8
3
 10
88.901864374401953
 20
114.95869661808899
 30
0.0
  0
VERTEX
  5
9BC
  8
3
 10
88.917242957204067
 20
114.8665558594476
 30
0.0
  0
VERTEX
  5
9BD
  8
3
 10
88.942271903973051
 20
114.7832217318342
 30
0.0
  0
VERTEX
  5
9BE
  8
3
 10
88.976412088230404
 20
114.7079354147301
 30
0.0
  0
VERTEX
  5
9BF
  8
3
 10
89.019164817983324
 20
114.6399353919843
 30
0.0
  0
VERTEX
  5
9C0
  8
3
 10
89.07001792307733
 20
114.57846419089429
 30
0.0
  0
VERTEX
  5
9C1
  8
3
 10
89.128445755195571
 20
114.52275975618269
 30
0.0
  0
VERTEX
  5
9C2
  8
3
 10
89.193949622345485
 20
114.4720640760205
 30
0.0
  0
VERTEX
  5
9C3
  8
3
 10
89.266003876210448
 20
114.4256169820729
 30
0.0
  0
VERTEX
  5
9C4
  8
3
 10
89.344109824797556
 20
114.3826589799132
 30
0.0
  0
VERTEX
  5
9C5
  8
3
 10
89.427755297952316
 20
114.3424303055514
 30
0.0
  0
VERTEX
  5
9C6
  8
3
 10
89.516414647358147
 20
114.3041714645608
 30
0.0
  0
VERTEX
  5
9C7
  8
3
 10
89.575058130067745
 20
114.2815475610128
 30
0.0
  0
VERTEX
  5
9C8
  8
3
 10
89.634537258819364
 20
114.25825541019471
 30
0.0
  0
VERTEX
  5
9C9
  8
3
 10
89.693706389845715
 20
114.2335189395403
 30
0.0
  0
VERTEX
  5
9CA
  8
3
 10
89.751446835703746
 20
114.2065572243455
 30
0.0
  0
VERTEX
  5
9CB
  8
3
 10
89.806626430788469
 20
114.17659257466489
 30
0.0
  0
VERTEX
  5
9CC
  8
3
 10
89.858126487656705
 20
114.1428486483693
 30
0.0
  0
VERTEX
  5
9CD
  8
3
 10
89.904801362541534
 20
114.104545059881
 30
0.0
  0
VERTEX
  5
9CE
  8
3
 10
89.945518889837786
 20
114.06090277143829
 30
0.0
  0
VERTEX
  5
9CF
  8
3
 10
89.979160382102464
 20
114.0111467887283
 30
0.0
  0
VERTEX
  5
9D0
  8
3
 10
90.004580195568451
 20
113.95449537835709
 30
0.0
  0
VERTEX
  5
9D1
  8
3
 10
90.020673120954712
 20
113.8901721981953
 30
0.0
  0
VERTEX
  5
9D2
  8
3
 10
90.026280036332082
 20
113.81739955829769
 30
0.0
  0
VERTEX
  5
9D3
  8
3
 10
90.023260928051855
 20
113.760903146789
 30
0.0
  0
VERTEX
  5
9D4
  8
3
 10
90.014284472183249
 20
113.7059176372366
 30
0.0
  0
VERTEX
  5
9D5
  8
3
 10
89.999566319317523
 20
113.6530913292309
 30
0.0
  0
VERTEX
  5
9D6
  8
3
 10
89.979241251074313
 20
113.6030725223626
 30
0.0
  0
VERTEX
  5
9D7
  8
3
 10
89.953497961721155
 20
113.55650951622211
 30
0.0
  0
VERTEX
  5
9D8
  8
3
 10
89.922498189201519
 20
113.51405061040001
 30
0.0
  0
VERTEX
  5
9D9
  8
3
 10
89.88643062778317
 20
113.47634545230289
 30
0.0
  0
VERTEX
  5
9DA
  8
3
 10
89.845470493571611
 20
113.4440409937052
 30
0.0
  0
VERTEX
  5
9DB
  8
3
 10
89.799766046348282
 20
113.4177868820136
 30
0.0
  0
VERTEX
  5
9DC
  8
3
 10
89.74951945854275
 20
113.39823006900239
 30
0.0
  0
VERTEX
  5
9DD
  8
3
 10
89.694878989936669
 20
113.38602154989449
 30
0.0
  0
VERTEX
  5
9DE
  8
3
 10
89.636019856635471
 20
113.381806928648
 30
0.0
  0
VERTEX
  5
9DF
  8
3
 10
89.577282026791977
 20
113.3855821618144
 30
0.0
  0
VERTEX
  5
9E0
  8
3
 10
89.520458095947674
 20
113.39653451622711
 30
0.0
  0
VERTEX
  5
9E1
  8
3
 10
89.465790671017544
 20
113.41410869161329
 30
0.0
  0
VERTEX
  5
9E2
  8
3
 10
89.413549315241198
 20
113.4377520833323
 30
0.0
  0
VERTEX
  5
9E3
  8
3
 10
89.363963157372027
 20
113.4669066954788
 30
0.0
  0
VERTEX
  5
9E4
  8
3
 10
89.317301760649215
 20
113.50101857559601
 30
0.0
  0
VERTEX
  5
9E5
  8
3
 10
89.273807731988086
 20
113.539532423411
 30
0.0
  0
VERTEX
  5
9E6
  8
3
 10
89.233737156466191
 20
113.5818915908347
 30
0.0
  0
VERTEX
  5
9E7
  8
3
 10
89.197346119160684
 20
113.6275421254101
 30
0.0
  0
VERTEX
  5
9E8
  8
3
 10
89.164890705148878
 20
113.6759287268644
 30
0.0
  0
VERTEX
  5
9E9
  8
3
 10
89.136613521346376
 20
113.7264947471086
 30
0.0
  0
VERTEX
  5
9EA
  8
3
 10
89.112784130992281
 20
113.7786862336856
 30
0.0
  0
VERTEX
  5
9EB
  8
3
 10
88.793365170583797
 20
113.4660050064433
 30
0.0
  0
VERTEX
  5
9EC
  8
3
 10
88.84345002044563
 20
113.38939648165049
 30
0.0
  0
VERTEX
  5
9ED
  8
3
 10
88.897093105066347
 20
113.31744870526521
 30
0.0
  0
VERTEX
  5
9EE
  8
3
 10
88.95434833709362
 20
113.2505417614547
 30
0.0
  0
VERTEX
  5
9EF
  8
3
 10
89.015242672851514
 20
113.189058430019
 30
0.0
  0
VERTEX
  5
9F0
  8
3
 10
89.079843503149846
 20
113.1333787951253
 30
0.0
  0
VERTEX
  5
9F1
  8
3
 10
89.148204740636288
 20
113.08388698438991
 30
0.0
  0
VERTEX
  5
9F2
  8
3
 10
89.220353341634905
 20
113.04096038634751
 30
0.0
  0
VERTEX
  5
9F3
  8
3
 10
89.296343218793595
 20
113.0049871720629
 30
0.0
  0
VERTEX
  5
9F4
  8
3
 10
89.376241762922163
 20
112.9763460778873
 30
0.0
  0
VERTEX
  5
9F5
  8
3
 10
89.460089408506406
 20
112.9554144923557
 30
0.0
  0
VERTEX
  5
9F6
  8
3
 10
89.547926590032262
 20
112.942569804003
 30
0.0
  0
VERTEX
  5
9F7
  8
3
 10
89.639793741985713
 20
112.9382028795264
 30
0.0
  0
VERTEX
  5
9F8
  8
3
 10
89.776934039979665
 20
112.9462493422195
 30
0.0
  0
VERTEX
  5
9F9
  8
3
 10
89.904410495844559
 20
112.9698361256582
 30
0.0
  0
VERTEX
  5
9FA
  8
3
 10
90.021805286559683
 20
113.00820845277249
 30
0.0
  0
VERTEX
  5
9FB
  8
3
 10
90.128673632780192
 20
113.06056572074181
 30
0.0
  0
VERTEX
  5
9FC
  8
3
 10
90.224597711485089
 20
113.126132935253
 30
0.0
  0
VERTEX
  5
9FD
  8
3
 10
90.309132743329542
 20
113.2041256672796
 30
0.0
  0
VERTEX
  5
9FE
  8
3
 10
90.381847427130765
 20
113.2937621834279
 30
0.0
  0
VERTEX
  5
9FF
  8
3
 10
90.442310461705688
 20
113.3942567068551
 30
0.0
  0
VERTEX
  5
A00
  8
3
 10
90.490090545871681
 20
113.5048288519836
 30
0.0
  0
VERTEX
  5
A01
  8
3
 10
90.524756378445645
 20
113.6246955376031
 30
0.0
  0
VERTEX
  5
A02
  8
3
 10
90.545876658244765
 20
113.75307503031971
 30
0.0
  0
VERTEX
  5
A03
  8
3
 10
90.553006605924224
 20
113.88918290110701
 30
0.0
  0
VERTEX
  5
A04
  8
3
 10
90.545849701920929
 20
114.0172227441422
 30
0.0
  0
VERTEX
  5
A05
  8
3
 10
90.525052898008894
 20
114.1300983071505
 30
0.0
  0
VERTEX
  5
A06
  8
3
 10
90.491654012659524
 20
114.22929892702911
 30
0.0
  0
VERTEX
  5
A07
  8
3
 10
90.446704342506337
 20
114.3163183884686
 30
0.0
  0
VERTEX
  5
A08
  8
3
 10
90.391228227858406
 20
114.3926495326882
 30
0.0
  0
VERTEX
  5
A09
  8
3
 10
90.32626348718702
 20
114.4597846617807
 30
0.0
  0
VERTEX
  5
A0A
  8
3
 10
90.252834460801751
 20
114.51921634740209
 30
0.0
  0
VERTEX
  5
A0B
  8
3
 10
90.171992445335704
 20
114.5724367568636
 30
0.0
  0
VERTEX
  5
A0C
  8
3
 10
90.084761781098209
 20
114.6209392705108
 30
0.0
  0
VERTEX
  5
A0D
  8
3
 10
89.992193764722629
 20
114.6662164599999
 30
0.0
  0
VERTEX
  5
A0E
  8
3
 10
89.895312736518107
 20
114.709759010044
 30
0.0
  0
SEQEND
  5
A0F
  8
3
  0
POLYLINE
  5
3B4
  8
3
 66
     1
 10
0.0
 20
0.0
 30
0.0
 70
     1
  0
VERTEX
  5
3B5
  8
3
 10
91.466700640244994
 20
115.83868985623241
 30
0.0
  0
VERTEX
  5
3B6
  8
3
 10
90.911310063601846
 20
115.83868985623241
 30
0.0
  0
VERTEX
  5
3B7
  8
3
 10
90.911310063601846
 20
112.9899859777959
 30
0.0
  0
VERTEX
  5
3B8
  8
3
 10
91.466700640244994
 20
112.9899859777959
 30
0.0
  0
SEQEND
  5
3B9
  8
3
  0
LINE
  5
3BA
  8
0
 10
81.107269619390763
 20
128.5700786187015
 30
0.0
 11
81.107269619390763
 21
119.5700786186901
 31
0.0
  0
LINE
  5
3BB
  8
3
 10
81.927269619391609
 20
127.1213078791781
 30
0.0
 11
81.927269619391609
 21
121.0188493582135
 31
0.0
  0
LINE
  5
3BC
  8
3
 10
91.597269619391696
 20
127.121307879178
 30
0.0
 11
91.597269619391696
 21
121.0188493582135
 31
0.0
  0
LINE
  5
3BD
  8
3
 10
86.4372696193916
 20
127.121307879178
 30
0.0
 11
86.437269619391373
 21
121.0188493582135
 31
0.0
  0
LINE
  5
3BE
  8
3
 10
87.037269619391509
 20
127.121307879178
 30
0.0
 11
87.037269619391509
 21
121.0188493582135
 31
0.0
  0
TEXT
  5
3BF
  8
0
 10
83.029158773086806
 20
122.0234076475291
 30
0.0
 40
4.0
  1
0
 41
1.1999999999999991
  0
TEXT
  5
3C0
  8
0
 10
88.189158773086874
 20
122.0234076475292
 30
0.0
 40
4.0
  1
0
 41
1.1999999999999991
  0
POLYLINE
  5
3C1
  8
3
 66
     1
 10
0.0
 20
0.0
 30
0.0
 70
     1
  0
VERTEX
  5
A10
  8
3
 10
94.028442320100908
 20
114.41812014534661
 30
0.0
  0
VERTEX
  5
A11
  8
3
 10
94.040121147443514
 20
114.21985747457261
 30
0.0
  0
VERTEX
  5
A12
  8
3
 10
94.074408243666312
 20
114.0289190930954
 30
0.0
  0
VERTEX
  5
A13
  8
3
 10
94.130182225693716
 20
113.8471970787699
 30
0.0
  0
VERTEX
  5
A14
  8
3
 10
94.206316319185476
 20
113.6765797220873
 30
0.0
  0
VERTEX
  5
A15
  8
3
 10
94.301701271411716
 20
113.5189566613552
 30
0.0
  0
VERTEX
  5
A16
  8
3
 10
94.415200873318895
 20
113.3762188826973
 30
0.0
  0
VERTEX
  5
A17
  8
3
 10
94.545709915626034
 20
113.25025602442101
 30
0.0
  0
VERTEX
  5
A18
  8
3
 10
94.692082754565945
 20
113.1429563770177
 30
0.0
  0
VERTEX
  5
A19
  8
3
 10
94.853214180857549
 20
113.0562176656919
 30
0.0
  0
VERTEX
  5
A1A
  8
3
 10
95.027972028895761
 20
112.99191335495691
 30
0.0
  0
VERTEX
  5
A1B
  8
3
 10
95.21525108939943
 20
112.9519506047307
 30
0.0
  0
VERTEX
  5
A1C
  8
3
 10
95.413919196763459
 20
112.9382028795264
 30
0.0
  0
VERTEX
  5
A1D
  8
3
 10
95.612573825965555
 20
112.9519506047307
 30
0.0
  0
VERTEX
  5
A1E
  8
3
 10
95.799852886469225
 20
112.99191335495691
 30
0.0
  0
VERTEX
  5
A1F
  8
3
 10
95.974610734507564
 20
113.0562176656919
 30
0.0
  0
VERTEX
  5
A20
  8
3
 10
96.135742160799055
 20
113.1429563770177
 30
0.0
  0
VERTEX
  5
A21
  8
3
 10
96.282128477900983
 20
113.25025602442101
 30
0.0
  0
VERTEX
  5
A22
  8
3
 10
96.412624042046104
 20
113.3762188826973
 30
0.0
  0
VERTEX
  5
A23
  8
3
 10
96.526123643953383
 20
113.5189566613552
 30
0.0
  0
VERTEX
  5
A24
  8
3
 10
96.621508596179638
 20
113.6765797220873
 30
0.0
  0
VERTEX
  5
A25
  8
3
 10
96.697646733119996
 20
113.8471970787699
 30
0.0
  0
VERTEX
  5
A26
  8
3
 10
96.753419367331034
 20
114.0289190930954
 30
0.0
  0
VERTEX
  5
A27
  8
3
 10
96.787707811370069
 20
114.21985747457261
 30
0.0
  0
VERTEX
  5
A28
  8
3
 10
96.799393377793763
 20
114.41812014534661
 30
0.0
  0
VERTEX
  5
A29
  8
3
 10
96.787707811370069
 20
114.6122755079997
 30
0.0
  0
VERTEX
  5
A2A
  8
3
 10
96.753419367331034
 20
114.80021634625589
 30
0.0
  0
VERTEX
  5
A2B
  8
3
 10
96.697646733119996
 20
114.9799098972057
 30
0.0
  0
VERTEX
  5
A2C
  8
3
 10
96.621508596179638
 20
115.1493236540248
 30
0.0
  0
VERTEX
  5
A2D
  8
3
 10
96.526123643953383
 20
115.3064224142564
 30
0.0
  0
VERTEX
  5
A2E
  8
3
 10
96.412610563884186
 20
115.4491736710763
 30
0.0
  0
VERTEX
  5
A2F
  8
3
 10
96.282114999738951
 20
115.57554222202771
 30
0.0
  0
VERTEX
  5
A30
  8
3
 10
96.135728682637136
 20
115.6834955602864
 30
0.0
  0
VERTEX
  5
A31
  8
3
 10
95.974597256345533
 20
115.7710025268442
 30
0.0
  0
VERTEX
  5
A32
  8
3
 10
95.799839408307321
 20
115.8360211801633
 30
0.0
  0
VERTEX
  5
A33
  8
3
 10
95.612573825965555
 20
115.87652305686809
 30
0.0
  0
VERTEX
  5
A34
  8
3
 10
95.413919196763459
 20
115.8904729545019
 30
0.0
  0
VERTEX
  5
A35
  8
3
 10
95.215264567561334
 20
115.87652305686809
 30
0.0
  0
VERTEX
  5
A36
  8
3
 10
95.027985507057664
 20
115.8360211801633
 30
0.0
  0
VERTEX
  5
A37
  8
3
 10
94.853227659019581
 20
115.7710025268442
 30
0.0
  0
VERTEX
  5
A38
  8
3
 10
94.692096232727977
 20
115.6834955602864
 30
0.0
  0
VERTEX
  5
A39
  8
3
 10
94.54572339378808
 20
115.57554222202771
 30
0.0
  0
VERTEX
  5
A3A
  8
3
 10
94.415214351480927
 20
115.4491736710763
 30
0.0
  0
VERTEX
  5
A3B
  8
3
 10
94.301714749573648
 20
115.3064224142564
 30
0.0
  0
VERTEX
  5
A3C
  8
3
 10
94.206329797347394
 20
115.1493236540248
 30
0.0
  0
VERTEX
  5
A3D
  8
3
 10
94.130187616958551
 20
114.9799098972057
 30
0.0
  0
VERTEX
  5
A3E
  8
3
 10
94.074410939298659
 20
114.80021634625589
 30
0.0
  0
VERTEX
  5
A3F
  8
3
 10
94.040121147443514
 20
114.6122755079997
 30
0.0
  0
SEQEND
  5
A40
  8
3
  0
POLYLINE
  5
3C2
  8
3
 66
     1
 10
0.0
 20
0.0
 30
0.0
 70
     1
  0
VERTEX
  5
A41
  8
3
 10
95.413905718601526
 20
115.4353140771277
 30
0.0
  0
VERTEX
  5
A42
  8
3
 10
95.542298689480162
 20
115.4251690646166
 30
0.0
  0
VERTEX
  5
A43
  8
3
 10
95.663453887383525
 20
115.39591471407159
 30
0.0
  0
VERTEX
  5
A44
  8
3
 10
95.776616535241715
 20
115.3493220559748
 30
0.0
  0
VERTEX
  5
A45
  8
3
 10
95.881045334146506
 20
115.2871634686246
 30
0.0
  0
VERTEX
  5
A46
  8
3
 10
95.975998985189904
 20
115.2112086346871
 30
0.0
  0
VERTEX
  5
A47
  8
3
 10
96.06070923313986
 20
115.1232299324605
 30
0.0
  0
VERTEX
  5
A48
  8
3
 10
96.134434779088451
 20
115.02499839242719
 30
0.0
  0
VERTEX
  5
A49
  8
3
 10
96.196447802289413
 20
114.9182850450693
 30
0.0
  0
VERTEX
  5
A4A
  8
3
 10
96.245966569348866
 20
114.8048622686852
 30
0.0
  0
VERTEX
  5
A4B
  8
3
 10
96.282276737682537
 20
114.68649974594101
 30
0.0
  0
VERTEX
  5
A4C
  8
3
 10
96.304610052058592
 20
114.5649685073188
 30
0.0
  0
VERTEX
  5
A4D
  8
3
 10
96.312211735406777
 20
114.4420414702435
 30
0.0
  0
VERTEX
  5
A4E
  8
3
 10
96.304327010657275
 20
114.3250801372171
 30
0.0
  0
VERTEX
  5
A4F
  8
3
 10
96.281279353697187
 20
114.2051420173392
 30
0.0
  0
VERTEX
  5
A50
  8
3
 10
96.243971801378052
 20
114.08473485742491
 30
0.0
  0
VERTEX
  5
A51
  8
3
 10
96.193280434227631
 20
113.96636289996729
 30
0.0
  0
VERTEX
  5
A52
  8
3
 10
96.130108289097734
 20
113.8525317352756
 30
0.0
  0
VERTEX
  5
A53
  8
3
 10
96.055371881001861
 20
113.7457496492918
 30
0.0
  0
VERTEX
  5
A54
  8
3
 10
95.969933812305612
 20
113.6485195366924
 30
0.0
  0
VERTEX
  5
A55
  8
3
 10
95.874724076184862
 20
113.56334833560319
 30
0.0
  0
VERTEX
  5
A56
  8
3
 10
95.770618753167241
 20
113.49274163633341
 30
0.0
  0
VERTEX
  5
A57
  8
3
 10
95.658507401942302
 20
113.4392063770083
 30
0.0
  0
VERTEX
  5
A58
  8
3
 10
95.539306537523885
 20
113.4052481479375
 30
0.0
  0
VERTEX
  5
A59
  8
3
 10
95.413905718601526
 20
113.39337119161399
 30
0.0
  0
VERTEX
  5
A5A
  8
3
 10
95.288504899679197
 20
113.4052481479375
 30
0.0
  0
VERTEX
  5
A5B
  8
3
 10
95.16930403526078
 20
113.4392063770083
 30
0.0
  0
VERTEX
  5
A5C
  8
3
 10
95.05719268403584
 20
113.49274163633341
 30
0.0
  0
VERTEX
  5
A5D
  8
3
 10
94.95308736101822
 20
113.56334833560319
 30
0.0
  0
VERTEX
  5
A5E
  8
3
 10
94.857877624897469
 20
113.6485195366924
 30
0.0
  0
VERTEX
  5
A5F
  8
3
 10
94.772439556201235
 20
113.7457496492918
 30
0.0
  0
VERTEX
  5
A60
  8
3
 10
94.697703148105347
 20
113.8525317352756
 30
0.0
  0
VERTEX
  5
A61
  8
3
 10
94.63453100297545
 20
113.96636289996729
 30
0.0
  0
VERTEX
  5
A62
  8
3
 10
94.583839635825029
 20
114.08473485742491
 30
0.0
  0
VERTEX
  5
A63
  8
3
 10
94.546532083505895
 20
114.2051420173392
 30
0.0
  0
VERTEX
  5
A64
  8
3
 10
94.523484426545807
 20
114.3250801372171
 30
0.0
  0
VERTEX
  5
A65
  8
3
 10
94.515599701796305
 20
114.4420414702435
 30
0.0
  0
VERTEX
  5
A66
  8
3
 10
94.523214863306407
 20
114.5649685073188
 30
0.0
  0
VERTEX
  5
A67
  8
3
 10
94.545534699520545
 20
114.68649974594101
 30
0.0
  0
VERTEX
  5
A68
  8
3
 10
94.581844867854215
 20
114.8048622686852
 30
0.0
  0
VERTEX
  5
A69
  8
3
 10
94.631363634913555
 20
114.9182850450693
 30
0.0
  0
VERTEX
  5
A6A
  8
3
 10
94.693376658114644
 20
115.02499839242719
 30
0.0
  0
VERTEX
  5
A6B
  8
3
 10
94.767102204063121
 20
115.1232299324605
 30
0.0
  0
VERTEX
  5
A6C
  8
3
 10
94.851812452013164
 20
115.2112086346871
 30
0.0
  0
VERTEX
  5
A6D
  8
3
 10
94.946766103056575
 20
115.2871634686246
 30
0.0
  0
VERTEX
  5
A6E
  8
3
 10
95.051194901961367
 20
115.3493220559748
 30
0.0
  0
VERTEX
  5
A6F
  8
3
 10
95.164357549819556
 20
115.39591471407159
 30
0.0
  0
VERTEX
  5
A70
  8
3
 10
95.285512747722919
 20
115.4251690646166
 30
0.0
  0
SEQEND
  5
A71
  8
3
  0
POLYLINE
  5
3C3
  8
3
 66
     1
 10
0.0
 20
0.0
 30
0.0
 70
     1
  0
VERTEX
  5
3C4
  8
3
 10
92.632343303993693
 20
114.6372491943047
 30
0.0
  0
VERTEX
  5
3C5
  8
3
 10
92.624788794212364
 20
114.6372491943047
 30
0.0
  0
VERTEX
  5
3C6
  8
3
 10
92.624788794212364
 20
115.83868985623241
 30
0.0
  0
VERTEX
  5
3C7
  8
3
 10
92.069399565385325
 20
115.83868985623241
 30
0.0
  0
VERTEX
  5
3C8
  8
3
 10
92.069399565385325
 20
112.9899859777959
 30
0.0
  0
VERTEX
  5
3C9
  8
3
 10
92.624788794212364
 20
112.9899859777959
 30
0.0
  0
VERTEX
  5
3CA
  8
3
 10
92.624788794212364
 20
114.2707739270278
 30
0.0
  0
VERTEX
  5
3CB
  8
3
 10
92.632343303993693
 20
114.2707739270278
 30
0.0
  0
VERTEX
  5
3CC
  8
3
 10
93.542878057149778
 20
112.9899859777959
 30
0.0
  0
VERTEX
  5
3CD
  8
3
 10
94.256953773687869
 20
112.9899859777959
 30
0.0
  0
VERTEX
  5
3CE
  8
3
 10
93.115949190011278
 20
114.52390957818
 30
0.0
  0
VERTEX
  5
3CF
  8
3
 10
94.196504217274864
 20
115.83868985623241
 30
0.0
  0
VERTEX
  5
3D0
  8
3
 10
93.512655974575736
 20
115.83868985623241
 30
0.0
  0
SEQEND
  5
3D1
  8
3
  0
LINE
  5
3D2
  8
3
 10
97.357269619391673
 20
127.121307879178
 30
0.0
 11
97.357269619391673
 21
121.0188493582135
 31
0.0
  0
LINE
  5
3D3
  8
3
 10
96.75726961939155
 20
127.121307879178
 30
0.0
 11
96.75726961939155
 21
121.0188493582135
 31
0.0
  0
LINE
  5
3D4
  8
0
 10
104.3072696193919
 20
128.57007861870139
 30
0.0
 11
104.3072696193919
 21
119.5700786186901
 31
0.0
  0
LINE
  5
3D5
  8
3
 10
101.8072696193915
 20
121.0188493582135
 30
0.0
 11
101.8072696193915
 21
127.121307879178
 31
0.0
  0
LINE
  5
3D6
  8
3
 10
103.50726961939171
 20
127.121307879178
 30
0.0
 11
103.50726961939171
 21
121.0188493582135
 31
0.0
  0
TEXT
  5
3D7
  8
0
 10
93.349158773086742
 20
122.0234076475291
 30
0.0
 40
4.0
  1
0
 41
1.1999999999999991
  0
LINE
  5
3D8
  8
3
 10
92.197269619391591
 20
127.121307879178
 30
0.0
 11
92.197269619391591
 21
121.0188493582135
 31
0.0
  0
LINE
  5
3D9
  8
3
 10
92.197269619391591
 20
127.121307879178
 30
0.0
 11
92.197269619391591
 21
121.0188493582135
 31
0.0
  0
LINE
  5
3DA
  8
3
 10
102.2072696193916
 20
121.44465294064361
 30
0.0
 11
103.50726961939201
 21
121.44465294064349
 31
0.0
  0
LINE
  5
3DB
  8
3
 10
102.6072696193914
 20
123.00596490753411
 30
0.0
 11
103.50726961939201
 21
123.00596490753411
 31
0.0
  0
LINE
  5
3DC
  8
3
 10
102.6072696193914
 20
123.5375779768316
 30
0.0
 11
103.50726961939201
 21
123.5375779768316
 31
0.0
  0
LINE
  5
3DD
  8
3
 10
102.6072696193914
 20
122.47855621885211
 30
0.0
 11
103.50726961939201
 21
122.47855621885191
 31
0.0
  0
LINE
  5
3DE
  8
3
 10
102.6072696193914
 20
121.9574333519295
 30
0.0
 11
103.50726961939201
 21
121.9574333519293
 31
0.0
  0
LINE
  5
3DF
  8
3
 10
101.8072696193917
 20
124.0712973928307
 30
0.0
 11
103.50726961939201
 21
124.0712973928306
 31
0.0
  0
LINE
  5
3E0
  8
3
 10
102.6072696193914
 20
124.6050168088297
 30
0.0
 11
103.50726961939201
 21
124.6050168088297
 31
0.0
  0
LINE
  5
3E1
  8
3
 10
102.6072696193914
 20
125.6640385668092
 30
0.0
 11
103.50726961939201
 21
125.6640385668092
 31
0.0
  0
LINE
  5
3E2
  8
3
 10
102.6072696193914
 20
126.18516143373191
 30
0.0
 11
103.50726961939201
 21
126.18516143373191
 31
0.0
  0
LINE
  5
3E3
  8
3
 10
102.6072696193914
 20
125.1366298781272
 30
0.0
 11
103.50726961939201
 21
125.1366298781272
 31
0.0
  0
LINE
  5
3E4
  8
3
 10
102.2072696193916
 20
126.6979418450177
 30
0.0
 11
103.50726961939201
 21
126.6979418450177
 31
0.0
  0
ARC
  5
3E5
  8
3
 10
92.707269619391795
 20
124.0700786186957
 30
0.0
 40
13.799999999999949
 50
23.48760849298565
 51
156.51239150701431
  0
LINE
  5
3E6
  8
3
 10
105.3638884411784
 20
129.57007861869579
 30
0.0
 11
80.050650797605158
 21
129.57007861869579
 31
0.0
  0
LINE
  5
3E7
  8
1
 10
92.707269619391795
 20
147.0700786186955
 30
0.0
 11
92.707269619391795
 21
101.0700786186958
 31
0.0
  0
LINE
  5
3E8
  8
1
 10
115.7072696193917
 20
124.0700786186957
 30
0.0
 11
69.707269619391923
 21
124.0700786186957
 31
0.0
  0
TEXT
  5
3E9
  8
0
 10
98.509158773086824
 20
122.0234076475291
 30
0.0
 40
4.0
  1
0
 41
1.1999999999999991
  0
LINE
  5
3EB
  8
1
 10
242.5578677648684
 20
147.0700786186955
 30
0.0
 11
242.5578677648684
 21
101.0700786186958
 31
0.0
  0
LINE
  5
3EC
  8
1
 10
265.55786776486832
 20
124.0700786186957
 30
0.0
 11
219.55786776486849
 21
124.0700786186957
 31
0.0
  0
CIRCLE
  5
3ED
  8
0
 10
242.55786776486929
 20
124.07007861869469
 30
0.0
 40
7.0
  0
CIRCLE
  5
3EF
  8
0
 10
242.5578677648684
 20
124.0700786186957
 30
0.0
 40
12.5
  0
CIRCLE
  5
3F0
  8
0
 10
242.5578677648684
 20
109.0700786188423
 30
0.0
 40
2.0
  0
CIRCLE
  5
3F1
  8
0
 10
242.5578677648684
 20
109.0700786188423
 30
0.0
 40
1.25
  0
INSERT
  5
3F2
  8
0
  2
BATU
 10
258.24504896707867
 20
148.98067860180331
 30
0.0
 41
0.0009999999999764
 42
0.0009999999999764
 43
0.0009999999999764
  0
LINE
  5
3F3
  8
2
 10
245.05786776486869
 20
131.57007861869511
 30
0.0
 11
240.05786776486801
 21
131.57007861869511
 31
0.0
  0
LINE
  5
3F4
  8
2
 10
244.55786776486829
 20
131.07007861869479
 30
0.0
 11
245.05786776486869
 21
131.57007861869511
 31
0.0
  0
LINE
  5
3F5
  8
2
 10
245.05786776486869
 20
135.57007861869451
 30
0.0
 11
240.05786776486801
 21
135.57007861869451
 31
0.0
  0
LINE
  5
3F6
  8
2
 10
244.55786776486829
 20
136.07007861869491
 30
0.0
 11
245.05786776486869
 21
135.57007861869451
 31
0.0
  0
LINE
  5
3F7
  8
2
 10
240.05786776486801
 20
131.57007861869511
 30
0.0
 11
240.55786776486829
 21
131.07007861869479
 31
0.0
  0
LINE
  5
3F8
  8
2
 10
240.05786776486801
 20
131.57007861869511
 30
0.0
 11
240.05786776486801
 21
130.60842703400519
 31
0.0
  0
LINE
  5
3F9
  8
2
 10
244.55786776486829
 20
130.77828255119439
 30
0.0
 11
244.55786776486829
 21
136.07007861869491
 31
0.0
  0
LINE
  5
3FA
  8
2
 10
240.55786776486829
 20
136.07007861869491
 30
0.0
 11
240.55786776486829
 21
130.7782825511938
 31
0.0
  0
LINE
  5
3FB
  8
2
 10
240.05786776486801
 20
131.57007861869511
 30
0.0
 11
240.05786776486801
 21
135.57007861869451
 31
0.0
  0
LINE
  5
3FC
  8
2
 10
240.55786776486829
 20
136.07007861869491
 30
0.0
 11
244.55786776486829
 21
136.07007861869491
 31
0.0
  0
LINE
  5
3FD
  8
2
 10
240.55786776486829
 20
136.4090412979487
 30
0.0
 11
240.55786776486829
 21
136.07007861869491
 31
0.0
  0
LINE
  5
3FE
  8
2
 10
240.05786776486801
 20
135.57007861869451
 30
0.0
 11
240.55786776486829
 21
136.07007861869491
 31
0.0
  0
LINE
  5
3FF
  8
2
 10
240.05786776486801
 20
136.31752733261141
 30
0.0
 11
240.05786776486801
 21
135.57007861869451
 31
0.0
  0
LINE
  5
400
  8
2
 10
244.55786776486829
 20
136.4090412979487
 30
0.0
 11
244.55786776486829
 21
136.07007861869491
 31
0.0
  0
LINE
  5
401
  8
2
 10
245.05786776486869
 20
131.57007861869511
 30
0.0
 11
245.05786776486869
 21
130.60842703400601
 31
0.0
  0
LINE
  5
402
  8
2
 10
245.05786776486869
 20
135.57007861869451
 30
0.0
 11
245.05786776486869
 21
131.57007861869511
 31
0.0
  0
LINE
  5
403
  8
2
 10
245.0578677648688
 20
136.31752733261149
 30
0.0
 11
245.05786776486869
 21
135.57007861869459
 31
0.0
  0
LINE
  5
404
  8
2
 10
244.55786776486821
 20
131.07007861869471
 30
0.0
 11
240.5578677648684
 21
131.07007861869471
 31
0.0
  0
LINE
  5
416
  8
1
 10
247.0578677648684
 20
109.0700786188423
 30
0.0
 11
238.05786776486849
 21
109.0700786188423
 31
0.0
  0
LINE
  5
7C6
  8
0
 10
183.39327637787531
 20
106.0700786188478
 30
0.0
 11
183.39327637787531
 21
142.0700786188487
 31
0.0
  0
LINE
  5
7C7
  8
0
 10
188.89327973801241
 20
136.37007861870151
 30
0.0
 11
188.89327973801241
 21
111.7700786187016
 31
0.0
  0
LINE
  5
7C8
  8
0
 10
188.89327973801241
 20
107.0700786179943
 30
0.0
 11
188.89327973801241
 21
106.07007861884659
 31
0.0
  0
LINE
  5
7C9
  8
0
 10
188.69327973801211
 20
111.5700786187016
 30
0.0
 11
188.89327973801241
 21
111.7700786187016
 31
0.0
  0
LINE
  5
7CA
  8
0
 10
183.39327637787531
 20
111.5700786187016
 30
0.0
 11
188.69327973801211
 21
111.5700786187016
 31
0.0
  0
LINE
  5
7CB
  8
0
 10
183.39327637787531
 20
136.57007861891299
 30
0.0
 11
188.6932797382787
 21
136.57007861880001
 31
0.0
  0
LINE
  5
7CC
  8
0
 10
188.6932797382787
 20
136.57007861880001
 30
0.0
 11
188.89327973827471
 21
136.37007861879579
 31
0.0
  0
CIRCLE
  5
7D4
  8
0
 10
242.5578677648684
 20
124.0700786186957
 30
0.0
 40
17.999999999999879
  0
LINE
  5
7D5
  8
0
 10
244.5578677648684
 20
109.0700786188423
 30
0.0
 11
244.5578677648684
 21
106.1815347986974
 31
0.0
  0
LINE
  5
7D6
  8
0
 10
240.5578677648684
 20
109.0700786188423
 30
0.0
 11
240.5578677648684
 21
106.1815347986974
 31
0.0
  0
TEXT
  5
8C2
  8
0
 62
     3
 10
0.0
 20
0.0
 30
0.0
 40
10.0
  1
DK01F
  7
STANDARD1
  0
ENDSEC
  0
EOF
