  0
SECTION
  2
HEADER
  9
$ACADVER
  1
AC1009
  9
$INSBASE
 10
0.0
 20
0.0
 30
0.0
  9
$EXTMIN
 10
0.0
 20
-2.960436562073669
 30
0.0
  9
$EXTMAX
 10
75.012967191975974
 20
144.3187319214191
 30
0.0
  9
$LIMMIN
 10
0.0
 20
0.0
  9
$LIMMAX
 10
279.39999999999998
 20
215.90000000000001
  9
$ORTHOMODE
 70
     0
  9
$REGENMODE
 70
     1
  9
$FILLMODE
 70
     1
  9
$QTEXTMODE
 70
     0
  9
$MIRRTEXT
 70
     1
  9
$DRAGMODE
 70
     2
  9
$LTSCALE
 40
5.0
  9
$OSMODE
 70
    37
  9
$ATTMODE
 70
     1
  9
$TEXTSIZE
 40
2.5
  9
$TRACEWID
 40
1.0
  9
$TEXTSTYLE
  7
STANDARD
  9
$CLAYER
  8
0
  9
$CELTYPE
  6
BYLAYER
  9
$CECOLOR
 62
   256
  9
$DIMSCALE
 40
1.0
  9
$DIMASZ
 40
6.0
  9
$DIMEXO
 40
1.0
  9
$DIMDLI
 40
3.75
  9
$DIMRND
 40
0.0
  9
$DIMDLE
 40
0.0
  9
$DIMEXE
 40
1.0
  9
$DIMTP
 40
0.0
  9
$DIMTM
 40
0.0
  9
$DIMTXT
 40
3.5
  9
$DIMCEN
 40
2.5
  9
$DIMTSZ
 40
0.0
  9
$DIMTOL
 70
     0
  9
$DIMLIM
 70
     0
  9
$DIMTIH
 70
     1
  9
$DIMTOH
 70
     1
  9
$DIMSE1
 70
     0
  9
$DIMSE2
 70
     0
  9
$DIMTAD
 70
     1
  9
$DIMZIN
 70
     8
  9
$DIMBLK
  1

  9
$DIMASO
 70
     1
  9
$DIMSHO
 70
     1
  9
$DIMPOST
  1

  9
$DIMAPOST
  1

  9
$DIMALT
 70
     0
  9
$DIMALTD
 70
     3
  9
$DIMALTF
 40
0.0393700787401575
  9
$DIMLFAC
 40
1.0
  9
$DIMTOFL
 70
     1
  9
$DIMTVP
 40
0.0
  9
$DIMTIX
 70
     0
  9
$DIMSOXD
 70
     0
  9
$DIMSAH
 70
     0
  9
$DIMBLK1
  1

  9
$DIMBLK2
  1

  9
$DIMSTYLE
  2
ISO-25
  9
$DIMCLRD
 70
     0
  9
$DIMCLRE
 70
     0
  9
$DIMCLRT
 70
     0
  9
$DIMTFAC
 40
1.0
  9
$DIMGAP
 40
1.524
  9
$LUNITS
 70
     2
  9
$LUPREC
 70
     3
  9
$SKETCHINC
 40
1.0
  9
$FILLETRAD
 40
10.0
  9
$AUNITS
 70
     0
  9
$AUPREC
 70
     0
  9
$MENU
  1
.
  9
$ELEVATION
 40
0.0
  9
$PELEVATION
 40
0.0
  9
$THICKNESS
 40
0.0
  9
$LIMCHECK
 70
     0
  9
$BLIPMODE
 70
     0
  9
$CHAMFERA
 40
10.0
  9
$CHAMFERB
 40
10.0
  9
$SKPOLY
 70
     0
  9
$TDCREATE
 40
2455132.3971222108
  9
$TDUPDATE
 40
2458824.5995981828
  9
$TDINDWG
 40
0.1517103356
  9
$TDUSRTIMER
 40
0.1517103356
  9
$USRTIMER
 70
     1
  9
$ANGBASE
 50
0.0
  9
$ANGDIR
 70
     0
  9
$PDMODE
 70
     0
  9
$PDSIZE
 40
-1.0
  9
$PLINEWID
 40
0.0
  9
$COORDS
 70
     1
  9
$SPLFRAME
 70
     0
  9
$SPLINETYPE
 70
     6
  9
$SPLINESEGS
 70
     8
  9
$ATTDIA
 70
     0
  9
$ATTREQ
 70
     1
  9
$HANDLING
 70
     1
  9
$HANDSEED
  5
A01
  9
$SURFTAB1
 70
     6
  9
$SURFTAB2
 70
     6
  9
$SURFTYPE
 70
     6
  9
$SURFU
 70
     6
  9
$SURFV
 70
     6
  9
$UCSNAME
  2

  9
$UCSORG
 10
0.0
 20
0.0
 30
0.0
  9
$UCSXDIR
 10
1.0
 20
0.0
 30
0.0
  9
$UCSYDIR
 10
0.0
 20
1.0
 30
0.0
  9
$PUCSNAME
  2

  9
$PUCSORG
 10
0.0
 20
0.0
 30
0.0
  9
$PUCSXDIR
 10
1.0
 20
0.0
 30
0.0
  9
$PUCSYDIR
 10
0.0
 20
1.0
 30
0.0
  9
$USERI1
 70
     0
  9
$USERI2
 70
     0
  9
$USERI3
 70
     0
  9
$USERI4
 70
     0
  9
$USERI5
 70
     0
  9
$USERR1
 40
0.0
  9
$USERR2
 40
0.0
  9
$USERR3
 40
0.0
  9
$USERR4
 40
0.0
  9
$USERR5
 40
0.0
  9
$WORLDVIEW
 70
     1
  9
$SHADEDGE
 70
     3
  9
$SHADEDIF
 70
    70
  9
$TILEMODE
 70
     1
  9
$MAXACTVP
 70
    64
  9
$PLIMCHECK
 70
     0
  9
$PEXTMIN
 10
25.699999999999989
 20
19.5
 30
0.0
  9
$PEXTMAX
 10
231.30000000000001
 20
175.5
 30
0.0
  9
$PLIMMIN
 10
-20.0
 20
-7.5
  9
$PLIMMAX
 10
277.0
 20
202.5
  9
$UNITMODE
 70
     0
  9
$VISRETAIN
 70
     1
  9
$PLINEGEN
 70
     0
  9
$PSLTSCALE
 70
     1
  0
ENDSEC
  0
SECTION
  2
TABLES
  0
TABLE
  2
VPORT
 70
     1
  0
VPORT
  2
*ACTIVE
 70
     0
 10
0.0
 20
0.0
 11
1.0
 21
1.0
 12
37.508563763984171
 22
79.540419412507774
 13
0.0
 23
0.0
 14
10.0
 24
10.0
 15
10.0
 25
10.0
 16
0.0
 26
0.0
 36
1.0
 17
0.0
 27
0.0
 37
0.0
 40
166.23570979495619
 41
2.3366214549938338
 42
50.0
 43
0.0
 44
0.0
 50
0.0
 51
0.0
 71
     0
 72
  2000
 73
     1
 74
     3
 75
     0
 76
     0
 77
     0
 78
     0
  0
ENDTAB
  0
TABLE
  2
LTYPE
 70
     5
  0
LTYPE
  2
CONTINUOUS
 70
     0
  3
Solid line
 72
    65
 73
     0
 40
0.0
  0
LTYPE
  2
CENTER
 70
     0
  3
____ _ ____ _ ____ _ ____ _ ____ _ ____ _ ____
 72
    65
 73
     4
 40
2.0
 49
1.25
 49
-0.25
 49
0.25
 49
-0.25
  0
LTYPE
  2
HIDDEN
 70
     0
  3
_ _ _ _ _ _ _ _ _ _ _ _ _ _ _ _ _ _ _ _ _ _ _
 72
    65
 73
     2
 40
0.375
 49
0.25
 49
-0.125
  0
LTYPE
  2
SASEN1
 70
     0
  3
SASEN1 ___ _ ___ _ ___ _ ___
 72
    65
 73
     4
 40
8.0
 49
5.0
 49
-1.0
 49
1.0
 49
-1.0
  0
LTYPE
  2
DASHED
 70
     0
  3

 72
    65
 73
     2
 40
5.6999998167157173
 49
4.559999853372573
 49
-1.139999963343143
  0
ENDTAB
  0
TABLE
  2
LAYER
 70
    10
  0
LAYER
  2
0
 70
     0
 62
     7
  6
CONTINUOUS
  0
LAYER
  2
1
 70
     0
 62
     1
  6
CENTER
  0
LAYER
  2
DEFPOINTS
 70
     0
 62
     7
  6
CONTINUOUS
  0
LAYER
  2
2
 70
     0
 62
     2
  6
HIDDEN
  0
LAYER
  2
10_CHOKU02
 70
     0
 62
     7
  6
CONTINUOUS
  0
LAYER
  2
40_SASEN01-1-50-10-10
 70
     0
 62
     1
  6
SASEN1
  0
LAYER
  2
60_DIM_NOTE
 70
     0
 62
     6
  6
CONTINUOUS
  0
LAYER
  2
ATARI
 70
     0
 62
     8
  6
CONTINUOUS
  0
LAYER
  2
HIDDEN__ISO_
 70
     0
 62
     7
  6
DASHED
  0
LAYER
  2
VISIBLE__ISO_
 70
     0
 62
     7
  6
CONTINUOUS
  0
ENDTAB
  0
TABLE
  2
STYLE
 70
     4
  0
STYLE
  2
STANDARD
 70
     0
 40
0.0
 41
1.0
 50
0.0
 71
     0
 42
2.5
  3
txt
  4
bigfont
  0
STYLE
  2
STANDARD1
 70
     0
 40
0.0
 41
1.0
 50
0.0
 71
     0
 42
3.0
  3
txt
  4

  0
STYLE
  2
IMAO_TXT_W100
 70
     0
 40
0.0
 41
1.0
 50
0.0
 71
     0
 42
2.5
  3
txt
  4

  0
STYLE
  2
NOTE_TEXT__ISO_
 70
     0
 40
0.0
 41
1.0
 50
0.0
 71
     0
 42
0.2
  3
txt
  4

  0
ENDTAB
  0
TABLE
  2
VIEW
 70
     0
  0
ENDTAB
  0
TABLE
  2
UCS
 70
     0
  0
ENDTAB
  0
TABLE
  2
APPID
 70
    10
  0
APPID
  2
ACAD
 70
     0
  0
APPID
  2
ACAD_MLEADERVER
 70
     0
  0
APPID
  2
ACAD_PSEXT
 70
     0
  0
APPID
  2
ACAD_DSTYLE_DIMJAG
 70
     0
  0
APPID
  2
ACAD_DSTYLE_DIMTALN
 70
     0
  0
APPID
  2
ACAD_DSTYLE_DIMBREAK
 70
     0
  0
APPID
  2
ACAECLAYERSTANDARD
 70
     0
  0
APPID
  2
ACCMTRANSPARENCY
 70
     0
  0
APPID
  2
ACAD_NAV_VCDISPLAY
 70
     0
  0
APPID
  2
ACAD_EXEMPT_FROM_CAD_STANDARDS
 70
     0
  0
ENDTAB
  0
TABLE
  2
DIMSTYLE
 70
     5
  0
DIMSTYLE
  2
ISO-25
 70
     0
  3

  4

  5

  6

  7

 40
1.0
 41
2.5
 42
0.625
 43
3.75
 44
1.25
 45
0.0
 46
0.0
 47
0.0
 48
0.0
140
2.5
141
2.5
142
0.0
143
0.03937007874016
144
1.0
145
0.0
146
1.0
147
0.625
 71
     0
 72
     0
 73
     0
 74
     0
 75
     0
 76
     0
 77
     1
 78
     8
170
     0
171
     3
172
     1
173
     0
174
     0
175
     0
176
     0
177
     0
178
     0
  0
DIMSTYLE
  2
STANDARD
 70
     0
  3

  4

  5

  6

  7

 40
1.0
 41
0.18
 42
0.0625
 43
0.38
 44
0.18
 45
0.0
 46
0.0
 47
0.0
 48
0.0
140
0.18
141
0.09
142
0.0
143
25.399999999999999
144
1.0
145
0.0
146
1.0
147
0.09
 71
     0
 72
     0
 73
     1
 74
     1
 75
     0
 76
     0
 77
     0
 78
     0
170
     0
171
     2
172
     0
173
     0
174
     0
175
     0
176
     0
177
     0
178
     0
  0
DIMSTYLE
  2
IMAO_DIM_HAN
 70
     0
  3

  4

  5

  6

  7

 40
1.0
 41
1.5
 42
1.0
 43
4.0
 44
1.0
 45
0.0
 46
0.0
 47
0.0
 48
0.0
140
1.8
141
0.09
142
0.0
143
25.399999999999999
144
1.0
145
0.0
146
1.0
147
0.9
 71
     0
 72
     0
 73
     0
 74
     0
 75
     0
 76
     0
 77
     1
 78
     8
170
     0
171
     2
172
     1
173
     0
174
     0
175
     0
176
   256
177
     0
178
   256
  0
DIMSTYLE
  2
IMAO_DIM_ZEN
 70
     0
  3

  4

  5

  6

  7

 40
1.0
 41
1.5
 42
1.0
 43
4.0
 44
1.0
 45
0.0
 46
0.0
 47
0.0
 48
0.0
140
1.8
141
0.09
142
0.0
143
25.399999999999999
144
1.0
145
0.0
146
1.0
147
0.65
 71
     0
 72
     0
 73
     0
 74
     0
 75
     0
 76
     0
 77
     1
 78
     8
170
     0
171
     2
172
     1
173
     0
174
     0
175
     0
176
   256
177
     0
178
   256
  0
DIMSTYLE
  2
DEFAULT__ISO_
 70
     0
  3

  4

  5
FILLED-1
  6

  7

 40
1.0
 41
2.5
 42
0.0
 43
6.0
 44
3.1749999999999989
 45
0.0
 46
0.0
 47
0.0
 48
0.0
140
3.5
141
0.09
142
0.0
143
0.03937
144
1.0
145
0.0
146
1.0
147
0.762
 71
     0
 72
     0
 73
     1
 74
     1
 75
     0
 76
     0
 77
     0
 78
     0
170
     0
171
     3
172
     0
173
     0
174
     0
175
     0
176
   256
177
   256
178
   256
  0
ENDTAB
  0
ENDSEC
  0
SECTION
  2
BLOCKS
  0
BLOCK
  8
0
  2
$MODEL_SPACE
 70
     0
 10
0.0
 20
0.0
 30
0.0
  3
$MODEL_SPACE
  1

  0
ENDBLK
  5
21
  8
0
  0
BLOCK
 67
     1
  8
0
  2
$PAPER_SPACE
 70
     0
 10
0.0
 20
0.0
 30
0.0
  3
$PAPER_SPACE
  1

  0
ENDBLK
  5
1D
 67
     1
  8
0
  0
BLOCK
  8
0
  2
FILLED-1
 70
     0
 10
0.0
 20
0.0
 30
0.0
  3
FILLED-1
  1

  0
LINE
  5
406
  8
0
 62
     0
 10
-1.0
 20
0.0
 30
0.0
 11
0.0
 21
0.0
 31
0.0
  0
SOLID
  5
407
  8
0
 62
     0
 10
-1.0
 20
-0.2
 30
0.0
 11
0.0
 21
0.0
 31
0.0
 12
-1.0
 22
0.2
 32
0.0
 13
-1.0
 23
0.2
 33
0.0
  0
LINE
  5
408
  8
0
 62
     0
 10
-1.0
 20
-0.2
 30
0.0
 11
0.0
 21
0.0
 31
0.0
  0
LINE
  5
409
  8
0
 62
     0
 10
0.0
 20
0.0
 30
0.0
 11
-1.0
 21
0.2
 31
0.0
  0
LINE
  5
40A
  8
0
 62
     0
 10
-1.0
 20
0.2
 30
0.0
 11
-1.0
 21
-0.2
 31
0.0
  0
ENDBLK
  5
40B
  8
0
  0
BLOCK
  8
0
  2
*U6
 70
     1
 10
0.0
 20
0.0
 30
0.0
  3
*U6
  1

  0
TEXT
  5
5E2
  8
0
 62
     0
 10
2.8950495758785539
 20
55.031065254752441
 30
0.0
 40
3.5
  1
22,1
  0
ENDBLK
  5
5E4
  8
0
  0
BLOCK
  8
0
  2
*U7
 70
     1
 10
0.0
 20
0.0
 30
0.0
  3
*U7
  1

  0
TEXT
  5
5E6
  8
0
 62
     0
 10
45.679633858642582
 20
87.166804762428896
 30
0.0
 40
3.5
  1
13
  0
ENDBLK
  5
5E8
  8
0
  0
BLOCK
  8
0
  2
*U8
 70
     1
 10
0.0
 20
0.0
 30
0.0
  3
*U8
  1

  0
TEXT
  5
5EA
  8
0
 62
     0
 10
45.096300525309289
 20
46.473277948946922
 30
0.0
 40
3.5
  1
44
  0
ENDBLK
  5
5EC
  8
0
  0
BLOCK
  8
0
  2
*U9
 70
     1
 10
0.0
 20
0.0
 30
0.0
  3
*U9
  1

  0
TEXT
  5
5EE
  8
0
 62
     0
 10
82.693053350157285
 20
118.5687319214192
 30
0.0
 40
3.5
  1
38
  0
ENDBLK
  5
5F0
  8
0
  0
ENDSEC
  0
SECTION
  2
ENTITIES
  0
TEXT
  5
274
  8
0
 62
     3
 10
0.0
 20
0.0
 30
0.0
 40
10.0
  1
DK2-DPP1
  7
STANDARD1
  0
LINE
  5
44F
  8
2
 10
54.512967191975918
 20
58.923731921419098
 30
0.0
 11
54.512967191975918
 21
59.923731921419098
 31
0.0
  0
LINE
  5
450
  8
2
 10
41.51296719197591
 20
58.923731921419098
 30
0.0
 11
41.51296719197591
 21
59.923731921419098
 31
0.0
  0
LINE
  5
451
  8
0
 10
28.012967191975921
 20
58.923731921419098
 30
0.0
 11
68.012967191975903
 21
58.923731921419098
 31
0.0
  0
LINE
  5
452
  8
0
 10
68.012967191975903
 20
59.923731921419098
 30
0.0
 11
28.012967191975932
 21
59.923731921419098
 31
0.0
  0
LINE
  5
453
  8
0
 10
26.012967191975971
 20
76.123731921419107
 30
0.0
 11
26.012967191975932
 21
60.923731921419098
 31
0.0
  0
LINE
  5
454
  8
0
 10
27.012967191975982
 20
76.123731921419107
 30
0.0
 11
27.01296719197595
 21
60.923731921419098
 31
0.0
  0
LINE
  5
455
  8
0
 10
70.012967191975918
 20
60.923731921419098
 30
0.0
 11
70.012967191975946
 21
76.123731921419107
 31
0.0
  0
LINE
  5
456
  8
0
 10
69.012967191975946
 20
76.123731921419107
 30
0.0
 11
69.012967191975918
 21
60.923731921419098
 31
0.0
  0
LINE
  5
457
  8
0
 10
32.508157720359257
 20
81.028432459798324
 30
0.0
 11
27.012967191975982
 21
77.85578272898799
 31
0.0
  0
LINE
  5
458
  8
0
 10
33.008157720359279
 20
80.162407056013905
 30
0.0
 11
27.512967191975971
 21
76.989757325203556
 31
0.0
  0
ARC
  5
459
  8
0
 10
28.012967191975932
 20
60.923731921419098
 30
0.0
 40
0.9999999999999965
 50
179.9999999999992
 51
270.0
  0
ARC
  5
45A
  8
0
 10
28.012967191975932
 20
60.923731921419098
 30
0.0
 40
2.0000000000000009
 50
180.0
 51
270.0
  0
ARC
  5
45B
  8
0
 10
-68.012967191975903
 20
60.923731921419098
 30
0.0
 40
0.9999999999999985
210
0.0
220
0.0
230
-1.0
 50
180.0
 51
270.0
  0
ARC
  5
45C
  8
0
 10
68.012967191975903
 20
60.923731921419098
 30
0.0
 40
1.9999999999999969
 50
270.0
 51
359.9999999999992
  0
ARC
  5
45D
  8
0
 10
28.012967191975982
 20
76.123731921419107
 30
0.0
 40
1.000000000000002
 50
119.9999999999999
 51
180.0
  0
ARC
  5
45E
  8
0
 10
28.01296719197596
 20
76.123731921419122
 30
0.0
 40
1.9999999999999929
 50
119.9999999999998
 51
180.0
  0
ARC
  5
45F
  8
0
 10
-68.012967191975903
 20
76.123731921419093
 30
0.0
 40
1.0000000000000011
210
0.0
220
0.0
230
-1.0
 50
119.9999999999999
 51
179.9999999999992
  0
ARC
  5
460
  8
0
 10
68.012967191975903
 20
76.123731921419093
 30
0.0
 40
2.0000000000000102
 50
0.0
 51
60.00000000000005
  0
LINE
  5
461
  8
0
 10
69.012967191975946
 20
77.85578272898799
 30
0.0
 11
63.517776663592677
 21
81.028432459798324
 31
0.0
  0
LINE
  5
462
  8
0
 10
63.017776663592649
 20
80.162407056013848
 30
0.0
 11
68.512967191975946
 21
76.989757325203541
 31
0.0
  0
LINE
  5
463
  8
0
 10
33.008157720359279
 20
80.162407056013905
 30
0.0
 11
32.508157720359279
 21
81.028432459798353
 31
0.0
  0
LINE
  5
468
  8
0
 10
63.517776663592649
 20
81.028432459798324
 30
0.0
 11
63.017776663592649
 21
80.162407056013905
 31
0.0
  0
POLYLINE
  5
469
  8
0
 10
32.508157720359279
 20
102.81873192142542
 30
0.0
 66
     1
 70
     8
  0
VERTEX
  8
0
  5
5F1
 10
32.5082
 20
102.819
 30
0.000000
  70
    32
  0
VERTEX
  8
0
  5
5F2
 10
32.5081
 20
102.800
 30
0.000000
  70
    32
  0
VERTEX
  8
0
  5
5F3
 10
32.5078
 20
102.782
 30
0.000000
  70
    32
  0
VERTEX
  8
0
  5
5F4
 10
32.5073
 20
102.764
 30
0.000000
  70
    32
  0
VERTEX
  8
0
  5
5F5
 10
32.5066
 20
102.745
 30
0.000000
  70
    32
  0
VERTEX
  8
0
  5
5F6
 10
32.5057
 20
102.727
 30
0.000000
  70
    32
  0
VERTEX
  8
0
  5
5F7
 10
32.5046
 20
102.708
 30
0.000000
  70
    32
  0
VERTEX
  8
0
  5
5F8
 10
32.5034
 20
102.690
 30
0.000000
  70
    32
  0
VERTEX
  8
0
  5
5F9
 10
32.5019
 20
102.672
 30
0.000000
  70
    32
  0
VERTEX
  8
0
  5
5FA
 10
32.5002
 20
102.653
 30
0.000000
  70
    32
  0
VERTEX
  8
0
  5
5FB
 10
32.4984
 20
102.635
 30
0.000000
  70
    32
  0
VERTEX
  8
0
  5
5FC
 10
32.4963
 20
102.617
 30
0.000000
  70
    32
  0
VERTEX
  8
0
  5
5FD
 10
32.4941
 20
102.599
 30
0.000000
  70
    32
  0
VERTEX
  8
0
  5
5FE
 10
32.4917
 20
102.580
 30
0.000000
  70
    32
  0
VERTEX
  8
0
  5
5FF
 10
32.4890
 20
102.562
 30
0.000000
  70
    32
  0
VERTEX
  8
0
  5
600
 10
32.4862
 20
102.544
 30
0.000000
  70
    32
  0
VERTEX
  8
0
  5
601
 10
32.4832
 20
102.526
 30
0.000000
  70
    32
  0
VERTEX
  8
0
  5
602
 10
32.4800
 20
102.508
 30
0.000000
  70
    32
  0
VERTEX
  8
0
  5
603
 10
32.4766
 20
102.490
 30
0.000000
  70
    32
  0
VERTEX
  8
0
  5
604
 10
32.4730
 20
102.472
 30
0.000000
  70
    32
  0
VERTEX
  8
0
  5
605
 10
32.4692
 20
102.454
 30
0.000000
  70
    32
  0
VERTEX
  8
0
  5
606
 10
32.4653
 20
102.436
 30
0.000000
  70
    32
  0
VERTEX
  8
0
  5
607
 10
32.4611
 20
102.419
 30
0.000000
  70
    32
  0
VERTEX
  8
0
  5
608
 10
32.4568
 20
102.401
 30
0.000000
  70
    32
  0
VERTEX
  8
0
  5
609
 10
32.4522
 20
102.383
 30
0.000000
  70
    32
  0
VERTEX
  8
0
  5
60A
 10
32.4475
 20
102.366
 30
0.000000
  70
    32
  0
VERTEX
  8
0
  5
60B
 10
32.4426
 20
102.348
 30
0.000000
  70
    32
  0
VERTEX
  8
0
  5
60C
 10
32.4375
 20
102.331
 30
0.000000
  70
    32
  0
VERTEX
  8
0
  5
60D
 10
32.4322
 20
102.313
 30
0.000000
  70
    32
  0
VERTEX
  8
0
  5
60E
 10
32.4268
 20
102.296
 30
0.000000
  70
    32
  0
VERTEX
  8
0
  5
60F
 10
32.4211
 20
102.279
 30
0.000000
  70
    32
  0
VERTEX
  8
0
  5
610
 10
32.4153
 20
102.262
 30
0.000000
  70
    32
  0
VERTEX
  8
0
  5
611
 10
32.4093
 20
102.245
 30
0.000000
  70
    32
  0
VERTEX
  8
0
  5
612
 10
32.4031
 20
102.228
 30
0.000000
  70
    32
  0
VERTEX
  8
0
  5
613
 10
32.3967
 20
102.211
 30
0.000000
  70
    32
  0
VERTEX
  8
0
  5
614
 10
32.3902
 20
102.194
 30
0.000000
  70
    32
  0
VERTEX
  8
0
  5
615
 10
32.3834
 20
102.177
 30
0.000000
  70
    32
  0
VERTEX
  8
0
  5
616
 10
32.3765
 20
102.161
 30
0.000000
  70
    32
  0
VERTEX
  8
0
  5
617
 10
32.3695
 20
102.144
 30
0.000000
  70
    32
  0
VERTEX
  8
0
  5
618
 10
32.3622
 20
102.128
 30
0.000000
  70
    32
  0
VERTEX
  8
0
  5
619
 10
32.3548
 20
102.112
 30
0.000000
  70
    32
  0
VERTEX
  8
0
  5
61A
 10
32.3472
 20
102.095
 30
0.000000
  70
    32
  0
VERTEX
  8
0
  5
61B
 10
32.3394
 20
102.079
 30
0.000000
  70
    32
  0
VERTEX
  8
0
  5
61C
 10
32.3315
 20
102.063
 30
0.000000
  70
    32
  0
VERTEX
  8
0
  5
61D
 10
32.3233
 20
102.048
 30
0.000000
  70
    32
  0
VERTEX
  8
0
  5
61E
 10
32.3151
 20
102.032
 30
0.000000
  70
    32
  0
VERTEX
  8
0
  5
61F
 10
32.3066
 20
102.016
 30
0.000000
  70
    32
  0
VERTEX
  8
0
  5
620
 10
32.2980
 20
102.001
 30
0.000000
  70
    32
  0
VERTEX
  8
0
  5
621
 10
32.2892
 20
101.985
 30
0.000000
  70
    32
  0
VERTEX
  8
0
  5
622
 10
32.2803
 20
101.970
 30
0.000000
  70
    32
  0
VERTEX
  8
0
  5
623
 10
32.2712
 20
101.955
 30
0.000000
  70
    32
  0
VERTEX
  8
0
  5
624
 10
32.2619
 20
101.940
 30
0.000000
  70
    32
  0
VERTEX
  8
0
  5
625
 10
32.2525
 20
101.925
 30
0.000000
  70
    32
  0
VERTEX
  8
0
  5
626
 10
32.2429
 20
101.910
 30
0.000000
  70
    32
  0
VERTEX
  8
0
  5
627
 10
32.2332
 20
101.896
 30
0.000000
  70
    32
  0
VERTEX
  8
0
  5
628
 10
32.2233
 20
101.881
 30
0.000000
  70
    32
  0
VERTEX
  8
0
  5
629
 10
32.2133
 20
101.867
 30
0.000000
  70
    32
  0
VERTEX
  8
0
  5
62A
 10
32.2031
 20
101.853
 30
0.000000
  70
    32
  0
VERTEX
  8
0
  5
62B
 10
32.1928
 20
101.839
 30
0.000000
  70
    32
  0
VERTEX
  8
0
  5
62C
 10
32.1823
 20
101.825
 30
0.000000
  70
    32
  0
VERTEX
  8
0
  5
62D
 10
32.1716
 20
101.811
 30
0.000000
  70
    32
  0
VERTEX
  8
0
  5
62E
 10
32.1609
 20
101.798
 30
0.000000
  70
    32
  0
VERTEX
  8
0
  5
62F
 10
32.1499
 20
101.784
 30
0.000000
  70
    32
  0
VERTEX
  8
0
  5
630
 10
32.1389
 20
101.771
 30
0.000000
  70
    32
  0
VERTEX
  8
0
  5
631
 10
32.1277
 20
101.758
 30
0.000000
  70
    32
  0
VERTEX
  8
0
  5
632
 10
32.1163
 20
101.745
 30
0.000000
  70
    32
  0
VERTEX
  8
0
  5
633
 10
32.1049
 20
101.732
 30
0.000000
  70
    32
  0
VERTEX
  8
0
  5
634
 10
32.0932
 20
101.720
 30
0.000000
  70
    32
  0
VERTEX
  8
0
  5
635
 10
32.0815
 20
101.707
 30
0.000000
  70
    32
  0
VERTEX
  8
0
  5
636
 10
32.0696
 20
101.695
 30
0.000000
  70
    32
  0
VERTEX
  8
0
  5
637
 10
32.0576
 20
101.683
 30
0.000000
  70
    32
  0
VERTEX
  8
0
  5
638
 10
32.0455
 20
101.671
 30
0.000000
  70
    32
  0
VERTEX
  8
0
  5
639
 10
32.0332
 20
101.659
 30
0.000000
  70
    32
  0
VERTEX
  8
0
  5
63A
 10
32.0208
 20
101.648
 30
0.000000
  70
    32
  0
VERTEX
  8
0
  5
63B
 10
32.0083
 20
101.636
 30
0.000000
  70
    32
  0
VERTEX
  8
0
  5
63C
 10
31.9957
 20
101.625
 30
0.000000
  70
    32
  0
VERTEX
  8
0
  5
63D
 10
31.9830
 20
101.614
 30
0.000000
  70
    32
  0
VERTEX
  8
0
  5
63E
 10
31.9701
 20
101.603
 30
0.000000
  70
    32
  0
VERTEX
  8
0
  5
63F
 10
31.9571
 20
101.592
 30
0.000000
  70
    32
  0
VERTEX
  8
0
  5
640
 10
31.9440
 20
101.582
 30
0.000000
  70
    32
  0
VERTEX
  8
0
  5
641
 10
31.9308
 20
101.572
 30
0.000000
  70
    32
  0
VERTEX
  8
0
  5
642
 10
31.9175
 20
101.561
 30
0.000000
  70
    32
  0
VERTEX
  8
0
  5
643
 10
31.9041
 20
101.551
 30
0.000000
  70
    32
  0
VERTEX
  8
0
  5
644
 10
31.8906
 20
101.542
 30
0.000000
  70
    32
  0
VERTEX
  8
0
  5
645
 10
31.8770
 20
101.532
 30
0.000000
  70
    32
  0
VERTEX
  8
0
  5
646
 10
31.8632
 20
101.523
 30
0.000000
  70
    32
  0
VERTEX
  8
0
  5
647
 10
31.8494
 20
101.514
 30
0.000000
  70
    32
  0
VERTEX
  8
0
  5
648
 10
31.8355
 20
101.505
 30
0.000000
  70
    32
  0
VERTEX
  8
0
  5
649
 10
31.8215
 20
101.496
 30
0.000000
  70
    32
  0
VERTEX
  8
0
  5
64A
 10
31.8074
 20
101.487
 30
0.000000
  70
    32
  0
VERTEX
  8
0
  5
64B
 10
31.7932
 20
101.479
 30
0.000000
  70
    32
  0
VERTEX
  8
0
  5
64C
 10
31.7789
 20
101.471
 30
0.000000
  70
    32
  0
VERTEX
  8
0
  5
64D
 10
31.7645
 20
101.463
 30
0.000000
  70
    32
  0
VERTEX
  8
0
  5
64E
 10
31.7501
 20
101.455
 30
0.000000
  70
    32
  0
VERTEX
  8
0
  5
64F
 10
31.7355
 20
101.447
 30
0.000000
  70
    32
  0
VERTEX
  8
0
  5
650
 10
31.7209
 20
101.440
 30
0.000000
  70
    32
  0
VERTEX
  8
0
  5
651
 10
31.7062
 20
101.433
 30
0.000000
  70
    32
  0
VERTEX
  8
0
  5
652
 10
31.6915
 20
101.426
 30
0.000000
  70
    32
  0
VERTEX
  8
0
  5
653
 10
31.6766
 20
101.419
 30
0.000000
  70
    32
  0
VERTEX
  8
0
  5
654
 10
31.6617
 20
101.413
 30
0.000000
  70
    32
  0
VERTEX
  8
0
  5
655
 10
31.6468
 20
101.406
 30
0.000000
  70
    32
  0
VERTEX
  8
0
  5
656
 10
31.6317
 20
101.400
 30
0.000000
  70
    32
  0
VERTEX
  8
0
  5
657
 10
31.6166
 20
101.394
 30
0.000000
  70
    32
  0
VERTEX
  8
0
  5
658
 10
31.6014
 20
101.389
 30
0.000000
  70
    32
  0
VERTEX
  8
0
  5
659
 10
31.5862
 20
101.383
 30
0.000000
  70
    32
  0
VERTEX
  8
0
  5
65A
 10
31.5709
 20
101.378
 30
0.000000
  70
    32
  0
VERTEX
  8
0
  5
65B
 10
31.5556
 20
101.373
 30
0.000000
  70
    32
  0
VERTEX
  8
0
  5
65C
 10
31.5402
 20
101.368
 30
0.000000
  70
    32
  0
VERTEX
  8
0
  5
65D
 10
31.5248
 20
101.364
 30
0.000000
  70
    32
  0
VERTEX
  8
0
  5
65E
 10
31.5093
 20
101.359
 30
0.000000
  70
    32
  0
VERTEX
  8
0
  5
65F
 10
31.4937
 20
101.355
 30
0.000000
  70
    32
  0
VERTEX
  8
0
  5
660
 10
31.4782
 20
101.351
 30
0.000000
  70
    32
  0
VERTEX
  8
0
  5
661
 10
31.4625
 20
101.348
 30
0.000000
  70
    32
  0
VERTEX
  8
0
  5
662
 10
31.4469
 20
101.344
 30
0.000000
  70
    32
  0
VERTEX
  8
0
  5
663
 10
31.4312
 20
101.341
 30
0.000000
  70
    32
  0
VERTEX
  8
0
  5
664
 10
31.4155
 20
101.338
 30
0.000000
  70
    32
  0
VERTEX
  8
0
  5
665
 10
31.3997
 20
101.335
 30
0.000000
  70
    32
  0
VERTEX
  8
0
  5
666
 10
31.3839
 20
101.332
 30
0.000000
  70
    32
  0
VERTEX
  8
0
  5
667
 10
31.3681
 20
101.330
 30
0.000000
  70
    32
  0
VERTEX
  8
0
  5
668
 10
31.3523
 20
101.328
 30
0.000000
  70
    32
  0
VERTEX
  8
0
  5
669
 10
31.3364
 20
101.326
 30
0.000000
  70
    32
  0
VERTEX
  8
0
  5
66A
 10
31.3206
 20
101.324
 30
0.000000
  70
    32
  0
VERTEX
  8
0
  5
66B
 10
31.3047
 20
101.323
 30
0.000000
  70
    32
  0
VERTEX
  8
0
  5
66C
 10
31.2888
 20
101.322
 30
0.000000
  70
    32
  0
VERTEX
  8
0
  5
66D
 10
31.2729
 20
101.321
 30
0.000000
  70
    32
  0
VERTEX
  8
0
  5
66E
 10
31.2569
 20
101.320
 30
0.000000
  70
    32
  0
VERTEX
  8
0
  5
66F
 10
31.2410
 20
101.319
 30
0.000000
  70
    32
  0
VERTEX
  8
0
  5
670
 10
31.2251
 20
101.319
 30
0.000000
  70
    32
  0
VERTEX
  8
0
  5
671
 10
31.2091
 20
101.319
 30
0.000000
  70
    32
  0
SEQEND
  8
0
  5
672
  0
LINE
  5
46A
  8
0
 10
70.012967191975946
 20
101.3187319214191
 30
0.0
 11
26.01296719197596
 21
101.3187319214191
 31
0.0
  0
POLYLINE
  5
46B
  8
0
 10
31.709119614682361
 20
101.3187319214249
 30
0.0
 66
     1
 70
     8
  0
VERTEX
  8
0
  5
673
 10
31.7091
 20
101.319
 30
0.000000
  70
    32
  0
VERTEX
  8
0
  5
674
 10
31.7251
 20
101.319
 30
0.000000
  70
    32
  0
VERTEX
  8
0
  5
675
 10
31.7410
 20
101.319
 30
0.000000
  70
    32
  0
VERTEX
  8
0
  5
676
 10
31.7569
 20
101.320
 30
0.000000
  70
    32
  0
VERTEX
  8
0
  5
677
 10
31.7729
 20
101.321
 30
0.000000
  70
    32
  0
VERTEX
  8
0
  5
678
 10
31.7888
 20
101.322
 30
0.000000
  70
    32
  0
VERTEX
  8
0
  5
679
 10
31.8047
 20
101.323
 30
0.000000
  70
    32
  0
VERTEX
  8
0
  5
67A
 10
31.8206
 20
101.324
 30
0.000000
  70
    32
  0
VERTEX
  8
0
  5
67B
 10
31.8364
 20
101.326
 30
0.000000
  70
    32
  0
VERTEX
  8
0
  5
67C
 10
31.8523
 20
101.328
 30
0.000000
  70
    32
  0
VERTEX
  8
0
  5
67D
 10
31.8681
 20
101.330
 30
0.000000
  70
    32
  0
VERTEX
  8
0
  5
67E
 10
31.8839
 20
101.332
 30
0.000000
  70
    32
  0
VERTEX
  8
0
  5
67F
 10
31.8997
 20
101.335
 30
0.000000
  70
    32
  0
VERTEX
  8
0
  5
680
 10
31.9155
 20
101.338
 30
0.000000
  70
    32
  0
VERTEX
  8
0
  5
681
 10
31.9312
 20
101.341
 30
0.000000
  70
    32
  0
VERTEX
  8
0
  5
682
 10
31.9469
 20
101.344
 30
0.000000
  70
    32
  0
VERTEX
  8
0
  5
683
 10
31.9625
 20
101.348
 30
0.000000
  70
    32
  0
VERTEX
  8
0
  5
684
 10
31.9782
 20
101.351
 30
0.000000
  70
    32
  0
VERTEX
  8
0
  5
685
 10
31.9937
 20
101.355
 30
0.000000
  70
    32
  0
VERTEX
  8
0
  5
686
 10
32.0093
 20
101.359
 30
0.000000
  70
    32
  0
VERTEX
  8
0
  5
687
 10
32.0248
 20
101.364
 30
0.000000
  70
    32
  0
VERTEX
  8
0
  5
688
 10
32.0402
 20
101.368
 30
0.000000
  70
    32
  0
VERTEX
  8
0
  5
689
 10
32.0556
 20
101.373
 30
0.000000
  70
    32
  0
VERTEX
  8
0
  5
68A
 10
32.0709
 20
101.378
 30
0.000000
  70
    32
  0
VERTEX
  8
0
  5
68B
 10
32.0862
 20
101.383
 30
0.000000
  70
    32
  0
VERTEX
  8
0
  5
68C
 10
32.1014
 20
101.389
 30
0.000000
  70
    32
  0
VERTEX
  8
0
  5
68D
 10
32.1166
 20
101.394
 30
0.000000
  70
    32
  0
VERTEX
  8
0
  5
68E
 10
32.1317
 20
101.400
 30
0.000000
  70
    32
  0
VERTEX
  8
0
  5
68F
 10
32.1468
 20
101.406
 30
0.000000
  70
    32
  0
VERTEX
  8
0
  5
690
 10
32.1617
 20
101.413
 30
0.000000
  70
    32
  0
VERTEX
  8
0
  5
691
 10
32.1766
 20
101.419
 30
0.000000
  70
    32
  0
VERTEX
  8
0
  5
692
 10
32.1915
 20
101.426
 30
0.000000
  70
    32
  0
VERTEX
  8
0
  5
693
 10
32.2062
 20
101.433
 30
0.000000
  70
    32
  0
VERTEX
  8
0
  5
694
 10
32.2209
 20
101.440
 30
0.000000
  70
    32
  0
VERTEX
  8
0
  5
695
 10
32.2355
 20
101.447
 30
0.000000
  70
    32
  0
VERTEX
  8
0
  5
696
 10
32.2501
 20
101.455
 30
0.000000
  70
    32
  0
VERTEX
  8
0
  5
697
 10
32.2645
 20
101.463
 30
0.000000
  70
    32
  0
VERTEX
  8
0
  5
698
 10
32.2789
 20
101.471
 30
0.000000
  70
    32
  0
VERTEX
  8
0
  5
699
 10
32.2932
 20
101.479
 30
0.000000
  70
    32
  0
VERTEX
  8
0
  5
69A
 10
32.3074
 20
101.487
 30
0.000000
  70
    32
  0
VERTEX
  8
0
  5
69B
 10
32.3215
 20
101.496
 30
0.000000
  70
    32
  0
VERTEX
  8
0
  5
69C
 10
32.3355
 20
101.505
 30
0.000000
  70
    32
  0
VERTEX
  8
0
  5
69D
 10
32.3494
 20
101.514
 30
0.000000
  70
    32
  0
VERTEX
  8
0
  5
69E
 10
32.3632
 20
101.523
 30
0.000000
  70
    32
  0
VERTEX
  8
0
  5
69F
 10
32.3770
 20
101.532
 30
0.000000
  70
    32
  0
VERTEX
  8
0
  5
6A0
 10
32.3906
 20
101.542
 30
0.000000
  70
    32
  0
VERTEX
  8
0
  5
6A1
 10
32.4041
 20
101.551
 30
0.000000
  70
    32
  0
VERTEX
  8
0
  5
6A2
 10
32.4175
 20
101.561
 30
0.000000
  70
    32
  0
VERTEX
  8
0
  5
6A3
 10
32.4308
 20
101.572
 30
0.000000
  70
    32
  0
VERTEX
  8
0
  5
6A4
 10
32.4440
 20
101.582
 30
0.000000
  70
    32
  0
VERTEX
  8
0
  5
6A5
 10
32.4571
 20
101.592
 30
0.000000
  70
    32
  0
VERTEX
  8
0
  5
6A6
 10
32.4701
 20
101.603
 30
0.000000
  70
    32
  0
VERTEX
  8
0
  5
6A7
 10
32.4830
 20
101.614
 30
0.000000
  70
    32
  0
VERTEX
  8
0
  5
6A8
 10
32.4957
 20
101.625
 30
0.000000
  70
    32
  0
VERTEX
  8
0
  5
6A9
 10
32.5083
 20
101.636
 30
0.000000
  70
    32
  0
VERTEX
  8
0
  5
6AA
 10
32.5208
 20
101.648
 30
0.000000
  70
    32
  0
VERTEX
  8
0
  5
6AB
 10
32.5332
 20
101.659
 30
0.000000
  70
    32
  0
VERTEX
  8
0
  5
6AC
 10
32.5455
 20
101.671
 30
0.000000
  70
    32
  0
VERTEX
  8
0
  5
6AD
 10
32.5576
 20
101.683
 30
0.000000
  70
    32
  0
VERTEX
  8
0
  5
6AE
 10
32.5696
 20
101.695
 30
0.000000
  70
    32
  0
VERTEX
  8
0
  5
6AF
 10
32.5815
 20
101.707
 30
0.000000
  70
    32
  0
VERTEX
  8
0
  5
6B0
 10
32.5932
 20
101.720
 30
0.000000
  70
    32
  0
VERTEX
  8
0
  5
6B1
 10
32.6049
 20
101.732
 30
0.000000
  70
    32
  0
VERTEX
  8
0
  5
6B2
 10
32.6163
 20
101.745
 30
0.000000
  70
    32
  0
VERTEX
  8
0
  5
6B3
 10
32.6277
 20
101.758
 30
0.000000
  70
    32
  0
VERTEX
  8
0
  5
6B4
 10
32.6389
 20
101.771
 30
0.000000
  70
    32
  0
VERTEX
  8
0
  5
6B5
 10
32.6499
 20
101.784
 30
0.000000
  70
    32
  0
VERTEX
  8
0
  5
6B6
 10
32.6609
 20
101.798
 30
0.000000
  70
    32
  0
VERTEX
  8
0
  5
6B7
 10
32.6716
 20
101.811
 30
0.000000
  70
    32
  0
VERTEX
  8
0
  5
6B8
 10
32.6823
 20
101.825
 30
0.000000
  70
    32
  0
VERTEX
  8
0
  5
6B9
 10
32.6928
 20
101.839
 30
0.000000
  70
    32
  0
VERTEX
  8
0
  5
6BA
 10
32.7031
 20
101.853
 30
0.000000
  70
    32
  0
VERTEX
  8
0
  5
6BB
 10
32.7133
 20
101.867
 30
0.000000
  70
    32
  0
VERTEX
  8
0
  5
6BC
 10
32.7233
 20
101.881
 30
0.000000
  70
    32
  0
VERTEX
  8
0
  5
6BD
 10
32.7332
 20
101.896
 30
0.000000
  70
    32
  0
VERTEX
  8
0
  5
6BE
 10
32.7429
 20
101.910
 30
0.000000
  70
    32
  0
VERTEX
  8
0
  5
6BF
 10
32.7525
 20
101.925
 30
0.000000
  70
    32
  0
VERTEX
  8
0
  5
6C0
 10
32.7619
 20
101.940
 30
0.000000
  70
    32
  0
VERTEX
  8
0
  5
6C1
 10
32.7712
 20
101.955
 30
0.000000
  70
    32
  0
VERTEX
  8
0
  5
6C2
 10
32.7803
 20
101.970
 30
0.000000
  70
    32
  0
VERTEX
  8
0
  5
6C3
 10
32.7892
 20
101.985
 30
0.000000
  70
    32
  0
VERTEX
  8
0
  5
6C4
 10
32.7980
 20
102.001
 30
0.000000
  70
    32
  0
VERTEX
  8
0
  5
6C5
 10
32.8066
 20
102.016
 30
0.000000
  70
    32
  0
VERTEX
  8
0
  5
6C6
 10
32.8151
 20
102.032
 30
0.000000
  70
    32
  0
VERTEX
  8
0
  5
6C7
 10
32.8233
 20
102.048
 30
0.000000
  70
    32
  0
VERTEX
  8
0
  5
6C8
 10
32.8315
 20
102.063
 30
0.000000
  70
    32
  0
VERTEX
  8
0
  5
6C9
 10
32.8394
 20
102.079
 30
0.000000
  70
    32
  0
VERTEX
  8
0
  5
6CA
 10
32.8472
 20
102.095
 30
0.000000
  70
    32
  0
VERTEX
  8
0
  5
6CB
 10
32.8548
 20
102.112
 30
0.000000
  70
    32
  0
VERTEX
  8
0
  5
6CC
 10
32.8622
 20
102.128
 30
0.000000
  70
    32
  0
VERTEX
  8
0
  5
6CD
 10
32.8695
 20
102.144
 30
0.000000
  70
    32
  0
VERTEX
  8
0
  5
6CE
 10
32.8765
 20
102.161
 30
0.000000
  70
    32
  0
VERTEX
  8
0
  5
6CF
 10
32.8834
 20
102.177
 30
0.000000
  70
    32
  0
VERTEX
  8
0
  5
6D0
 10
32.8902
 20
102.194
 30
0.000000
  70
    32
  0
VERTEX
  8
0
  5
6D1
 10
32.8967
 20
102.211
 30
0.000000
  70
    32
  0
VERTEX
  8
0
  5
6D2
 10
32.9031
 20
102.228
 30
0.000000
  70
    32
  0
VERTEX
  8
0
  5
6D3
 10
32.9093
 20
102.245
 30
0.000000
  70
    32
  0
VERTEX
  8
0
  5
6D4
 10
32.9153
 20
102.262
 30
0.000000
  70
    32
  0
VERTEX
  8
0
  5
6D5
 10
32.9211
 20
102.279
 30
0.000000
  70
    32
  0
VERTEX
  8
0
  5
6D6
 10
32.9268
 20
102.296
 30
0.000000
  70
    32
  0
VERTEX
  8
0
  5
6D7
 10
32.9322
 20
102.313
 30
0.000000
  70
    32
  0
VERTEX
  8
0
  5
6D8
 10
32.9375
 20
102.331
 30
0.000000
  70
    32
  0
VERTEX
  8
0
  5
6D9
 10
32.9426
 20
102.348
 30
0.000000
  70
    32
  0
VERTEX
  8
0
  5
6DA
 10
32.9475
 20
102.366
 30
0.000000
  70
    32
  0
VERTEX
  8
0
  5
6DB
 10
32.9522
 20
102.383
 30
0.000000
  70
    32
  0
VERTEX
  8
0
  5
6DC
 10
32.9568
 20
102.401
 30
0.000000
  70
    32
  0
VERTEX
  8
0
  5
6DD
 10
32.9611
 20
102.419
 30
0.000000
  70
    32
  0
VERTEX
  8
0
  5
6DE
 10
32.9653
 20
102.436
 30
0.000000
  70
    32
  0
VERTEX
  8
0
  5
6DF
 10
32.9692
 20
102.454
 30
0.000000
  70
    32
  0
VERTEX
  8
0
  5
6E0
 10
32.9730
 20
102.472
 30
0.000000
  70
    32
  0
VERTEX
  8
0
  5
6E1
 10
32.9766
 20
102.490
 30
0.000000
  70
    32
  0
VERTEX
  8
0
  5
6E2
 10
32.9800
 20
102.508
 30
0.000000
  70
    32
  0
VERTEX
  8
0
  5
6E3
 10
32.9832
 20
102.526
 30
0.000000
  70
    32
  0
VERTEX
  8
0
  5
6E4
 10
32.9862
 20
102.544
 30
0.000000
  70
    32
  0
VERTEX
  8
0
  5
6E5
 10
32.9890
 20
102.562
 30
0.000000
  70
    32
  0
VERTEX
  8
0
  5
6E6
 10
32.9917
 20
102.580
 30
0.000000
  70
    32
  0
VERTEX
  8
0
  5
6E7
 10
32.9941
 20
102.599
 30
0.000000
  70
    32
  0
VERTEX
  8
0
  5
6E8
 10
32.9963
 20
102.617
 30
0.000000
  70
    32
  0
VERTEX
  8
0
  5
6E9
 10
32.9984
 20
102.635
 30
0.000000
  70
    32
  0
VERTEX
  8
0
  5
6EA
 10
33.0002
 20
102.653
 30
0.000000
  70
    32
  0
VERTEX
  8
0
  5
6EB
 10
33.0019
 20
102.672
 30
0.000000
  70
    32
  0
VERTEX
  8
0
  5
6EC
 10
33.0034
 20
102.690
 30
0.000000
  70
    32
  0
VERTEX
  8
0
  5
6ED
 10
33.0046
 20
102.708
 30
0.000000
  70
    32
  0
VERTEX
  8
0
  5
6EE
 10
33.0057
 20
102.727
 30
0.000000
  70
    32
  0
VERTEX
  8
0
  5
6EF
 10
33.0066
 20
102.745
 30
0.000000
  70
    32
  0
VERTEX
  8
0
  5
6F0
 10
33.0073
 20
102.764
 30
0.000000
  70
    32
  0
VERTEX
  8
0
  5
6F1
 10
33.0078
 20
102.782
 30
0.000000
  70
    32
  0
VERTEX
  8
0
  5
6F2
 10
33.0081
 20
102.800
 30
0.000000
  70
    32
  0
VERTEX
  8
0
  5
6F3
 10
33.0082
 20
102.819
 30
0.000000
  70
    32
  0
SEQEND
  8
0
  5
6F4
  0
POLYLINE
  5
46C
  8
0
 10
33.008157720359272
 20
137.81873192142513
 30
0.0
 66
     1
 70
     8
  0
VERTEX
  8
0
  5
6F5
 10
33.0082
 20
137.819
 30
0.000000
  70
    32
  0
VERTEX
  8
0
  5
6F6
 10
33.0081
 20
137.837
 30
0.000000
  70
    32
  0
VERTEX
  8
0
  5
6F7
 10
33.0078
 20
137.856
 30
0.000000
  70
    32
  0
VERTEX
  8
0
  5
6F8
 10
33.0073
 20
137.874
 30
0.000000
  70
    32
  0
VERTEX
  8
0
  5
6F9
 10
33.0066
 20
137.892
 30
0.000000
  70
    32
  0
VERTEX
  8
0
  5
6FA
 10
33.0057
 20
137.911
 30
0.000000
  70
    32
  0
VERTEX
  8
0
  5
6FB
 10
33.0046
 20
137.929
 30
0.000000
  70
    32
  0
VERTEX
  8
0
  5
6FC
 10
33.0034
 20
137.947
 30
0.000000
  70
    32
  0
VERTEX
  8
0
  5
6FD
 10
33.0019
 20
137.966
 30
0.000000
  70
    32
  0
VERTEX
  8
0
  5
6FE
 10
33.0002
 20
137.984
 30
0.000000
  70
    32
  0
VERTEX
  8
0
  5
6FF
 10
32.9984
 20
138.002
 30
0.000000
  70
    32
  0
VERTEX
  8
0
  5
700
 10
32.9963
 20
138.021
 30
0.000000
  70
    32
  0
VERTEX
  8
0
  5
701
 10
32.9941
 20
138.039
 30
0.000000
  70
    32
  0
VERTEX
  8
0
  5
702
 10
32.9917
 20
138.057
 30
0.000000
  70
    32
  0
VERTEX
  8
0
  5
703
 10
32.9890
 20
138.075
 30
0.000000
  70
    32
  0
VERTEX
  8
0
  5
704
 10
32.9862
 20
138.093
 30
0.000000
  70
    32
  0
VERTEX
  8
0
  5
705
 10
32.9832
 20
138.111
 30
0.000000
  70
    32
  0
VERTEX
  8
0
  5
706
 10
32.9800
 20
138.129
 30
0.000000
  70
    32
  0
VERTEX
  8
0
  5
707
 10
32.9766
 20
138.147
 30
0.000000
  70
    32
  0
VERTEX
  8
0
  5
708
 10
32.9730
 20
138.165
 30
0.000000
  70
    32
  0
VERTEX
  8
0
  5
709
 10
32.9692
 20
138.183
 30
0.000000
  70
    32
  0
VERTEX
  8
0
  5
70A
 10
32.9653
 20
138.201
 30
0.000000
  70
    32
  0
VERTEX
  8
0
  5
70B
 10
32.9611
 20
138.219
 30
0.000000
  70
    32
  0
VERTEX
  8
0
  5
70C
 10
32.9568
 20
138.237
 30
0.000000
  70
    32
  0
VERTEX
  8
0
  5
70D
 10
32.9522
 20
138.254
 30
0.000000
  70
    32
  0
VERTEX
  8
0
  5
70E
 10
32.9475
 20
138.272
 30
0.000000
  70
    32
  0
VERTEX
  8
0
  5
70F
 10
32.9426
 20
138.289
 30
0.000000
  70
    32
  0
VERTEX
  8
0
  5
710
 10
32.9375
 20
138.307
 30
0.000000
  70
    32
  0
VERTEX
  8
0
  5
711
 10
32.9322
 20
138.324
 30
0.000000
  70
    32
  0
VERTEX
  8
0
  5
712
 10
32.9268
 20
138.341
 30
0.000000
  70
    32
  0
VERTEX
  8
0
  5
713
 10
32.9211
 20
138.359
 30
0.000000
  70
    32
  0
VERTEX
  8
0
  5
714
 10
32.9153
 20
138.376
 30
0.000000
  70
    32
  0
VERTEX
  8
0
  5
715
 10
32.9093
 20
138.393
 30
0.000000
  70
    32
  0
VERTEX
  8
0
  5
716
 10
32.9031
 20
138.410
 30
0.000000
  70
    32
  0
VERTEX
  8
0
  5
717
 10
32.8967
 20
138.427
 30
0.000000
  70
    32
  0
VERTEX
  8
0
  5
718
 10
32.8902
 20
138.443
 30
0.000000
  70
    32
  0
VERTEX
  8
0
  5
719
 10
32.8834
 20
138.460
 30
0.000000
  70
    32
  0
VERTEX
  8
0
  5
71A
 10
32.8765
 20
138.477
 30
0.000000
  70
    32
  0
VERTEX
  8
0
  5
71B
 10
32.8695
 20
138.493
 30
0.000000
  70
    32
  0
VERTEX
  8
0
  5
71C
 10
32.8622
 20
138.510
 30
0.000000
  70
    32
  0
VERTEX
  8
0
  5
71D
 10
32.8548
 20
138.526
 30
0.000000
  70
    32
  0
VERTEX
  8
0
  5
71E
 10
32.8472
 20
138.542
 30
0.000000
  70
    32
  0
VERTEX
  8
0
  5
71F
 10
32.8394
 20
138.558
 30
0.000000
  70
    32
  0
VERTEX
  8
0
  5
720
 10
32.8315
 20
138.574
 30
0.000000
  70
    32
  0
VERTEX
  8
0
  5
721
 10
32.8233
 20
138.590
 30
0.000000
  70
    32
  0
VERTEX
  8
0
  5
722
 10
32.8151
 20
138.606
 30
0.000000
  70
    32
  0
VERTEX
  8
0
  5
723
 10
32.8066
 20
138.621
 30
0.000000
  70
    32
  0
VERTEX
  8
0
  5
724
 10
32.7980
 20
138.637
 30
0.000000
  70
    32
  0
VERTEX
  8
0
  5
725
 10
32.7892
 20
138.652
 30
0.000000
  70
    32
  0
VERTEX
  8
0
  5
726
 10
32.7803
 20
138.667
 30
0.000000
  70
    32
  0
VERTEX
  8
0
  5
727
 10
32.7712
 20
138.682
 30
0.000000
  70
    32
  0
VERTEX
  8
0
  5
728
 10
32.7619
 20
138.697
 30
0.000000
  70
    32
  0
VERTEX
  8
0
  5
729
 10
32.7525
 20
138.712
 30
0.000000
  70
    32
  0
VERTEX
  8
0
  5
72A
 10
32.7429
 20
138.727
 30
0.000000
  70
    32
  0
VERTEX
  8
0
  5
72B
 10
32.7332
 20
138.742
 30
0.000000
  70
    32
  0
VERTEX
  8
0
  5
72C
 10
32.7233
 20
138.756
 30
0.000000
  70
    32
  0
VERTEX
  8
0
  5
72D
 10
32.7133
 20
138.770
 30
0.000000
  70
    32
  0
VERTEX
  8
0
  5
72E
 10
32.7031
 20
138.784
 30
0.000000
  70
    32
  0
VERTEX
  8
0
  5
72F
 10
32.6928
 20
138.798
 30
0.000000
  70
    32
  0
VERTEX
  8
0
  5
730
 10
32.6823
 20
138.812
 30
0.000000
  70
    32
  0
VERTEX
  8
0
  5
731
 10
32.6716
 20
138.826
 30
0.000000
  70
    32
  0
VERTEX
  8
0
  5
732
 10
32.6609
 20
138.840
 30
0.000000
  70
    32
  0
VERTEX
  8
0
  5
733
 10
32.6499
 20
138.853
 30
0.000000
  70
    32
  0
VERTEX
  8
0
  5
734
 10
32.6389
 20
138.866
 30
0.000000
  70
    32
  0
VERTEX
  8
0
  5
735
 10
32.6277
 20
138.879
 30
0.000000
  70
    32
  0
VERTEX
  8
0
  5
736
 10
32.6163
 20
138.892
 30
0.000000
  70
    32
  0
VERTEX
  8
0
  5
737
 10
32.6049
 20
138.905
 30
0.000000
  70
    32
  0
VERTEX
  8
0
  5
738
 10
32.5932
 20
138.918
 30
0.000000
  70
    32
  0
VERTEX
  8
0
  5
739
 10
32.5815
 20
138.930
 30
0.000000
  70
    32
  0
VERTEX
  8
0
  5
73A
 10
32.5696
 20
138.942
 30
0.000000
  70
    32
  0
VERTEX
  8
0
  5
73B
 10
32.5576
 20
138.955
 30
0.000000
  70
    32
  0
VERTEX
  8
0
  5
73C
 10
32.5455
 20
138.966
 30
0.000000
  70
    32
  0
VERTEX
  8
0
  5
73D
 10
32.5332
 20
138.978
 30
0.000000
  70
    32
  0
VERTEX
  8
0
  5
73E
 10
32.5208
 20
138.990
 30
0.000000
  70
    32
  0
VERTEX
  8
0
  5
73F
 10
32.5083
 20
139.001
 30
0.000000
  70
    32
  0
VERTEX
  8
0
  5
740
 10
32.4957
 20
139.012
 30
0.000000
  70
    32
  0
VERTEX
  8
0
  5
741
 10
32.4830
 20
139.024
 30
0.000000
  70
    32
  0
VERTEX
  8
0
  5
742
 10
32.4701
 20
139.034
 30
0.000000
  70
    32
  0
VERTEX
  8
0
  5
743
 10
32.4571
 20
139.045
 30
0.000000
  70
    32
  0
VERTEX
  8
0
  5
744
 10
32.4440
 20
139.056
 30
0.000000
  70
    32
  0
VERTEX
  8
0
  5
745
 10
32.4308
 20
139.066
 30
0.000000
  70
    32
  0
VERTEX
  8
0
  5
746
 10
32.4175
 20
139.076
 30
0.000000
  70
    32
  0
VERTEX
  8
0
  5
747
 10
32.4041
 20
139.086
 30
0.000000
  70
    32
  0
VERTEX
  8
0
  5
748
 10
32.3906
 20
139.096
 30
0.000000
  70
    32
  0
VERTEX
  8
0
  5
749
 10
32.3770
 20
139.105
 30
0.000000
  70
    32
  0
VERTEX
  8
0
  5
74A
 10
32.3632
 20
139.115
 30
0.000000
  70
    32
  0
VERTEX
  8
0
  5
74B
 10
32.3494
 20
139.124
 30
0.000000
  70
    32
  0
VERTEX
  8
0
  5
74C
 10
32.3355
 20
139.133
 30
0.000000
  70
    32
  0
VERTEX
  8
0
  5
74D
 10
32.3215
 20
139.142
 30
0.000000
  70
    32
  0
VERTEX
  8
0
  5
74E
 10
32.3074
 20
139.150
 30
0.000000
  70
    32
  0
VERTEX
  8
0
  5
74F
 10
32.2932
 20
139.159
 30
0.000000
  70
    32
  0
VERTEX
  8
0
  5
750
 10
32.2789
 20
139.167
 30
0.000000
  70
    32
  0
VERTEX
  8
0
  5
751
 10
32.2645
 20
139.175
 30
0.000000
  70
    32
  0
VERTEX
  8
0
  5
752
 10
32.2501
 20
139.182
 30
0.000000
  70
    32
  0
VERTEX
  8
0
  5
753
 10
32.2355
 20
139.190
 30
0.000000
  70
    32
  0
VERTEX
  8
0
  5
754
 10
32.2209
 20
139.197
 30
0.000000
  70
    32
  0
VERTEX
  8
0
  5
755
 10
32.2062
 20
139.205
 30
0.000000
  70
    32
  0
VERTEX
  8
0
  5
756
 10
32.1915
 20
139.211
 30
0.000000
  70
    32
  0
VERTEX
  8
0
  5
757
 10
32.1766
 20
139.218
 30
0.000000
  70
    32
  0
VERTEX
  8
0
  5
758
 10
32.1617
 20
139.225
 30
0.000000
  70
    32
  0
VERTEX
  8
0
  5
759
 10
32.1468
 20
139.231
 30
0.000000
  70
    32
  0
VERTEX
  8
0
  5
75A
 10
32.1317
 20
139.237
 30
0.000000
  70
    32
  0
VERTEX
  8
0
  5
75B
 10
32.1166
 20
139.243
 30
0.000000
  70
    32
  0
VERTEX
  8
0
  5
75C
 10
32.1014
 20
139.249
 30
0.000000
  70
    32
  0
VERTEX
  8
0
  5
75D
 10
32.0862
 20
139.254
 30
0.000000
  70
    32
  0
VERTEX
  8
0
  5
75E
 10
32.0709
 20
139.259
 30
0.000000
  70
    32
  0
VERTEX
  8
0
  5
75F
 10
32.0556
 20
139.264
 30
0.000000
  70
    32
  0
VERTEX
  8
0
  5
760
 10
32.0402
 20
139.269
 30
0.000000
  70
    32
  0
VERTEX
  8
0
  5
761
 10
32.0248
 20
139.274
 30
0.000000
  70
    32
  0
VERTEX
  8
0
  5
762
 10
32.0093
 20
139.278
 30
0.000000
  70
    32
  0
VERTEX
  8
0
  5
763
 10
31.9937
 20
139.282
 30
0.000000
  70
    32
  0
VERTEX
  8
0
  5
764
 10
31.9782
 20
139.286
 30
0.000000
  70
    32
  0
VERTEX
  8
0
  5
765
 10
31.9625
 20
139.290
 30
0.000000
  70
    32
  0
VERTEX
  8
0
  5
766
 10
31.9469
 20
139.293
 30
0.000000
  70
    32
  0
VERTEX
  8
0
  5
767
 10
31.9312
 20
139.297
 30
0.000000
  70
    32
  0
VERTEX
  8
0
  5
768
 10
31.9155
 20
139.300
 30
0.000000
  70
    32
  0
VERTEX
  8
0
  5
769
 10
31.8997
 20
139.302
 30
0.000000
  70
    32
  0
VERTEX
  8
0
  5
76A
 10
31.8839
 20
139.305
 30
0.000000
  70
    32
  0
VERTEX
  8
0
  5
76B
 10
31.8681
 20
139.307
 30
0.000000
  70
    32
  0
VERTEX
  8
0
  5
76C
 10
31.8523
 20
139.310
 30
0.000000
  70
    32
  0
VERTEX
  8
0
  5
76D
 10
31.8364
 20
139.312
 30
0.000000
  70
    32
  0
VERTEX
  8
0
  5
76E
 10
31.8206
 20
139.313
 30
0.000000
  70
    32
  0
VERTEX
  8
0
  5
76F
 10
31.8047
 20
139.315
 30
0.000000
  70
    32
  0
VERTEX
  8
0
  5
770
 10
31.7888
 20
139.316
 30
0.000000
  70
    32
  0
VERTEX
  8
0
  5
771
 10
31.7729
 20
139.317
 30
0.000000
  70
    32
  0
VERTEX
  8
0
  5
772
 10
31.7569
 20
139.318
 30
0.000000
  70
    32
  0
VERTEX
  8
0
  5
773
 10
31.7410
 20
139.318
 30
0.000000
  70
    32
  0
VERTEX
  8
0
  5
774
 10
31.7251
 20
139.319
 30
0.000000
  70
    32
  0
VERTEX
  8
0
  5
775
 10
31.7091
 20
139.319
 30
0.000000
  70
    32
  0
SEQEND
  8
0
  5
776
  0
POLYLINE
  5
46D
  8
0
 10
31.209119614682869
 20
139.31873192142521
 30
0.0
 66
     1
 70
     8
  0
VERTEX
  8
0
  5
777
 10
31.2091
 20
139.319
 30
0.000000
  70
    32
  0
VERTEX
  8
0
  5
778
 10
31.2251
 20
139.319
 30
0.000000
  70
    32
  0
VERTEX
  8
0
  5
779
 10
31.2410
 20
139.318
 30
0.000000
  70
    32
  0
VERTEX
  8
0
  5
77A
 10
31.2569
 20
139.318
 30
0.000000
  70
    32
  0
VERTEX
  8
0
  5
77B
 10
31.2729
 20
139.317
 30
0.000000
  70
    32
  0
VERTEX
  8
0
  5
77C
 10
31.2888
 20
139.316
 30
0.000000
  70
    32
  0
VERTEX
  8
0
  5
77D
 10
31.3047
 20
139.315
 30
0.000000
  70
    32
  0
VERTEX
  8
0
  5
77E
 10
31.3206
 20
139.313
 30
0.000000
  70
    32
  0
VERTEX
  8
0
  5
77F
 10
31.3364
 20
139.312
 30
0.000000
  70
    32
  0
VERTEX
  8
0
  5
780
 10
31.3523
 20
139.310
 30
0.000000
  70
    32
  0
VERTEX
  8
0
  5
781
 10
31.3681
 20
139.307
 30
0.000000
  70
    32
  0
VERTEX
  8
0
  5
782
 10
31.3839
 20
139.305
 30
0.000000
  70
    32
  0
VERTEX
  8
0
  5
783
 10
31.3997
 20
139.302
 30
0.000000
  70
    32
  0
VERTEX
  8
0
  5
784
 10
31.4155
 20
139.300
 30
0.000000
  70
    32
  0
VERTEX
  8
0
  5
785
 10
31.4312
 20
139.297
 30
0.000000
  70
    32
  0
VERTEX
  8
0
  5
786
 10
31.4469
 20
139.293
 30
0.000000
  70
    32
  0
VERTEX
  8
0
  5
787
 10
31.4625
 20
139.290
 30
0.000000
  70
    32
  0
VERTEX
  8
0
  5
788
 10
31.4782
 20
139.286
 30
0.000000
  70
    32
  0
VERTEX
  8
0
  5
789
 10
31.4937
 20
139.282
 30
0.000000
  70
    32
  0
VERTEX
  8
0
  5
78A
 10
31.5093
 20
139.278
 30
0.000000
  70
    32
  0
VERTEX
  8
0
  5
78B
 10
31.5248
 20
139.274
 30
0.000000
  70
    32
  0
VERTEX
  8
0
  5
78C
 10
31.5402
 20
139.269
 30
0.000000
  70
    32
  0
VERTEX
  8
0
  5
78D
 10
31.5556
 20
139.264
 30
0.000000
  70
    32
  0
VERTEX
  8
0
  5
78E
 10
31.5709
 20
139.259
 30
0.000000
  70
    32
  0
VERTEX
  8
0
  5
78F
 10
31.5862
 20
139.254
 30
0.000000
  70
    32
  0
VERTEX
  8
0
  5
790
 10
31.6014
 20
139.249
 30
0.000000
  70
    32
  0
VERTEX
  8
0
  5
791
 10
31.6166
 20
139.243
 30
0.000000
  70
    32
  0
VERTEX
  8
0
  5
792
 10
31.6317
 20
139.237
 30
0.000000
  70
    32
  0
VERTEX
  8
0
  5
793
 10
31.6468
 20
139.231
 30
0.000000
  70
    32
  0
VERTEX
  8
0
  5
794
 10
31.6617
 20
139.225
 30
0.000000
  70
    32
  0
VERTEX
  8
0
  5
795
 10
31.6766
 20
139.218
 30
0.000000
  70
    32
  0
VERTEX
  8
0
  5
796
 10
31.6915
 20
139.211
 30
0.000000
  70
    32
  0
VERTEX
  8
0
  5
797
 10
31.7062
 20
139.205
 30
0.000000
  70
    32
  0
VERTEX
  8
0
  5
798
 10
31.7209
 20
139.197
 30
0.000000
  70
    32
  0
VERTEX
  8
0
  5
799
 10
31.7355
 20
139.190
 30
0.000000
  70
    32
  0
VERTEX
  8
0
  5
79A
 10
31.7501
 20
139.182
 30
0.000000
  70
    32
  0
VERTEX
  8
0
  5
79B
 10
31.7645
 20
139.175
 30
0.000000
  70
    32
  0
VERTEX
  8
0
  5
79C
 10
31.7789
 20
139.167
 30
0.000000
  70
    32
  0
VERTEX
  8
0
  5
79D
 10
31.7932
 20
139.159
 30
0.000000
  70
    32
  0
VERTEX
  8
0
  5
79E
 10
31.8074
 20
139.150
 30
0.000000
  70
    32
  0
VERTEX
  8
0
  5
79F
 10
31.8215
 20
139.142
 30
0.000000
  70
    32
  0
VERTEX
  8
0
  5
7A0
 10
31.8355
 20
139.133
 30
0.000000
  70
    32
  0
VERTEX
  8
0
  5
7A1
 10
31.8494
 20
139.124
 30
0.000000
  70
    32
  0
VERTEX
  8
0
  5
7A2
 10
31.8632
 20
139.115
 30
0.000000
  70
    32
  0
VERTEX
  8
0
  5
7A3
 10
31.8770
 20
139.105
 30
0.000000
  70
    32
  0
VERTEX
  8
0
  5
7A4
 10
31.8906
 20
139.096
 30
0.000000
  70
    32
  0
VERTEX
  8
0
  5
7A5
 10
31.9041
 20
139.086
 30
0.000000
  70
    32
  0
VERTEX
  8
0
  5
7A6
 10
31.9175
 20
139.076
 30
0.000000
  70
    32
  0
VERTEX
  8
0
  5
7A7
 10
31.9308
 20
139.066
 30
0.000000
  70
    32
  0
VERTEX
  8
0
  5
7A8
 10
31.9440
 20
139.056
 30
0.000000
  70
    32
  0
VERTEX
  8
0
  5
7A9
 10
31.9571
 20
139.045
 30
0.000000
  70
    32
  0
VERTEX
  8
0
  5
7AA
 10
31.9701
 20
139.034
 30
0.000000
  70
    32
  0
VERTEX
  8
0
  5
7AB
 10
31.9830
 20
139.024
 30
0.000000
  70
    32
  0
VERTEX
  8
0
  5
7AC
 10
31.9957
 20
139.012
 30
0.000000
  70
    32
  0
VERTEX
  8
0
  5
7AD
 10
32.0083
 20
139.001
 30
0.000000
  70
    32
  0
VERTEX
  8
0
  5
7AE
 10
32.0208
 20
138.990
 30
0.000000
  70
    32
  0
VERTEX
  8
0
  5
7AF
 10
32.0332
 20
138.978
 30
0.000000
  70
    32
  0
VERTEX
  8
0
  5
7B0
 10
32.0455
 20
138.966
 30
0.000000
  70
    32
  0
VERTEX
  8
0
  5
7B1
 10
32.0576
 20
138.955
 30
0.000000
  70
    32
  0
VERTEX
  8
0
  5
7B2
 10
32.0696
 20
138.942
 30
0.000000
  70
    32
  0
VERTEX
  8
0
  5
7B3
 10
32.0815
 20
138.930
 30
0.000000
  70
    32
  0
VERTEX
  8
0
  5
7B4
 10
32.0932
 20
138.918
 30
0.000000
  70
    32
  0
VERTEX
  8
0
  5
7B5
 10
32.1049
 20
138.905
 30
0.000000
  70
    32
  0
VERTEX
  8
0
  5
7B6
 10
32.1163
 20
138.892
 30
0.000000
  70
    32
  0
VERTEX
  8
0
  5
7B7
 10
32.1277
 20
138.879
 30
0.000000
  70
    32
  0
VERTEX
  8
0
  5
7B8
 10
32.1389
 20
138.866
 30
0.000000
  70
    32
  0
VERTEX
  8
0
  5
7B9
 10
32.1499
 20
138.853
 30
0.000000
  70
    32
  0
VERTEX
  8
0
  5
7BA
 10
32.1609
 20
138.840
 30
0.000000
  70
    32
  0
VERTEX
  8
0
  5
7BB
 10
32.1716
 20
138.826
 30
0.000000
  70
    32
  0
VERTEX
  8
0
  5
7BC
 10
32.1823
 20
138.812
 30
0.000000
  70
    32
  0
VERTEX
  8
0
  5
7BD
 10
32.1928
 20
138.798
 30
0.000000
  70
    32
  0
VERTEX
  8
0
  5
7BE
 10
32.2031
 20
138.784
 30
0.000000
  70
    32
  0
VERTEX
  8
0
  5
7BF
 10
32.2133
 20
138.770
 30
0.000000
  70
    32
  0
VERTEX
  8
0
  5
7C0
 10
32.2233
 20
138.756
 30
0.000000
  70
    32
  0
VERTEX
  8
0
  5
7C1
 10
32.2332
 20
138.742
 30
0.000000
  70
    32
  0
VERTEX
  8
0
  5
7C2
 10
32.2429
 20
138.727
 30
0.000000
  70
    32
  0
VERTEX
  8
0
  5
7C3
 10
32.2525
 20
138.712
 30
0.000000
  70
    32
  0
VERTEX
  8
0
  5
7C4
 10
32.2619
 20
138.697
 30
0.000000
  70
    32
  0
VERTEX
  8
0
  5
7C5
 10
32.2712
 20
138.682
 30
0.000000
  70
    32
  0
VERTEX
  8
0
  5
7C6
 10
32.2803
 20
138.667
 30
0.000000
  70
    32
  0
VERTEX
  8
0
  5
7C7
 10
32.2892
 20
138.652
 30
0.000000
  70
    32
  0
VERTEX
  8
0
  5
7C8
 10
32.2980
 20
138.637
 30
0.000000
  70
    32
  0
VERTEX
  8
0
  5
7C9
 10
32.3066
 20
138.621
 30
0.000000
  70
    32
  0
VERTEX
  8
0
  5
7CA
 10
32.3151
 20
138.606
 30
0.000000
  70
    32
  0
VERTEX
  8
0
  5
7CB
 10
32.3233
 20
138.590
 30
0.000000
  70
    32
  0
VERTEX
  8
0
  5
7CC
 10
32.3315
 20
138.574
 30
0.000000
  70
    32
  0
VERTEX
  8
0
  5
7CD
 10
32.3394
 20
138.558
 30
0.000000
  70
    32
  0
VERTEX
  8
0
  5
7CE
 10
32.3472
 20
138.542
 30
0.000000
  70
    32
  0
VERTEX
  8
0
  5
7CF
 10
32.3548
 20
138.526
 30
0.000000
  70
    32
  0
VERTEX
  8
0
  5
7D0
 10
32.3622
 20
138.510
 30
0.000000
  70
    32
  0
VERTEX
  8
0
  5
7D1
 10
32.3695
 20
138.493
 30
0.000000
  70
    32
  0
VERTEX
  8
0
  5
7D2
 10
32.3765
 20
138.477
 30
0.000000
  70
    32
  0
VERTEX
  8
0
  5
7D3
 10
32.3834
 20
138.460
 30
0.000000
  70
    32
  0
VERTEX
  8
0
  5
7D4
 10
32.3902
 20
138.443
 30
0.000000
  70
    32
  0
VERTEX
  8
0
  5
7D5
 10
32.3967
 20
138.427
 30
0.000000
  70
    32
  0
VERTEX
  8
0
  5
7D6
 10
32.4031
 20
138.410
 30
0.000000
  70
    32
  0
VERTEX
  8
0
  5
7D7
 10
32.4093
 20
138.393
 30
0.000000
  70
    32
  0
VERTEX
  8
0
  5
7D8
 10
32.4153
 20
138.376
 30
0.000000
  70
    32
  0
VERTEX
  8
0
  5
7D9
 10
32.4211
 20
138.359
 30
0.000000
  70
    32
  0
VERTEX
  8
0
  5
7DA
 10
32.4268
 20
138.341
 30
0.000000
  70
    32
  0
VERTEX
  8
0
  5
7DB
 10
32.4322
 20
138.324
 30
0.000000
  70
    32
  0
VERTEX
  8
0
  5
7DC
 10
32.4375
 20
138.307
 30
0.000000
  70
    32
  0
VERTEX
  8
0
  5
7DD
 10
32.4426
 20
138.289
 30
0.000000
  70
    32
  0
VERTEX
  8
0
  5
7DE
 10
32.4475
 20
138.272
 30
0.000000
  70
    32
  0
VERTEX
  8
0
  5
7DF
 10
32.4522
 20
138.254
 30
0.000000
  70
    32
  0
VERTEX
  8
0
  5
7E0
 10
32.4568
 20
138.237
 30
0.000000
  70
    32
  0
VERTEX
  8
0
  5
7E1
 10
32.4611
 20
138.219
 30
0.000000
  70
    32
  0
VERTEX
  8
0
  5
7E2
 10
32.4653
 20
138.201
 30
0.000000
  70
    32
  0
VERTEX
  8
0
  5
7E3
 10
32.4692
 20
138.183
 30
0.000000
  70
    32
  0
VERTEX
  8
0
  5
7E4
 10
32.4730
 20
138.165
 30
0.000000
  70
    32
  0
VERTEX
  8
0
  5
7E5
 10
32.4766
 20
138.147
 30
0.000000
  70
    32
  0
VERTEX
  8
0
  5
7E6
 10
32.4800
 20
138.129
 30
0.000000
  70
    32
  0
VERTEX
  8
0
  5
7E7
 10
32.4832
 20
138.111
 30
0.000000
  70
    32
  0
VERTEX
  8
0
  5
7E8
 10
32.4862
 20
138.093
 30
0.000000
  70
    32
  0
VERTEX
  8
0
  5
7E9
 10
32.4890
 20
138.075
 30
0.000000
  70
    32
  0
VERTEX
  8
0
  5
7EA
 10
32.4917
 20
138.057
 30
0.000000
  70
    32
  0
VERTEX
  8
0
  5
7EB
 10
32.4941
 20
138.039
 30
0.000000
  70
    32
  0
VERTEX
  8
0
  5
7EC
 10
32.4963
 20
138.021
 30
0.000000
  70
    32
  0
VERTEX
  8
0
  5
7ED
 10
32.4984
 20
138.002
 30
0.000000
  70
    32
  0
VERTEX
  8
0
  5
7EE
 10
32.5002
 20
137.984
 30
0.000000
  70
    32
  0
VERTEX
  8
0
  5
7EF
 10
32.5019
 20
137.966
 30
0.000000
  70
    32
  0
VERTEX
  8
0
  5
7F0
 10
32.5034
 20
137.947
 30
0.000000
  70
    32
  0
VERTEX
  8
0
  5
7F1
 10
32.5046
 20
137.929
 30
0.000000
  70
    32
  0
VERTEX
  8
0
  5
7F2
 10
32.5057
 20
137.911
 30
0.000000
  70
    32
  0
VERTEX
  8
0
  5
7F3
 10
32.5066
 20
137.892
 30
0.000000
  70
    32
  0
VERTEX
  8
0
  5
7F4
 10
32.5073
 20
137.874
 30
0.000000
  70
    32
  0
VERTEX
  8
0
  5
7F5
 10
32.5078
 20
137.856
 30
0.000000
  70
    32
  0
VERTEX
  8
0
  5
7F6
 10
32.5081
 20
137.837
 30
0.000000
  70
    32
  0
VERTEX
  8
0
  5
7F7
 10
32.5082
 20
137.819
 30
0.000000
  70
    32
  0
SEQEND
  8
0
  5
7F8
  0
LINE
  5
46E
  8
0
 10
26.01296719197596
 20
139.3187319214191
 30
0.0
 11
70.01296719197596
 21
139.31873192141919
 31
0.0
  0
POLYLINE
  5
46F
  8
0
 10
64.816814769269541
 20
101.3187319214252
 30
0.0
 66
     1
 70
     8
  0
VERTEX
  8
0
  5
7F9
 10
64.8168
 20
101.319
 30
0.000000
  70
    32
  0
VERTEX
  8
0
  5
7FA
 10
64.8009
 20
101.319
 30
0.000000
  70
    32
  0
VERTEX
  8
0
  5
7FB
 10
64.7849
 20
101.319
 30
0.000000
  70
    32
  0
VERTEX
  8
0
  5
7FC
 10
64.7690
 20
101.320
 30
0.000000
  70
    32
  0
VERTEX
  8
0
  5
7FD
 10
64.7531
 20
101.321
 30
0.000000
  70
    32
  0
VERTEX
  8
0
  5
7FE
 10
64.7372
 20
101.322
 30
0.000000
  70
    32
  0
VERTEX
  8
0
  5
7FF
 10
64.7213
 20
101.323
 30
0.000000
  70
    32
  0
VERTEX
  8
0
  5
800
 10
64.7054
 20
101.324
 30
0.000000
  70
    32
  0
VERTEX
  8
0
  5
801
 10
64.6895
 20
101.326
 30
0.000000
  70
    32
  0
VERTEX
  8
0
  5
802
 10
64.6736
 20
101.328
 30
0.000000
  70
    32
  0
VERTEX
  8
0
  5
803
 10
64.6578
 20
101.330
 30
0.000000
  70
    32
  0
VERTEX
  8
0
  5
804
 10
64.6420
 20
101.332
 30
0.000000
  70
    32
  0
VERTEX
  8
0
  5
805
 10
64.6262
 20
101.335
 30
0.000000
  70
    32
  0
VERTEX
  8
0
  5
806
 10
64.6105
 20
101.338
 30
0.000000
  70
    32
  0
VERTEX
  8
0
  5
807
 10
64.5947
 20
101.341
 30
0.000000
  70
    32
  0
VERTEX
  8
0
  5
808
 10
64.5790
 20
101.344
 30
0.000000
  70
    32
  0
VERTEX
  8
0
  5
809
 10
64.5634
 20
101.348
 30
0.000000
  70
    32
  0
VERTEX
  8
0
  5
80A
 10
64.5478
 20
101.351
 30
0.000000
  70
    32
  0
VERTEX
  8
0
  5
80B
 10
64.5322
 20
101.355
 30
0.000000
  70
    32
  0
VERTEX
  8
0
  5
80C
 10
64.5167
 20
101.359
 30
0.000000
  70
    32
  0
VERTEX
  8
0
  5
80D
 10
64.5012
 20
101.364
 30
0.000000
  70
    32
  0
VERTEX
  8
0
  5
80E
 10
64.4857
 20
101.368
 30
0.000000
  70
    32
  0
VERTEX
  8
0
  5
80F
 10
64.4703
 20
101.373
 30
0.000000
  70
    32
  0
VERTEX
  8
0
  5
810
 10
64.4550
 20
101.378
 30
0.000000
  70
    32
  0
VERTEX
  8
0
  5
811
 10
64.4397
 20
101.383
 30
0.000000
  70
    32
  0
VERTEX
  8
0
  5
812
 10
64.4245
 20
101.389
 30
0.000000
  70
    32
  0
VERTEX
  8
0
  5
813
 10
64.4093
 20
101.394
 30
0.000000
  70
    32
  0
VERTEX
  8
0
  5
814
 10
64.3942
 20
101.400
 30
0.000000
  70
    32
  0
VERTEX
  8
0
  5
815
 10
64.3792
 20
101.406
 30
0.000000
  70
    32
  0
VERTEX
  8
0
  5
816
 10
64.3642
 20
101.413
 30
0.000000
  70
    32
  0
VERTEX
  8
0
  5
817
 10
64.3493
 20
101.419
 30
0.000000
  70
    32
  0
VERTEX
  8
0
  5
818
 10
64.3345
 20
101.426
 30
0.000000
  70
    32
  0
VERTEX
  8
0
  5
819
 10
64.3197
 20
101.433
 30
0.000000
  70
    32
  0
VERTEX
  8
0
  5
81A
 10
64.3050
 20
101.440
 30
0.000000
  70
    32
  0
VERTEX
  8
0
  5
81B
 10
64.2904
 20
101.447
 30
0.000000
  70
    32
  0
VERTEX
  8
0
  5
81C
 10
64.2759
 20
101.455
 30
0.000000
  70
    32
  0
VERTEX
  8
0
  5
81D
 10
64.2614
 20
101.463
 30
0.000000
  70
    32
  0
VERTEX
  8
0
  5
81E
 10
64.2470
 20
101.471
 30
0.000000
  70
    32
  0
VERTEX
  8
0
  5
81F
 10
64.2328
 20
101.479
 30
0.000000
  70
    32
  0
VERTEX
  8
0
  5
820
 10
64.2186
 20
101.487
 30
0.000000
  70
    32
  0
VERTEX
  8
0
  5
821
 10
64.2045
 20
101.496
 30
0.000000
  70
    32
  0
VERTEX
  8
0
  5
822
 10
64.1904
 20
101.505
 30
0.000000
  70
    32
  0
VERTEX
  8
0
  5
823
 10
64.1765
 20
101.514
 30
0.000000
  70
    32
  0
VERTEX
  8
0
  5
824
 10
64.1627
 20
101.523
 30
0.000000
  70
    32
  0
VERTEX
  8
0
  5
825
 10
64.1490
 20
101.532
 30
0.000000
  70
    32
  0
VERTEX
  8
0
  5
826
 10
64.1354
 20
101.542
 30
0.000000
  70
    32
  0
VERTEX
  8
0
  5
827
 10
64.1218
 20
101.551
 30
0.000000
  70
    32
  0
VERTEX
  8
0
  5
828
 10
64.1084
 20
101.561
 30
0.000000
  70
    32
  0
VERTEX
  8
0
  5
829
 10
64.0951
 20
101.572
 30
0.000000
  70
    32
  0
VERTEX
  8
0
  5
82A
 10
64.0819
 20
101.582
 30
0.000000
  70
    32
  0
VERTEX
  8
0
  5
82B
 10
64.0688
 20
101.592
 30
0.000000
  70
    32
  0
VERTEX
  8
0
  5
82C
 10
64.0558
 20
101.603
 30
0.000000
  70
    32
  0
VERTEX
  8
0
  5
82D
 10
64.0430
 20
101.614
 30
0.000000
  70
    32
  0
VERTEX
  8
0
  5
82E
 10
64.0302
 20
101.625
 30
0.000000
  70
    32
  0
VERTEX
  8
0
  5
82F
 10
64.0176
 20
101.636
 30
0.000000
  70
    32
  0
VERTEX
  8
0
  5
830
 10
64.0051
 20
101.648
 30
0.000000
  70
    32
  0
VERTEX
  8
0
  5
831
 10
63.9927
 20
101.659
 30
0.000000
  70
    32
  0
VERTEX
  8
0
  5
832
 10
63.9805
 20
101.671
 30
0.000000
  70
    32
  0
VERTEX
  8
0
  5
833
 10
63.9683
 20
101.683
 30
0.000000
  70
    32
  0
VERTEX
  8
0
  5
834
 10
63.9563
 20
101.695
 30
0.000000
  70
    32
  0
VERTEX
  8
0
  5
835
 10
63.9444
 20
101.707
 30
0.000000
  70
    32
  0
VERTEX
  8
0
  5
836
 10
63.9327
 20
101.720
 30
0.000000
  70
    32
  0
VERTEX
  8
0
  5
837
 10
63.9211
 20
101.732
 30
0.000000
  70
    32
  0
VERTEX
  8
0
  5
838
 10
63.9096
 20
101.745
 30
0.000000
  70
    32
  0
VERTEX
  8
0
  5
839
 10
63.8983
 20
101.758
 30
0.000000
  70
    32
  0
VERTEX
  8
0
  5
83A
 10
63.8871
 20
101.771
 30
0.000000
  70
    32
  0
VERTEX
  8
0
  5
83B
 10
63.8760
 20
101.784
 30
0.000000
  70
    32
  0
VERTEX
  8
0
  5
83C
 10
63.8651
 20
101.798
 30
0.000000
  70
    32
  0
VERTEX
  8
0
  5
83D
 10
63.8543
 20
101.811
 30
0.000000
  70
    32
  0
VERTEX
  8
0
  5
83E
 10
63.8437
 20
101.825
 30
0.000000
  70
    32
  0
VERTEX
  8
0
  5
83F
 10
63.8332
 20
101.839
 30
0.000000
  70
    32
  0
VERTEX
  8
0
  5
840
 10
63.8228
 20
101.853
 30
0.000000
  70
    32
  0
VERTEX
  8
0
  5
841
 10
63.8126
 20
101.867
 30
0.000000
  70
    32
  0
VERTEX
  8
0
  5
842
 10
63.8026
 20
101.881
 30
0.000000
  70
    32
  0
VERTEX
  8
0
  5
843
 10
63.7927
 20
101.896
 30
0.000000
  70
    32
  0
VERTEX
  8
0
  5
844
 10
63.7830
 20
101.910
 30
0.000000
  70
    32
  0
VERTEX
  8
0
  5
845
 10
63.7734
 20
101.925
 30
0.000000
  70
    32
  0
VERTEX
  8
0
  5
846
 10
63.7640
 20
101.940
 30
0.000000
  70
    32
  0
VERTEX
  8
0
  5
847
 10
63.7547
 20
101.955
 30
0.000000
  70
    32
  0
VERTEX
  8
0
  5
848
 10
63.7456
 20
101.970
 30
0.000000
  70
    32
  0
VERTEX
  8
0
  5
849
 10
63.7367
 20
101.985
 30
0.000000
  70
    32
  0
VERTEX
  8
0
  5
84A
 10
63.7279
 20
102.001
 30
0.000000
  70
    32
  0
VERTEX
  8
0
  5
84B
 10
63.7193
 20
102.016
 30
0.000000
  70
    32
  0
VERTEX
  8
0
  5
84C
 10
63.7109
 20
102.032
 30
0.000000
  70
    32
  0
VERTEX
  8
0
  5
84D
 10
63.7026
 20
102.048
 30
0.000000
  70
    32
  0
VERTEX
  8
0
  5
84E
 10
63.6945
 20
102.063
 30
0.000000
  70
    32
  0
VERTEX
  8
0
  5
84F
 10
63.6865
 20
102.079
 30
0.000000
  70
    32
  0
VERTEX
  8
0
  5
850
 10
63.6788
 20
102.095
 30
0.000000
  70
    32
  0
VERTEX
  8
0
  5
851
 10
63.6712
 20
102.112
 30
0.000000
  70
    32
  0
VERTEX
  8
0
  5
852
 10
63.6637
 20
102.128
 30
0.000000
  70
    32
  0
VERTEX
  8
0
  5
853
 10
63.6565
 20
102.144
 30
0.000000
  70
    32
  0
VERTEX
  8
0
  5
854
 10
63.6494
 20
102.161
 30
0.000000
  70
    32
  0
VERTEX
  8
0
  5
855
 10
63.6425
 20
102.177
 30
0.000000
  70
    32
  0
VERTEX
  8
0
  5
856
 10
63.6358
 20
102.194
 30
0.000000
  70
    32
  0
VERTEX
  8
0
  5
857
 10
63.6292
 20
102.211
 30
0.000000
  70
    32
  0
VERTEX
  8
0
  5
858
 10
63.6229
 20
102.228
 30
0.000000
  70
    32
  0
VERTEX
  8
0
  5
859
 10
63.6167
 20
102.245
 30
0.000000
  70
    32
  0
VERTEX
  8
0
  5
85A
 10
63.6106
 20
102.262
 30
0.000000
  70
    32
  0
VERTEX
  8
0
  5
85B
 10
63.6048
 20
102.279
 30
0.000000
  70
    32
  0
VERTEX
  8
0
  5
85C
 10
63.5992
 20
102.296
 30
0.000000
  70
    32
  0
VERTEX
  8
0
  5
85D
 10
63.5937
 20
102.313
 30
0.000000
  70
    32
  0
VERTEX
  8
0
  5
85E
 10
63.5884
 20
102.331
 30
0.000000
  70
    32
  0
VERTEX
  8
0
  5
85F
 10
63.5833
 20
102.348
 30
0.000000
  70
    32
  0
VERTEX
  8
0
  5
860
 10
63.5784
 20
102.366
 30
0.000000
  70
    32
  0
VERTEX
  8
0
  5
861
 10
63.5737
 20
102.383
 30
0.000000
  70
    32
  0
VERTEX
  8
0
  5
862
 10
63.5692
 20
102.401
 30
0.000000
  70
    32
  0
VERTEX
  8
0
  5
863
 10
63.5648
 20
102.419
 30
0.000000
  70
    32
  0
VERTEX
  8
0
  5
864
 10
63.5607
 20
102.436
 30
0.000000
  70
    32
  0
VERTEX
  8
0
  5
865
 10
63.5567
 20
102.454
 30
0.000000
  70
    32
  0
VERTEX
  8
0
  5
866
 10
63.5529
 20
102.472
 30
0.000000
  70
    32
  0
VERTEX
  8
0
  5
867
 10
63.5493
 20
102.490
 30
0.000000
  70
    32
  0
VERTEX
  8
0
  5
868
 10
63.5459
 20
102.508
 30
0.000000
  70
    32
  0
VERTEX
  8
0
  5
869
 10
63.5427
 20
102.526
 30
0.000000
  70
    32
  0
VERTEX
  8
0
  5
86A
 10
63.5397
 20
102.544
 30
0.000000
  70
    32
  0
VERTEX
  8
0
  5
86B
 10
63.5369
 20
102.562
 30
0.000000
  70
    32
  0
VERTEX
  8
0
  5
86C
 10
63.5343
 20
102.580
 30
0.000000
  70
    32
  0
VERTEX
  8
0
  5
86D
 10
63.5318
 20
102.599
 30
0.000000
  70
    32
  0
VERTEX
  8
0
  5
86E
 10
63.5296
 20
102.617
 30
0.000000
  70
    32
  0
VERTEX
  8
0
  5
86F
 10
63.5275
 20
102.635
 30
0.000000
  70
    32
  0
VERTEX
  8
0
  5
870
 10
63.5257
 20
102.653
 30
0.000000
  70
    32
  0
VERTEX
  8
0
  5
871
 10
63.5240
 20
102.672
 30
0.000000
  70
    32
  0
VERTEX
  8
0
  5
872
 10
63.5226
 20
102.690
 30
0.000000
  70
    32
  0
VERTEX
  8
0
  5
873
 10
63.5213
 20
102.708
 30
0.000000
  70
    32
  0
VERTEX
  8
0
  5
874
 10
63.5202
 20
102.727
 30
0.000000
  70
    32
  0
VERTEX
  8
0
  5
875
 10
63.5193
 20
102.745
 30
0.000000
  70
    32
  0
VERTEX
  8
0
  5
876
 10
63.5187
 20
102.764
 30
0.000000
  70
    32
  0
VERTEX
  8
0
  5
877
 10
63.5182
 20
102.782
 30
0.000000
  70
    32
  0
VERTEX
  8
0
  5
878
 10
63.5179
 20
102.800
 30
0.000000
  70
    32
  0
VERTEX
  8
0
  5
879
 10
63.5178
 20
102.819
 30
0.000000
  70
    32
  0
SEQEND
  8
0
  5
87A
  0
POLYLINE
  5
470
  8
0
 10
63.017776663592649
 20
102.81873192142513
 30
0.0
 66
     1
 70
     8
  0
VERTEX
  8
0
  5
87B
 10
63.0178
 20
102.819
 30
0.000000
  70
    32
  0
VERTEX
  8
0
  5
87C
 10
63.0179
 20
102.800
 30
0.000000
  70
    32
  0
VERTEX
  8
0
  5
87D
 10
63.0182
 20
102.782
 30
0.000000
  70
    32
  0
VERTEX
  8
0
  5
87E
 10
63.0187
 20
102.764
 30
0.000000
  70
    32
  0
VERTEX
  8
0
  5
87F
 10
63.0193
 20
102.745
 30
0.000000
  70
    32
  0
VERTEX
  8
0
  5
880
 10
63.0202
 20
102.727
 30
0.000000
  70
    32
  0
VERTEX
  8
0
  5
881
 10
63.0213
 20
102.708
 30
0.000000
  70
    32
  0
VERTEX
  8
0
  5
882
 10
63.0226
 20
102.690
 30
0.000000
  70
    32
  0
VERTEX
  8
0
  5
883
 10
63.0240
 20
102.672
 30
0.000000
  70
    32
  0
VERTEX
  8
0
  5
884
 10
63.0257
 20
102.653
 30
0.000000
  70
    32
  0
VERTEX
  8
0
  5
885
 10
63.0275
 20
102.635
 30
0.000000
  70
    32
  0
VERTEX
  8
0
  5
886
 10
63.0296
 20
102.617
 30
0.000000
  70
    32
  0
VERTEX
  8
0
  5
887
 10
63.0318
 20
102.599
 30
0.000000
  70
    32
  0
VERTEX
  8
0
  5
888
 10
63.0343
 20
102.580
 30
0.000000
  70
    32
  0
VERTEX
  8
0
  5
889
 10
63.0369
 20
102.562
 30
0.000000
  70
    32
  0
VERTEX
  8
0
  5
88A
 10
63.0397
 20
102.544
 30
0.000000
  70
    32
  0
VERTEX
  8
0
  5
88B
 10
63.0427
 20
102.526
 30
0.000000
  70
    32
  0
VERTEX
  8
0
  5
88C
 10
63.0459
 20
102.508
 30
0.000000
  70
    32
  0
VERTEX
  8
0
  5
88D
 10
63.0493
 20
102.490
 30
0.000000
  70
    32
  0
VERTEX
  8
0
  5
88E
 10
63.0529
 20
102.472
 30
0.000000
  70
    32
  0
VERTEX
  8
0
  5
88F
 10
63.0567
 20
102.454
 30
0.000000
  70
    32
  0
VERTEX
  8
0
  5
890
 10
63.0607
 20
102.436
 30
0.000000
  70
    32
  0
VERTEX
  8
0
  5
891
 10
63.0648
 20
102.419
 30
0.000000
  70
    32
  0
VERTEX
  8
0
  5
892
 10
63.0692
 20
102.401
 30
0.000000
  70
    32
  0
VERTEX
  8
0
  5
893
 10
63.0737
 20
102.383
 30
0.000000
  70
    32
  0
VERTEX
  8
0
  5
894
 10
63.0784
 20
102.366
 30
0.000000
  70
    32
  0
VERTEX
  8
0
  5
895
 10
63.0833
 20
102.348
 30
0.000000
  70
    32
  0
VERTEX
  8
0
  5
896
 10
63.0884
 20
102.331
 30
0.000000
  70
    32
  0
VERTEX
  8
0
  5
897
 10
63.0937
 20
102.313
 30
0.000000
  70
    32
  0
VERTEX
  8
0
  5
898
 10
63.0992
 20
102.296
 30
0.000000
  70
    32
  0
VERTEX
  8
0
  5
899
 10
63.1048
 20
102.279
 30
0.000000
  70
    32
  0
VERTEX
  8
0
  5
89A
 10
63.1106
 20
102.262
 30
0.000000
  70
    32
  0
VERTEX
  8
0
  5
89B
 10
63.1167
 20
102.245
 30
0.000000
  70
    32
  0
VERTEX
  8
0
  5
89C
 10
63.1229
 20
102.228
 30
0.000000
  70
    32
  0
VERTEX
  8
0
  5
89D
 10
63.1292
 20
102.211
 30
0.000000
  70
    32
  0
VERTEX
  8
0
  5
89E
 10
63.1358
 20
102.194
 30
0.000000
  70
    32
  0
VERTEX
  8
0
  5
89F
 10
63.1425
 20
102.177
 30
0.000000
  70
    32
  0
VERTEX
  8
0
  5
8A0
 10
63.1494
 20
102.161
 30
0.000000
  70
    32
  0
VERTEX
  8
0
  5
8A1
 10
63.1565
 20
102.144
 30
0.000000
  70
    32
  0
VERTEX
  8
0
  5
8A2
 10
63.1637
 20
102.128
 30
0.000000
  70
    32
  0
VERTEX
  8
0
  5
8A3
 10
63.1712
 20
102.112
 30
0.000000
  70
    32
  0
VERTEX
  8
0
  5
8A4
 10
63.1788
 20
102.095
 30
0.000000
  70
    32
  0
VERTEX
  8
0
  5
8A5
 10
63.1865
 20
102.079
 30
0.000000
  70
    32
  0
VERTEX
  8
0
  5
8A6
 10
63.1945
 20
102.063
 30
0.000000
  70
    32
  0
VERTEX
  8
0
  5
8A7
 10
63.2026
 20
102.048
 30
0.000000
  70
    32
  0
VERTEX
  8
0
  5
8A8
 10
63.2109
 20
102.032
 30
0.000000
  70
    32
  0
VERTEX
  8
0
  5
8A9
 10
63.2193
 20
102.016
 30
0.000000
  70
    32
  0
VERTEX
  8
0
  5
8AA
 10
63.2279
 20
102.001
 30
0.000000
  70
    32
  0
VERTEX
  8
0
  5
8AB
 10
63.2367
 20
101.985
 30
0.000000
  70
    32
  0
VERTEX
  8
0
  5
8AC
 10
63.2456
 20
101.970
 30
0.000000
  70
    32
  0
VERTEX
  8
0
  5
8AD
 10
63.2547
 20
101.955
 30
0.000000
  70
    32
  0
VERTEX
  8
0
  5
8AE
 10
63.2640
 20
101.940
 30
0.000000
  70
    32
  0
VERTEX
  8
0
  5
8AF
 10
63.2734
 20
101.925
 30
0.000000
  70
    32
  0
VERTEX
  8
0
  5
8B0
 10
63.2830
 20
101.910
 30
0.000000
  70
    32
  0
VERTEX
  8
0
  5
8B1
 10
63.2927
 20
101.896
 30
0.000000
  70
    32
  0
VERTEX
  8
0
  5
8B2
 10
63.3026
 20
101.881
 30
0.000000
  70
    32
  0
VERTEX
  8
0
  5
8B3
 10
63.3126
 20
101.867
 30
0.000000
  70
    32
  0
VERTEX
  8
0
  5
8B4
 10
63.3228
 20
101.853
 30
0.000000
  70
    32
  0
VERTEX
  8
0
  5
8B5
 10
63.3332
 20
101.839
 30
0.000000
  70
    32
  0
VERTEX
  8
0
  5
8B6
 10
63.3437
 20
101.825
 30
0.000000
  70
    32
  0
VERTEX
  8
0
  5
8B7
 10
63.3543
 20
101.811
 30
0.000000
  70
    32
  0
VERTEX
  8
0
  5
8B8
 10
63.3651
 20
101.798
 30
0.000000
  70
    32
  0
VERTEX
  8
0
  5
8B9
 10
63.3760
 20
101.784
 30
0.000000
  70
    32
  0
VERTEX
  8
0
  5
8BA
 10
63.3871
 20
101.771
 30
0.000000
  70
    32
  0
VERTEX
  8
0
  5
8BB
 10
63.3983
 20
101.758
 30
0.000000
  70
    32
  0
VERTEX
  8
0
  5
8BC
 10
63.4096
 20
101.745
 30
0.000000
  70
    32
  0
VERTEX
  8
0
  5
8BD
 10
63.4211
 20
101.732
 30
0.000000
  70
    32
  0
VERTEX
  8
0
  5
8BE
 10
63.4327
 20
101.720
 30
0.000000
  70
    32
  0
VERTEX
  8
0
  5
8BF
 10
63.4444
 20
101.707
 30
0.000000
  70
    32
  0
VERTEX
  8
0
  5
8C0
 10
63.4563
 20
101.695
 30
0.000000
  70
    32
  0
VERTEX
  8
0
  5
8C1
 10
63.4683
 20
101.683
 30
0.000000
  70
    32
  0
VERTEX
  8
0
  5
8C2
 10
63.4805
 20
101.671
 30
0.000000
  70
    32
  0
VERTEX
  8
0
  5
8C3
 10
63.4927
 20
101.659
 30
0.000000
  70
    32
  0
VERTEX
  8
0
  5
8C4
 10
63.5051
 20
101.648
 30
0.000000
  70
    32
  0
VERTEX
  8
0
  5
8C5
 10
63.5176
 20
101.636
 30
0.000000
  70
    32
  0
VERTEX
  8
0
  5
8C6
 10
63.5302
 20
101.625
 30
0.000000
  70
    32
  0
VERTEX
  8
0
  5
8C7
 10
63.5430
 20
101.614
 30
0.000000
  70
    32
  0
VERTEX
  8
0
  5
8C8
 10
63.5558
 20
101.603
 30
0.000000
  70
    32
  0
VERTEX
  8
0
  5
8C9
 10
63.5688
 20
101.592
 30
0.000000
  70
    32
  0
VERTEX
  8
0
  5
8CA
 10
63.5819
 20
101.582
 30
0.000000
  70
    32
  0
VERTEX
  8
0
  5
8CB
 10
63.5951
 20
101.572
 30
0.000000
  70
    32
  0
VERTEX
  8
0
  5
8CC
 10
63.6084
 20
101.561
 30
0.000000
  70
    32
  0
VERTEX
  8
0
  5
8CD
 10
63.6218
 20
101.551
 30
0.000000
  70
    32
  0
VERTEX
  8
0
  5
8CE
 10
63.6354
 20
101.542
 30
0.000000
  70
    32
  0
VERTEX
  8
0
  5
8CF
 10
63.6490
 20
101.532
 30
0.000000
  70
    32
  0
VERTEX
  8
0
  5
8D0
 10
63.6627
 20
101.523
 30
0.000000
  70
    32
  0
VERTEX
  8
0
  5
8D1
 10
63.6765
 20
101.514
 30
0.000000
  70
    32
  0
VERTEX
  8
0
  5
8D2
 10
63.6904
 20
101.505
 30
0.000000
  70
    32
  0
VERTEX
  8
0
  5
8D3
 10
63.7045
 20
101.496
 30
0.000000
  70
    32
  0
VERTEX
  8
0
  5
8D4
 10
63.7186
 20
101.487
 30
0.000000
  70
    32
  0
VERTEX
  8
0
  5
8D5
 10
63.7328
 20
101.479
 30
0.000000
  70
    32
  0
VERTEX
  8
0
  5
8D6
 10
63.7470
 20
101.471
 30
0.000000
  70
    32
  0
VERTEX
  8
0
  5
8D7
 10
63.7614
 20
101.463
 30
0.000000
  70
    32
  0
VERTEX
  8
0
  5
8D8
 10
63.7759
 20
101.455
 30
0.000000
  70
    32
  0
VERTEX
  8
0
  5
8D9
 10
63.7904
 20
101.447
 30
0.000000
  70
    32
  0
VERTEX
  8
0
  5
8DA
 10
63.8050
 20
101.440
 30
0.000000
  70
    32
  0
VERTEX
  8
0
  5
8DB
 10
63.8197
 20
101.433
 30
0.000000
  70
    32
  0
VERTEX
  8
0
  5
8DC
 10
63.8345
 20
101.426
 30
0.000000
  70
    32
  0
VERTEX
  8
0
  5
8DD
 10
63.8493
 20
101.419
 30
0.000000
  70
    32
  0
VERTEX
  8
0
  5
8DE
 10
63.8642
 20
101.413
 30
0.000000
  70
    32
  0
VERTEX
  8
0
  5
8DF
 10
63.8792
 20
101.406
 30
0.000000
  70
    32
  0
VERTEX
  8
0
  5
8E0
 10
63.8942
 20
101.400
 30
0.000000
  70
    32
  0
VERTEX
  8
0
  5
8E1
 10
63.9093
 20
101.394
 30
0.000000
  70
    32
  0
VERTEX
  8
0
  5
8E2
 10
63.9245
 20
101.389
 30
0.000000
  70
    32
  0
VERTEX
  8
0
  5
8E3
 10
63.9397
 20
101.383
 30
0.000000
  70
    32
  0
VERTEX
  8
0
  5
8E4
 10
63.9550
 20
101.378
 30
0.000000
  70
    32
  0
VERTEX
  8
0
  5
8E5
 10
63.9703
 20
101.373
 30
0.000000
  70
    32
  0
VERTEX
  8
0
  5
8E6
 10
63.9857
 20
101.368
 30
0.000000
  70
    32
  0
VERTEX
  8
0
  5
8E7
 10
64.0012
 20
101.364
 30
0.000000
  70
    32
  0
VERTEX
  8
0
  5
8E8
 10
64.0167
 20
101.359
 30
0.000000
  70
    32
  0
VERTEX
  8
0
  5
8E9
 10
64.0322
 20
101.355
 30
0.000000
  70
    32
  0
VERTEX
  8
0
  5
8EA
 10
64.0478
 20
101.351
 30
0.000000
  70
    32
  0
VERTEX
  8
0
  5
8EB
 10
64.0634
 20
101.348
 30
0.000000
  70
    32
  0
VERTEX
  8
0
  5
8EC
 10
64.0790
 20
101.344
 30
0.000000
  70
    32
  0
VERTEX
  8
0
  5
8ED
 10
64.0947
 20
101.341
 30
0.000000
  70
    32
  0
VERTEX
  8
0
  5
8EE
 10
64.1105
 20
101.338
 30
0.000000
  70
    32
  0
VERTEX
  8
0
  5
8EF
 10
64.1262
 20
101.335
 30
0.000000
  70
    32
  0
VERTEX
  8
0
  5
8F0
 10
64.1420
 20
101.332
 30
0.000000
  70
    32
  0
VERTEX
  8
0
  5
8F1
 10
64.1578
 20
101.330
 30
0.000000
  70
    32
  0
VERTEX
  8
0
  5
8F2
 10
64.1736
 20
101.328
 30
0.000000
  70
    32
  0
VERTEX
  8
0
  5
8F3
 10
64.1895
 20
101.326
 30
0.000000
  70
    32
  0
VERTEX
  8
0
  5
8F4
 10
64.2054
 20
101.324
 30
0.000000
  70
    32
  0
VERTEX
  8
0
  5
8F5
 10
64.2213
 20
101.323
 30
0.000000
  70
    32
  0
VERTEX
  8
0
  5
8F6
 10
64.2372
 20
101.322
 30
0.000000
  70
    32
  0
VERTEX
  8
0
  5
8F7
 10
64.2531
 20
101.321
 30
0.000000
  70
    32
  0
VERTEX
  8
0
  5
8F8
 10
64.2690
 20
101.320
 30
0.000000
  70
    32
  0
VERTEX
  8
0
  5
8F9
 10
64.2849
 20
101.319
 30
0.000000
  70
    32
  0
VERTEX
  8
0
  5
8FA
 10
64.3009
 20
101.319
 30
0.000000
  70
    32
  0
VERTEX
  8
0
  5
8FB
 10
64.3168
 20
101.319
 30
0.000000
  70
    32
  0
SEQEND
  8
0
  5
8FC
  0
LINE
  5
471
  8
0
 10
27.01296719197596
 20
139.3187319214239
 30
0.0
 11
27.012967191975982
 21
101.3187319214239
 31
0.0
  0
POLYLINE
  5
472
  8
0
 10
64.316814769269016
 20
139.3187319214249
 30
0.0
 66
     1
 70
     8
  0
VERTEX
  8
0
  5
8FD
 10
64.3168
 20
139.319
 30
0.000000
  70
    32
  0
VERTEX
  8
0
  5
8FE
 10
64.3009
 20
139.319
 30
0.000000
  70
    32
  0
VERTEX
  8
0
  5
8FF
 10
64.2849
 20
139.318
 30
0.000000
  70
    32
  0
VERTEX
  8
0
  5
900
 10
64.2690
 20
139.318
 30
0.000000
  70
    32
  0
VERTEX
  8
0
  5
901
 10
64.2531
 20
139.317
 30
0.000000
  70
    32
  0
VERTEX
  8
0
  5
902
 10
64.2372
 20
139.316
 30
0.000000
  70
    32
  0
VERTEX
  8
0
  5
903
 10
64.2213
 20
139.315
 30
0.000000
  70
    32
  0
VERTEX
  8
0
  5
904
 10
64.2054
 20
139.313
 30
0.000000
  70
    32
  0
VERTEX
  8
0
  5
905
 10
64.1895
 20
139.312
 30
0.000000
  70
    32
  0
VERTEX
  8
0
  5
906
 10
64.1736
 20
139.310
 30
0.000000
  70
    32
  0
VERTEX
  8
0
  5
907
 10
64.1578
 20
139.307
 30
0.000000
  70
    32
  0
VERTEX
  8
0
  5
908
 10
64.1420
 20
139.305
 30
0.000000
  70
    32
  0
VERTEX
  8
0
  5
909
 10
64.1262
 20
139.302
 30
0.000000
  70
    32
  0
VERTEX
  8
0
  5
90A
 10
64.1105
 20
139.300
 30
0.000000
  70
    32
  0
VERTEX
  8
0
  5
90B
 10
64.0947
 20
139.297
 30
0.000000
  70
    32
  0
VERTEX
  8
0
  5
90C
 10
64.0790
 20
139.293
 30
0.000000
  70
    32
  0
VERTEX
  8
0
  5
90D
 10
64.0634
 20
139.290
 30
0.000000
  70
    32
  0
VERTEX
  8
0
  5
90E
 10
64.0478
 20
139.286
 30
0.000000
  70
    32
  0
VERTEX
  8
0
  5
90F
 10
64.0322
 20
139.282
 30
0.000000
  70
    32
  0
VERTEX
  8
0
  5
910
 10
64.0167
 20
139.278
 30
0.000000
  70
    32
  0
VERTEX
  8
0
  5
911
 10
64.0012
 20
139.274
 30
0.000000
  70
    32
  0
VERTEX
  8
0
  5
912
 10
63.9857
 20
139.269
 30
0.000000
  70
    32
  0
VERTEX
  8
0
  5
913
 10
63.9703
 20
139.264
 30
0.000000
  70
    32
  0
VERTEX
  8
0
  5
914
 10
63.9550
 20
139.259
 30
0.000000
  70
    32
  0
VERTEX
  8
0
  5
915
 10
63.9397
 20
139.254
 30
0.000000
  70
    32
  0
VERTEX
  8
0
  5
916
 10
63.9245
 20
139.249
 30
0.000000
  70
    32
  0
VERTEX
  8
0
  5
917
 10
63.9093
 20
139.243
 30
0.000000
  70
    32
  0
VERTEX
  8
0
  5
918
 10
63.8942
 20
139.237
 30
0.000000
  70
    32
  0
VERTEX
  8
0
  5
919
 10
63.8792
 20
139.231
 30
0.000000
  70
    32
  0
VERTEX
  8
0
  5
91A
 10
63.8642
 20
139.225
 30
0.000000
  70
    32
  0
VERTEX
  8
0
  5
91B
 10
63.8493
 20
139.218
 30
0.000000
  70
    32
  0
VERTEX
  8
0
  5
91C
 10
63.8345
 20
139.211
 30
0.000000
  70
    32
  0
VERTEX
  8
0
  5
91D
 10
63.8197
 20
139.205
 30
0.000000
  70
    32
  0
VERTEX
  8
0
  5
91E
 10
63.8050
 20
139.197
 30
0.000000
  70
    32
  0
VERTEX
  8
0
  5
91F
 10
63.7904
 20
139.190
 30
0.000000
  70
    32
  0
VERTEX
  8
0
  5
920
 10
63.7759
 20
139.182
 30
0.000000
  70
    32
  0
VERTEX
  8
0
  5
921
 10
63.7614
 20
139.175
 30
0.000000
  70
    32
  0
VERTEX
  8
0
  5
922
 10
63.7470
 20
139.167
 30
0.000000
  70
    32
  0
VERTEX
  8
0
  5
923
 10
63.7328
 20
139.159
 30
0.000000
  70
    32
  0
VERTEX
  8
0
  5
924
 10
63.7186
 20
139.150
 30
0.000000
  70
    32
  0
VERTEX
  8
0
  5
925
 10
63.7045
 20
139.142
 30
0.000000
  70
    32
  0
VERTEX
  8
0
  5
926
 10
63.6904
 20
139.133
 30
0.000000
  70
    32
  0
VERTEX
  8
0
  5
927
 10
63.6765
 20
139.124
 30
0.000000
  70
    32
  0
VERTEX
  8
0
  5
928
 10
63.6627
 20
139.115
 30
0.000000
  70
    32
  0
VERTEX
  8
0
  5
929
 10
63.6490
 20
139.105
 30
0.000000
  70
    32
  0
VERTEX
  8
0
  5
92A
 10
63.6354
 20
139.096
 30
0.000000
  70
    32
  0
VERTEX
  8
0
  5
92B
 10
63.6218
 20
139.086
 30
0.000000
  70
    32
  0
VERTEX
  8
0
  5
92C
 10
63.6084
 20
139.076
 30
0.000000
  70
    32
  0
VERTEX
  8
0
  5
92D
 10
63.5951
 20
139.066
 30
0.000000
  70
    32
  0
VERTEX
  8
0
  5
92E
 10
63.5819
 20
139.056
 30
0.000000
  70
    32
  0
VERTEX
  8
0
  5
92F
 10
63.5688
 20
139.045
 30
0.000000
  70
    32
  0
VERTEX
  8
0
  5
930
 10
63.5558
 20
139.034
 30
0.000000
  70
    32
  0
VERTEX
  8
0
  5
931
 10
63.5430
 20
139.024
 30
0.000000
  70
    32
  0
VERTEX
  8
0
  5
932
 10
63.5302
 20
139.012
 30
0.000000
  70
    32
  0
VERTEX
  8
0
  5
933
 10
63.5176
 20
139.001
 30
0.000000
  70
    32
  0
VERTEX
  8
0
  5
934
 10
63.5051
 20
138.990
 30
0.000000
  70
    32
  0
VERTEX
  8
0
  5
935
 10
63.4927
 20
138.978
 30
0.000000
  70
    32
  0
VERTEX
  8
0
  5
936
 10
63.4805
 20
138.966
 30
0.000000
  70
    32
  0
VERTEX
  8
0
  5
937
 10
63.4683
 20
138.955
 30
0.000000
  70
    32
  0
VERTEX
  8
0
  5
938
 10
63.4563
 20
138.942
 30
0.000000
  70
    32
  0
VERTEX
  8
0
  5
939
 10
63.4444
 20
138.930
 30
0.000000
  70
    32
  0
VERTEX
  8
0
  5
93A
 10
63.4327
 20
138.918
 30
0.000000
  70
    32
  0
VERTEX
  8
0
  5
93B
 10
63.4211
 20
138.905
 30
0.000000
  70
    32
  0
VERTEX
  8
0
  5
93C
 10
63.4096
 20
138.892
 30
0.000000
  70
    32
  0
VERTEX
  8
0
  5
93D
 10
63.3983
 20
138.879
 30
0.000000
  70
    32
  0
VERTEX
  8
0
  5
93E
 10
63.3871
 20
138.866
 30
0.000000
  70
    32
  0
VERTEX
  8
0
  5
93F
 10
63.3760
 20
138.853
 30
0.000000
  70
    32
  0
VERTEX
  8
0
  5
940
 10
63.3651
 20
138.840
 30
0.000000
  70
    32
  0
VERTEX
  8
0
  5
941
 10
63.3543
 20
138.826
 30
0.000000
  70
    32
  0
VERTEX
  8
0
  5
942
 10
63.3437
 20
138.812
 30
0.000000
  70
    32
  0
VERTEX
  8
0
  5
943
 10
63.3332
 20
138.798
 30
0.000000
  70
    32
  0
VERTEX
  8
0
  5
944
 10
63.3228
 20
138.784
 30
0.000000
  70
    32
  0
VERTEX
  8
0
  5
945
 10
63.3126
 20
138.770
 30
0.000000
  70
    32
  0
VERTEX
  8
0
  5
946
 10
63.3026
 20
138.756
 30
0.000000
  70
    32
  0
VERTEX
  8
0
  5
947
 10
63.2927
 20
138.742
 30
0.000000
  70
    32
  0
VERTEX
  8
0
  5
948
 10
63.2830
 20
138.727
 30
0.000000
  70
    32
  0
VERTEX
  8
0
  5
949
 10
63.2734
 20
138.712
 30
0.000000
  70
    32
  0
VERTEX
  8
0
  5
94A
 10
63.2640
 20
138.697
 30
0.000000
  70
    32
  0
VERTEX
  8
0
  5
94B
 10
63.2547
 20
138.682
 30
0.000000
  70
    32
  0
VERTEX
  8
0
  5
94C
 10
63.2456
 20
138.667
 30
0.000000
  70
    32
  0
VERTEX
  8
0
  5
94D
 10
63.2367
 20
138.652
 30
0.000000
  70
    32
  0
VERTEX
  8
0
  5
94E
 10
63.2279
 20
138.637
 30
0.000000
  70
    32
  0
VERTEX
  8
0
  5
94F
 10
63.2193
 20
138.621
 30
0.000000
  70
    32
  0
VERTEX
  8
0
  5
950
 10
63.2109
 20
138.606
 30
0.000000
  70
    32
  0
VERTEX
  8
0
  5
951
 10
63.2026
 20
138.590
 30
0.000000
  70
    32
  0
VERTEX
  8
0
  5
952
 10
63.1945
 20
138.574
 30
0.000000
  70
    32
  0
VERTEX
  8
0
  5
953
 10
63.1865
 20
138.558
 30
0.000000
  70
    32
  0
VERTEX
  8
0
  5
954
 10
63.1788
 20
138.542
 30
0.000000
  70
    32
  0
VERTEX
  8
0
  5
955
 10
63.1712
 20
138.526
 30
0.000000
  70
    32
  0
VERTEX
  8
0
  5
956
 10
63.1637
 20
138.510
 30
0.000000
  70
    32
  0
VERTEX
  8
0
  5
957
 10
63.1565
 20
138.493
 30
0.000000
  70
    32
  0
VERTEX
  8
0
  5
958
 10
63.1494
 20
138.477
 30
0.000000
  70
    32
  0
VERTEX
  8
0
  5
959
 10
63.1425
 20
138.460
 30
0.000000
  70
    32
  0
VERTEX
  8
0
  5
95A
 10
63.1358
 20
138.443
 30
0.000000
  70
    32
  0
VERTEX
  8
0
  5
95B
 10
63.1292
 20
138.427
 30
0.000000
  70
    32
  0
VERTEX
  8
0
  5
95C
 10
63.1229
 20
138.410
 30
0.000000
  70
    32
  0
VERTEX
  8
0
  5
95D
 10
63.1167
 20
138.393
 30
0.000000
  70
    32
  0
VERTEX
  8
0
  5
95E
 10
63.1106
 20
138.376
 30
0.000000
  70
    32
  0
VERTEX
  8
0
  5
95F
 10
63.1048
 20
138.359
 30
0.000000
  70
    32
  0
VERTEX
  8
0
  5
960
 10
63.0992
 20
138.341
 30
0.000000
  70
    32
  0
VERTEX
  8
0
  5
961
 10
63.0937
 20
138.324
 30
0.000000
  70
    32
  0
VERTEX
  8
0
  5
962
 10
63.0884
 20
138.307
 30
0.000000
  70
    32
  0
VERTEX
  8
0
  5
963
 10
63.0833
 20
138.289
 30
0.000000
  70
    32
  0
VERTEX
  8
0
  5
964
 10
63.0784
 20
138.272
 30
0.000000
  70
    32
  0
VERTEX
  8
0
  5
965
 10
63.0737
 20
138.254
 30
0.000000
  70
    32
  0
VERTEX
  8
0
  5
966
 10
63.0692
 20
138.237
 30
0.000000
  70
    32
  0
VERTEX
  8
0
  5
967
 10
63.0648
 20
138.219
 30
0.000000
  70
    32
  0
VERTEX
  8
0
  5
968
 10
63.0607
 20
138.201
 30
0.000000
  70
    32
  0
VERTEX
  8
0
  5
969
 10
63.0567
 20
138.183
 30
0.000000
  70
    32
  0
VERTEX
  8
0
  5
96A
 10
63.0529
 20
138.165
 30
0.000000
  70
    32
  0
VERTEX
  8
0
  5
96B
 10
63.0493
 20
138.147
 30
0.000000
  70
    32
  0
VERTEX
  8
0
  5
96C
 10
63.0459
 20
138.129
 30
0.000000
  70
    32
  0
VERTEX
  8
0
  5
96D
 10
63.0427
 20
138.111
 30
0.000000
  70
    32
  0
VERTEX
  8
0
  5
96E
 10
63.0397
 20
138.093
 30
0.000000
  70
    32
  0
VERTEX
  8
0
  5
96F
 10
63.0369
 20
138.075
 30
0.000000
  70
    32
  0
VERTEX
  8
0
  5
970
 10
63.0343
 20
138.057
 30
0.000000
  70
    32
  0
VERTEX
  8
0
  5
971
 10
63.0318
 20
138.039
 30
0.000000
  70
    32
  0
VERTEX
  8
0
  5
972
 10
63.0296
 20
138.021
 30
0.000000
  70
    32
  0
VERTEX
  8
0
  5
973
 10
63.0275
 20
138.002
 30
0.000000
  70
    32
  0
VERTEX
  8
0
  5
974
 10
63.0257
 20
137.984
 30
0.000000
  70
    32
  0
VERTEX
  8
0
  5
975
 10
63.0240
 20
137.966
 30
0.000000
  70
    32
  0
VERTEX
  8
0
  5
976
 10
63.0226
 20
137.947
 30
0.000000
  70
    32
  0
VERTEX
  8
0
  5
977
 10
63.0213
 20
137.929
 30
0.000000
  70
    32
  0
VERTEX
  8
0
  5
978
 10
63.0202
 20
137.911
 30
0.000000
  70
    32
  0
VERTEX
  8
0
  5
979
 10
63.0193
 20
137.892
 30
0.000000
  70
    32
  0
VERTEX
  8
0
  5
97A
 10
63.0187
 20
137.874
 30
0.000000
  70
    32
  0
VERTEX
  8
0
  5
97B
 10
63.0182
 20
137.856
 30
0.000000
  70
    32
  0
VERTEX
  8
0
  5
97C
 10
63.0179
 20
137.837
 30
0.000000
  70
    32
  0
VERTEX
  8
0
  5
97D
 10
63.0178
 20
137.819
 30
0.000000
  70
    32
  0
SEQEND
  8
0
  5
97E
  0
POLYLINE
  5
473
  8
0
 10
63.517776663592628
 20
137.81873192142533
 30
0.0
 66
     1
 70
     8
  0
VERTEX
  8
0
  5
97F
 10
63.5178
 20
137.819
 30
0.000000
  70
    32
  0
VERTEX
  8
0
  5
980
 10
63.5179
 20
137.837
 30
0.000000
  70
    32
  0
VERTEX
  8
0
  5
981
 10
63.5182
 20
137.856
 30
0.000000
  70
    32
  0
VERTEX
  8
0
  5
982
 10
63.5187
 20
137.874
 30
0.000000
  70
    32
  0
VERTEX
  8
0
  5
983
 10
63.5193
 20
137.892
 30
0.000000
  70
    32
  0
VERTEX
  8
0
  5
984
 10
63.5202
 20
137.911
 30
0.000000
  70
    32
  0
VERTEX
  8
0
  5
985
 10
63.5213
 20
137.929
 30
0.000000
  70
    32
  0
VERTEX
  8
0
  5
986
 10
63.5226
 20
137.947
 30
0.000000
  70
    32
  0
VERTEX
  8
0
  5
987
 10
63.5240
 20
137.966
 30
0.000000
  70
    32
  0
VERTEX
  8
0
  5
988
 10
63.5257
 20
137.984
 30
0.000000
  70
    32
  0
VERTEX
  8
0
  5
989
 10
63.5275
 20
138.002
 30
0.000000
  70
    32
  0
VERTEX
  8
0
  5
98A
 10
63.5296
 20
138.021
 30
0.000000
  70
    32
  0
VERTEX
  8
0
  5
98B
 10
63.5318
 20
138.039
 30
0.000000
  70
    32
  0
VERTEX
  8
0
  5
98C
 10
63.5343
 20
138.057
 30
0.000000
  70
    32
  0
VERTEX
  8
0
  5
98D
 10
63.5369
 20
138.075
 30
0.000000
  70
    32
  0
VERTEX
  8
0
  5
98E
 10
63.5397
 20
138.093
 30
0.000000
  70
    32
  0
VERTEX
  8
0
  5
98F
 10
63.5427
 20
138.111
 30
0.000000
  70
    32
  0
VERTEX
  8
0
  5
990
 10
63.5459
 20
138.129
 30
0.000000
  70
    32
  0
VERTEX
  8
0
  5
991
 10
63.5493
 20
138.147
 30
0.000000
  70
    32
  0
VERTEX
  8
0
  5
992
 10
63.5529
 20
138.165
 30
0.000000
  70
    32
  0
VERTEX
  8
0
  5
993
 10
63.5567
 20
138.183
 30
0.000000
  70
    32
  0
VERTEX
  8
0
  5
994
 10
63.5607
 20
138.201
 30
0.000000
  70
    32
  0
VERTEX
  8
0
  5
995
 10
63.5648
 20
138.219
 30
0.000000
  70
    32
  0
VERTEX
  8
0
  5
996
 10
63.5692
 20
138.237
 30
0.000000
  70
    32
  0
VERTEX
  8
0
  5
997
 10
63.5737
 20
138.254
 30
0.000000
  70
    32
  0
VERTEX
  8
0
  5
998
 10
63.5784
 20
138.272
 30
0.000000
  70
    32
  0
VERTEX
  8
0
  5
999
 10
63.5833
 20
138.289
 30
0.000000
  70
    32
  0
VERTEX
  8
0
  5
99A
 10
63.5884
 20
138.307
 30
0.000000
  70
    32
  0
VERTEX
  8
0
  5
99B
 10
63.5937
 20
138.324
 30
0.000000
  70
    32
  0
VERTEX
  8
0
  5
99C
 10
63.5992
 20
138.341
 30
0.000000
  70
    32
  0
VERTEX
  8
0
  5
99D
 10
63.6048
 20
138.359
 30
0.000000
  70
    32
  0
VERTEX
  8
0
  5
99E
 10
63.6106
 20
138.376
 30
0.000000
  70
    32
  0
VERTEX
  8
0
  5
99F
 10
63.6167
 20
138.393
 30
0.000000
  70
    32
  0
VERTEX
  8
0
  5
9A0
 10
63.6229
 20
138.410
 30
0.000000
  70
    32
  0
VERTEX
  8
0
  5
9A1
 10
63.6292
 20
138.427
 30
0.000000
  70
    32
  0
VERTEX
  8
0
  5
9A2
 10
63.6358
 20
138.443
 30
0.000000
  70
    32
  0
VERTEX
  8
0
  5
9A3
 10
63.6425
 20
138.460
 30
0.000000
  70
    32
  0
VERTEX
  8
0
  5
9A4
 10
63.6494
 20
138.477
 30
0.000000
  70
    32
  0
VERTEX
  8
0
  5
9A5
 10
63.6565
 20
138.493
 30
0.000000
  70
    32
  0
VERTEX
  8
0
  5
9A6
 10
63.6637
 20
138.510
 30
0.000000
  70
    32
  0
VERTEX
  8
0
  5
9A7
 10
63.6712
 20
138.526
 30
0.000000
  70
    32
  0
VERTEX
  8
0
  5
9A8
 10
63.6788
 20
138.542
 30
0.000000
  70
    32
  0
VERTEX
  8
0
  5
9A9
 10
63.6865
 20
138.558
 30
0.000000
  70
    32
  0
VERTEX
  8
0
  5
9AA
 10
63.6945
 20
138.574
 30
0.000000
  70
    32
  0
VERTEX
  8
0
  5
9AB
 10
63.7026
 20
138.590
 30
0.000000
  70
    32
  0
VERTEX
  8
0
  5
9AC
 10
63.7109
 20
138.606
 30
0.000000
  70
    32
  0
VERTEX
  8
0
  5
9AD
 10
63.7193
 20
138.621
 30
0.000000
  70
    32
  0
VERTEX
  8
0
  5
9AE
 10
63.7279
 20
138.637
 30
0.000000
  70
    32
  0
VERTEX
  8
0
  5
9AF
 10
63.7367
 20
138.652
 30
0.000000
  70
    32
  0
VERTEX
  8
0
  5
9B0
 10
63.7456
 20
138.667
 30
0.000000
  70
    32
  0
VERTEX
  8
0
  5
9B1
 10
63.7547
 20
138.682
 30
0.000000
  70
    32
  0
VERTEX
  8
0
  5
9B2
 10
63.7640
 20
138.697
 30
0.000000
  70
    32
  0
VERTEX
  8
0
  5
9B3
 10
63.7734
 20
138.712
 30
0.000000
  70
    32
  0
VERTEX
  8
0
  5
9B4
 10
63.7830
 20
138.727
 30
0.000000
  70
    32
  0
VERTEX
  8
0
  5
9B5
 10
63.7927
 20
138.742
 30
0.000000
  70
    32
  0
VERTEX
  8
0
  5
9B6
 10
63.8026
 20
138.756
 30
0.000000
  70
    32
  0
VERTEX
  8
0
  5
9B7
 10
63.8126
 20
138.770
 30
0.000000
  70
    32
  0
VERTEX
  8
0
  5
9B8
 10
63.8228
 20
138.784
 30
0.000000
  70
    32
  0
VERTEX
  8
0
  5
9B9
 10
63.8332
 20
138.798
 30
0.000000
  70
    32
  0
VERTEX
  8
0
  5
9BA
 10
63.8437
 20
138.812
 30
0.000000
  70
    32
  0
VERTEX
  8
0
  5
9BB
 10
63.8543
 20
138.826
 30
0.000000
  70
    32
  0
VERTEX
  8
0
  5
9BC
 10
63.8651
 20
138.840
 30
0.000000
  70
    32
  0
VERTEX
  8
0
  5
9BD
 10
63.8760
 20
138.853
 30
0.000000
  70
    32
  0
VERTEX
  8
0
  5
9BE
 10
63.8871
 20
138.866
 30
0.000000
  70
    32
  0
VERTEX
  8
0
  5
9BF
 10
63.8983
 20
138.879
 30
0.000000
  70
    32
  0
VERTEX
  8
0
  5
9C0
 10
63.9096
 20
138.892
 30
0.000000
  70
    32
  0
VERTEX
  8
0
  5
9C1
 10
63.9211
 20
138.905
 30
0.000000
  70
    32
  0
VERTEX
  8
0
  5
9C2
 10
63.9327
 20
138.918
 30
0.000000
  70
    32
  0
VERTEX
  8
0
  5
9C3
 10
63.9444
 20
138.930
 30
0.000000
  70
    32
  0
VERTEX
  8
0
  5
9C4
 10
63.9563
 20
138.942
 30
0.000000
  70
    32
  0
VERTEX
  8
0
  5
9C5
 10
63.9683
 20
138.955
 30
0.000000
  70
    32
  0
VERTEX
  8
0
  5
9C6
 10
63.9805
 20
138.966
 30
0.000000
  70
    32
  0
VERTEX
  8
0
  5
9C7
 10
63.9927
 20
138.978
 30
0.000000
  70
    32
  0
VERTEX
  8
0
  5
9C8
 10
64.0051
 20
138.990
 30
0.000000
  70
    32
  0
VERTEX
  8
0
  5
9C9
 10
64.0176
 20
139.001
 30
0.000000
  70
    32
  0
VERTEX
  8
0
  5
9CA
 10
64.0302
 20
139.012
 30
0.000000
  70
    32
  0
VERTEX
  8
0
  5
9CB
 10
64.0430
 20
139.024
 30
0.000000
  70
    32
  0
VERTEX
  8
0
  5
9CC
 10
64.0558
 20
139.034
 30
0.000000
  70
    32
  0
VERTEX
  8
0
  5
9CD
 10
64.0688
 20
139.045
 30
0.000000
  70
    32
  0
VERTEX
  8
0
  5
9CE
 10
64.0819
 20
139.056
 30
0.000000
  70
    32
  0
VERTEX
  8
0
  5
9CF
 10
64.0951
 20
139.066
 30
0.000000
  70
    32
  0
VERTEX
  8
0
  5
9D0
 10
64.1084
 20
139.076
 30
0.000000
  70
    32
  0
VERTEX
  8
0
  5
9D1
 10
64.1218
 20
139.086
 30
0.000000
  70
    32
  0
VERTEX
  8
0
  5
9D2
 10
64.1354
 20
139.096
 30
0.000000
  70
    32
  0
VERTEX
  8
0
  5
9D3
 10
64.1490
 20
139.105
 30
0.000000
  70
    32
  0
VERTEX
  8
0
  5
9D4
 10
64.1627
 20
139.115
 30
0.000000
  70
    32
  0
VERTEX
  8
0
  5
9D5
 10
64.1765
 20
139.124
 30
0.000000
  70
    32
  0
VERTEX
  8
0
  5
9D6
 10
64.1904
 20
139.133
 30
0.000000
  70
    32
  0
VERTEX
  8
0
  5
9D7
 10
64.2045
 20
139.142
 30
0.000000
  70
    32
  0
VERTEX
  8
0
  5
9D8
 10
64.2186
 20
139.150
 30
0.000000
  70
    32
  0
VERTEX
  8
0
  5
9D9
 10
64.2328
 20
139.159
 30
0.000000
  70
    32
  0
VERTEX
  8
0
  5
9DA
 10
64.2470
 20
139.167
 30
0.000000
  70
    32
  0
VERTEX
  8
0
  5
9DB
 10
64.2614
 20
139.175
 30
0.000000
  70
    32
  0
VERTEX
  8
0
  5
9DC
 10
64.2759
 20
139.182
 30
0.000000
  70
    32
  0
VERTEX
  8
0
  5
9DD
 10
64.2904
 20
139.190
 30
0.000000
  70
    32
  0
VERTEX
  8
0
  5
9DE
 10
64.3050
 20
139.197
 30
0.000000
  70
    32
  0
VERTEX
  8
0
  5
9DF
 10
64.3197
 20
139.205
 30
0.000000
  70
    32
  0
VERTEX
  8
0
  5
9E0
 10
64.3345
 20
139.211
 30
0.000000
  70
    32
  0
VERTEX
  8
0
  5
9E1
 10
64.3493
 20
139.218
 30
0.000000
  70
    32
  0
VERTEX
  8
0
  5
9E2
 10
64.3642
 20
139.225
 30
0.000000
  70
    32
  0
VERTEX
  8
0
  5
9E3
 10
64.3792
 20
139.231
 30
0.000000
  70
    32
  0
VERTEX
  8
0
  5
9E4
 10
64.3942
 20
139.237
 30
0.000000
  70
    32
  0
VERTEX
  8
0
  5
9E5
 10
64.4093
 20
139.243
 30
0.000000
  70
    32
  0
VERTEX
  8
0
  5
9E6
 10
64.4245
 20
139.249
 30
0.000000
  70
    32
  0
VERTEX
  8
0
  5
9E7
 10
64.4397
 20
139.254
 30
0.000000
  70
    32
  0
VERTEX
  8
0
  5
9E8
 10
64.4550
 20
139.259
 30
0.000000
  70
    32
  0
VERTEX
  8
0
  5
9E9
 10
64.4703
 20
139.264
 30
0.000000
  70
    32
  0
VERTEX
  8
0
  5
9EA
 10
64.4857
 20
139.269
 30
0.000000
  70
    32
  0
VERTEX
  8
0
  5
9EB
 10
64.5012
 20
139.274
 30
0.000000
  70
    32
  0
VERTEX
  8
0
  5
9EC
 10
64.5167
 20
139.278
 30
0.000000
  70
    32
  0
VERTEX
  8
0
  5
9ED
 10
64.5322
 20
139.282
 30
0.000000
  70
    32
  0
VERTEX
  8
0
  5
9EE
 10
64.5478
 20
139.286
 30
0.000000
  70
    32
  0
VERTEX
  8
0
  5
9EF
 10
64.5634
 20
139.290
 30
0.000000
  70
    32
  0
VERTEX
  8
0
  5
9F0
 10
64.5790
 20
139.293
 30
0.000000
  70
    32
  0
VERTEX
  8
0
  5
9F1
 10
64.5947
 20
139.297
 30
0.000000
  70
    32
  0
VERTEX
  8
0
  5
9F2
 10
64.6105
 20
139.300
 30
0.000000
  70
    32
  0
VERTEX
  8
0
  5
9F3
 10
64.6262
 20
139.302
 30
0.000000
  70
    32
  0
VERTEX
  8
0
  5
9F4
 10
64.6420
 20
139.305
 30
0.000000
  70
    32
  0
VERTEX
  8
0
  5
9F5
 10
64.6578
 20
139.307
 30
0.000000
  70
    32
  0
VERTEX
  8
0
  5
9F6
 10
64.6736
 20
139.310
 30
0.000000
  70
    32
  0
VERTEX
  8
0
  5
9F7
 10
64.6895
 20
139.312
 30
0.000000
  70
    32
  0
VERTEX
  8
0
  5
9F8
 10
64.7054
 20
139.313
 30
0.000000
  70
    32
  0
VERTEX
  8
0
  5
9F9
 10
64.7213
 20
139.315
 30
0.000000
  70
    32
  0
VERTEX
  8
0
  5
9FA
 10
64.7372
 20
139.316
 30
0.000000
  70
    32
  0
VERTEX
  8
0
  5
9FB
 10
64.7531
 20
139.317
 30
0.000000
  70
    32
  0
VERTEX
  8
0
  5
9FC
 10
64.7690
 20
139.318
 30
0.000000
  70
    32
  0
VERTEX
  8
0
  5
9FD
 10
64.7849
 20
139.318
 30
0.000000
  70
    32
  0
VERTEX
  8
0
  5
9FE
 10
64.8009
 20
139.319
 30
0.000000
  70
    32
  0
VERTEX
  8
0
  5
9FF
 10
64.8168
 20
139.319
 30
0.000000
  70
    32
  0
SEQEND
  8
0
  5
A00
  0
LINE
  5
474
  8
0
 10
69.012967191975918
 20
101.3187319214239
 30
0.0
 11
69.012967191975946
 21
139.3187319214239
 31
0.0
  0
LINE
  5
476
  8
0
 10
26.01296719197596
 20
139.3187319214239
 30
0.0
 11
26.01296719197596
 21
101.3187319214239
 31
0.0
  0
LINE
  5
479
  8
0
 10
70.012967191975946
 20
101.3187319214239
 30
0.0
 11
70.012967191975946
 21
139.3187319214239
 31
0.0
  0
LINE
  5
47B
  8
0
 10
32.508157720359279
 20
137.81873192142541
 30
0.0
 11
32.508157720359279
 21
102.8187319214254
 31
0.0
  0
LINE
  5
47E
  8
0
 10
33.008157720359272
 20
137.8187319214251
 30
0.0
 11
33.008157720359279
 21
102.8187319214251
 31
0.0
  0
LINE
  5
481
  8
0
 10
63.517776663592649
 20
102.8187319214254
 30
0.0
 11
63.517776663592628
 21
137.81873192142541
 31
0.0
  0
LINE
  5
482
  8
0
 10
63.017776663592649
 20
102.8187319214251
 30
0.0
 11
63.017776663592628
 21
137.8187319214251
 31
0.0
  0
CIRCLE
  5
485
  8
0
 10
48.01296719197591
 20
120.3187319214191
 30
0.0
 40
6.5
  0
LINE
  5
492
  8
1
 10
75.012967191975974
 20
120.3187319214191
 30
0.0
 11
21.012967191975971
 21
120.3187319214191
 31
0.0
  0
LINE
  5
493
  8
1
 10
48.01296719197591
 20
144.3187319214191
 30
0.0
 11
48.01296719197591
 21
96.318731921419172
 31
0.0
  0
LINE
  5
49C
  8
1
 10
48.01296719197591
 20
64.923731921419105
 30
0.0
 11
48.01296719197591
 21
53.923731921419098
 31
0.0
  0
VIEWPORT
  5
4F4
 67
     1
  8
0
 10
128.5
 20
97.5
 30
0.0
 40
637.73888888888882
 41
222.18000000000001
 68
     1
 69
     1
1001
ACAD
1000
MVIEW
1002
{
1070
    16
1010
0.0
1020
0.0
1030
0.0
1010
0.0
1020
0.0
1030
1.0
1040
0.0
1040
222.18000000000001
1040
128.5
1040
97.5
1040
50.0
1040
0.0
1040
0.0
1070
     0
1070
  2000
1070
     1
1070
     1
1070
     0
1070
     0
1070
     0
1070
     0
1040
0.0
1040
0.0
1040
0.0
1040
10.0
1040
10.0
1040
10.0
1040
10.0
1070
     0
1002
{
1002
}
1002
}
  0
VIEWPORT
  5
4F8
 67
     1
  8
0
 10
128.5
 20
97.5
 30
0.0
 40
205.59999999999999
 41
156.0
 68
     2
 69
     2
1001
ACAD
1000
MVIEW
1002
{
1070
    16
1010
0.0
1020
0.0
1030
0.0
1010
0.0
1020
0.0
1030
1.0
1040
0.0
1040
149.6269862816406
1040
37.501182386369813
1040
70.673774644709965
1040
50.0
1040
0.0
1040
0.0
1070
     0
1070
  2000
1070
     1
1070
     3
1070
     0
1070
     0
1070
     0
1070
     0
1040
0.0
1040
0.0
1040
0.0
1040
10.0
1040
10.0
1040
10.0
1040
10.0
1070
     0
1002
{
1002
}
1002
}
  0
ENDSEC
  0
EOF
