  0
SECTION
  2
HEADER
  9
$ACADVER
  1
AC1009
  9
$INSBASE
 10
0.0
 20
0.0
 30
0.0
  9
$EXTMIN
 10
0.0
 20
-2.960436562073669
 30
0.0
  9
$EXTMAX
 10
235.224094000000008
 20
194.1584279999999865
 30
0.0
  9
$LIMMIN
 10
0.0
 20
0.0
  9
$LIMMAX
 10
375.0
 20
270.0
  9
$ORTHOMODE
 70
     1
  9
$REGENMODE
 70
     1
  9
$FILLMODE
 70
     1
  9
$QTEXTMODE
 70
     0
  9
$MIRRTEXT
 70
     0
  9
$DRAGMODE
 70
     2
  9
$LTSCALE
 40
10.0
  9
$OSMODE
 70
    37
  9
$ATTMODE
 70
     1
  9
$TEXTSIZE
 40
0.2
  9
$TRACEWID
 40
0.05
  9
$TEXTSTYLE
  7
STANDARD
  9
$CLAYER
  8
0
  9
$CELTYPE
  6
BYLAYER
  9
$CECOLOR
 62
   256
  9
$DIMSCALE
 40
1.0
  9
$DIMASZ
 40
3.0
  9
$DIMEXO
 40
1.0
  9
$DIMDLI
 40
6.0
  9
$DIMRND
 40
0.0
  9
$DIMDLE
 40
0.0
  9
$DIMEXE
 40
1.0
  9
$DIMTP
 40
495.0
  9
$DIMTM
 40
0.0
  9
$DIMTXT
 40
3.0
  9
$DIMCEN
 40
0.0
  9
$DIMTSZ
 40
0.0
  9
$DIMTOL
 70
     0
  9
$DIMLIM
 70
     0
  9
$DIMTIH
 70
     0
  9
$DIMTOH
 70
     0
  9
$DIMSE1
 70
     0
  9
$DIMSE2
 70
     0
  9
$DIMTAD
 70
     1
  9
$DIMZIN
 70
     0
  9
$DIMBLK
  1

  9
$DIMASO
 70
     0
  9
$DIMSHO
 70
     0
  9
$DIMPOST
  1

  9
$DIMAPOST
  1

  9
$DIMALT
 70
     0
  9
$DIMALTD
 70
     2
  9
$DIMALTF
 40
25.3999999999999986
  9
$DIMLFAC
 40
1.0
  9
$DIMTOFL
 70
     1
  9
$DIMTVP
 40
0.0
  9
$DIMTIX
 70
     1
  9
$DIMSOXD
 70
     0
  9
$DIMSAH
 70
     0
  9
$DIMBLK1
  1

  9
$DIMBLK2
  1

  9
$DIMSTYLE
  2
STANDARD
  9
$DIMCLRD
 70
     0
  9
$DIMCLRE
 70
     0
  9
$DIMCLRT
 70
     0
  9
$DIMTFAC
 40
1.0
  9
$DIMGAP
 40
0.09
  9
$LUNITS
 70
     2
  9
$LUPREC
 70
     1
  9
$SKETCHINC
 40
0.1
  9
$FILLETRAD
 40
0.5
  9
$AUNITS
 70
     0
  9
$AUPREC
 70
     1
  9
$MENU
  1
E:\r13\win\SUPPORT\ACAD
  9
$ELEVATION
 40
0.0
  9
$PELEVATION
 40
0.0
  9
$THICKNESS
 40
0.0
  9
$LIMCHECK
 70
     0
  9
$BLIPMODE
 70
     0
  9
$CHAMFERA
 40
0.0
  9
$CHAMFERB
 40
0.0
  9
$SKPOLY
 70
     0
  9
$TDCREATE
 40
2449840.3442129627801478
  9
$TDUPDATE
 40
2460571.6583912041969597
  9
$TDINDWG
 40
0.2674407523
  9
$TDUSRTIMER
 40
0.2674407523
  9
$USRTIMER
 70
     1
  9
$ANGBASE
 50
0.0
  9
$ANGDIR
 70
     0
  9
$PDMODE
 70
     0
  9
$PDSIZE
 40
0.0
  9
$PLINEWID
 40
0.0
  9
$COORDS
 70
     1
  9
$SPLFRAME
 70
     0
  9
$SPLINETYPE
 70
     6
  9
$SPLINESEGS
 70
     8
  9
$ATTDIA
 70
     1
  9
$ATTREQ
 70
     1
  9
$HANDLING
 70
     1
  9
$HANDSEED
  5
40D3
  9
$SURFTAB1
 70
     6
  9
$SURFTAB2
 70
     6
  9
$SURFTYPE
 70
     6
  9
$SURFU
 70
     6
  9
$SURFV
 70
     6
  9
$UCSNAME
  2

  9
$UCSORG
 10
0.0
 20
0.0
 30
0.0
  9
$UCSXDIR
 10
1.0
 20
0.0
 30
0.0
  9
$UCSYDIR
 10
0.0
 20
1.0
 30
0.0
  9
$PUCSNAME
  2

  9
$PUCSORG
 10
0.0
 20
0.0
 30
0.0
  9
$PUCSXDIR
 10
1.0
 20
0.0
 30
0.0
  9
$PUCSYDIR
 10
0.0
 20
1.0
 30
0.0
  9
$USERI1
 70
     3
  9
$USERI2
 70
     1
  9
$USERI3
 70
     0
  9
$USERI4
 70
     1
  9
$USERI5
 70
     0
  9
$USERR1
 40
1.0
  9
$USERR2
 40
3.0
  9
$USERR3
 40
3.0
  9
$USERR4
 40
3.0
  9
$USERR5
 40
10.0
  9
$WORLDVIEW
 70
     1
  9
$SHADEDGE
 70
     3
  9
$SHADEDIF
 70
    70
  9
$TILEMODE
 70
     1
  9
$MAXACTVP
 70
    16
  9
$PLIMCHECK
 70
     0
  9
$PEXTMIN
 10
1.0000000000000000E+20
 20
1.0000000000000000E+20
 30
1.0000000000000000E+20
  9
$PEXTMAX
 10
-1.0000000000000000E+20
 20
-1.0000000000000000E+20
 30
-1.0000000000000000E+20
  9
$PLIMMIN
 10
0.0
 20
0.0
  9
$PLIMMAX
 10
12.0
 20
9.0
  9
$UNITMODE
 70
     0
  9
$VISRETAIN
 70
     0
  9
$PLINEGEN
 70
     0
  9
$PSLTSCALE
 70
     0
  0
ENDSEC
  0
SECTION
  2
TABLES
  0
TABLE
  2
VPORT
 70
     1
  0
VPORT
  2
*ACTIVE
 70
     0
 10
0.0
 20
0.0
 11
1.0
 21
1.0
 12
352.2783251231526833
 22
150.0
 13
0.0
 23
0.0
 14
1.0
 24
1.0
 15
10.0
 25
10.0
 16
0.0
 26
0.0
 36
1.0
 17
0.0
 27
0.0
 37
0.0
 40
300.0
 41
2.3485221674876842
 42
50.0
 43
0.0
 44
0.0
 50
0.0
 51
0.0
 71
     0
 72
   100
 73
     1
 74
     0
 75
     0
 76
     0
 77
     0
 78
     0
  0
ENDTAB
  0
TABLE
  2
LTYPE
 70
     3
  0
LTYPE
  2
CONTINUOUS
 70
     0
  3
Solid Line
 72
    65
 73
     0
 40
0.0
  0
LTYPE
  2
CENTER
 70
     0
  3
____ _ ____ _ ____ _ ____ _ ____ _ ____ _ ____
 72
    65
 73
     4
 40
2.0
 49
1.25
 49
-0.25
 49
0.25
 49
-0.25
  0
LTYPE
  2
PHANTOM2
 70
     0
  3
Phantom (.5x) ___ _ _ ___ _ _ ___ _ _ ___ _ _
 72
    65
 73
     6
 40
1.25
 49
0.625
 49
-0.125
 49
0.125
 49
-0.125
 49
0.125
 49
-0.125
  0
ENDTAB
  0
TABLE
  2
LAYER
 70
     5
  0
LAYER
  2
0
 70
     0
 62
     7
  6
CONTINUOUS
  0
LAYER
  2
1
 70
     0
 62
     1
  6
CENTER
  0
LAYER
  2
3
 70
     0
 62
     3
  6
CONTINUOUS
  0
LAYER
  2
5
 70
     0
 62
     3
  6
PHANTOM2
  0
LAYER
  2
DEFPOINTS
 70
     0
 62
     7
  6
CONTINUOUS
  0
ENDTAB
  0
TABLE
  2
STYLE
 70
     2
  0
STYLE
  2
STANDARD
 70
     0
 40
0.0
 41
1.0
 50
0.0
 71
     0
 42
0.2
  3
TXT
  4
BIGFONT
  0
STYLE
  2
STANDARD1
 70
     0
 40
0.0
 41
1.0
 50
0.0
 71
     0
 42
3.0
  3
txt
  4

  0
ENDTAB
  0
TABLE
  2
VIEW
 70
     0
  0
ENDTAB
  0
TABLE
  2
UCS
 70
     0
  0
ENDTAB
  0
TABLE
  2
APPID
 70
    11
  0
APPID
  2
ACAD
 70
     0
  0
APPID
  2
ACAD_MLEADERVER
 70
     0
  0
APPID
  2
ACAD_EXEMPT_FROM_CAD_STANDARDS
 70
     0
  0
APPID
  2
ACAD_NAV_VCDISPLAY
 70
     0
  0
APPID
  2
ACAD_DSTYLE_DIMRADIAL_EXTENSION
 70
     0
  0
APPID
  2
ACAD_TC
 70
     0
  0
APPID
  2
GRADIENTCOLOR1ACI
 70
     0
  0
APPID
  2
GRADIENTCOLOR2ACI
 70
     0
  0
APPID
  2
ACAD_PSEXT
 70
     0
  0
APPID
  2
ACAD_DSTYLE_DIMJAG
 70
     0
  0
APPID
  2
ACAD_DSTYLE_DIMTALN
 70
     0
  0
ENDTAB
  0
TABLE
  2
DIMSTYLE
 70
     1
  0
DIMSTYLE
  2
STANDARD
 70
     0
  3

  4

  5

  6

  7

 40
1.0
 41
0.18
 42
0.0625
 43
0.38
 44
0.18
 45
0.0
 46
0.0
 47
0.0
 48
0.0
140
0.18
141
0.09
142
0.0
143
25.3999999999999986
144
1.0
145
0.0
146
1.0
147
0.09
 71
     0
 72
     0
 73
     1
 74
     1
 75
     0
 76
     0
 77
     0
 78
     0
170
     0
171
     2
172
     0
173
     0
174
     0
175
     0
176
     0
177
     0
178
     0
  0
ENDTAB
  0
ENDSEC
  0
SECTION
  2
BLOCKS
  0
BLOCK
  8
0
  2
$MODEL_SPACE
 70
     0
 10
0.0
 20
0.0
 30
0.0
  3
$MODEL_SPACE
  1

  0
ENDBLK
  5
614
  8
0
  0
BLOCK
 67
     1
  8
0
  2
$PAPER_SPACE
 70
     0
 10
0.0
 20
0.0
 30
0.0
  3
$PAPER_SPACE
  1

  0
ENDBLK
  5
612
 67
     1
  8
0
  0
BLOCK
  8
0
  2
*X0
 70
     1
 10
0.0
 20
0.0
 30
0.0
  3
*X0
  1

  0
LINE
  5
4076
  8
0
 62
     0
 10
84.0705068035817078
 20
94.0320137077799671
 30
0.0
 11
81.6495747077799763
 21
96.4529458035816987
 31
0.0
  0
LINE
  5
4077
  8
0
 62
     0
 10
84.5775668144734851
 20
92.375905177460055
 30
0.0
 11
79.9934661774600642
 21
96.9600058144734618
 31
0.0
  0
LINE
  5
4078
  8
0
 62
     0
 10
79.2759060000000204
 20
96.5285174725053707
 30
0.0
 11
78.8158920614724252
 21
96.9885314110329517
 31
0.0
  0
LINE
  5
4079
  8
0
 62
     0
 10
84.6060924110329751
 20
91.1983310614724161
 30
0.0
 11
79.2759060000000204
 21
96.5285174725053707
 31
0.0
  0
LINE
  5
407A
  8
0
 62
     0
 10
79.2759060000000204
 20
95.3794689530772217
 30
0.0
 11
77.8426010800993282
 21
96.8127738729779139
 31
0.0
  0
LINE
  5
407B
  8
0
 62
     0
 10
84.4303348729779373
 20
90.2250400800993049
 30
0.0
 11
79.2759060000000204
 21
95.3794689530772217
 31
0.0
  0
LINE
  5
407C
  8
0
 62
     0
 10
79.2759060000000346
 20
94.2304204336490585
 30
0.0
 11
77.0042257697544557
 21
96.5021006638946517
 31
0.0
  0
LINE
  5
407D
  8
0
 62
     0
 10
84.119661663894675
 20
89.3866647697544465
 30
0.0
 11
79.2759060000000346
 21
94.2304204336490585
 31
0.0
  0
LINE
  5
407E
  8
0
 62
     0
 10
79.2759060000000346
 20
93.0813719142209379
 30
0.0
 11
76.27191160483099
 21
96.0853663093899968
 31
0.0
  0
LINE
  5
407F
  8
0
 62
     0
 10
83.7029273093900059
 20
88.6543506048309666
 30
0.0
 11
79.2759060000000346
 21
93.0813719142209379
 31
0.0
  0
LINE
  5
4080
  8
0
 62
     0
 10
79.2759060000000204
 20
91.9323233947928173
 30
0.0
 11
75.6323550296695117
 21
95.575874365123326
 31
0.0
  0
LINE
  5
4081
  8
0
 62
     0
 10
83.1934353651233351
 20
88.0147940296695026
 30
0.0
 11
79.2759060000000204
 21
91.9323233947928173
 31
0.0
  0
LINE
  5
4082
  8
0
 62
     0
 10
79.2759060000000204
 20
90.7832748753646683
 30
0.0
 11
75.080736965454264
 21
94.9784439099104247
 31
0.0
  0
LINE
  5
4083
  8
0
 62
     0
 10
82.5960049099104481
 20
87.4631759654542407
 30
0.0
 11
79.2759060000000204
 21
90.7832748753646683
 31
0.0
  0
LINE
  5
4084
  8
0
 62
     0
 10
79.2759060000000204
 20
89.6342263559365335
 30
0.0
 11
74.618714865716683
 21
94.2914174902198567
 31
0.0
  0
LINE
  5
4085
  8
0
 62
     0
 10
81.9089784902198801
 20
87.0011538657166454
 30
0.0
 11
79.2759060000000204
 21
89.6342263559365335
 31
0.0
  0
LINE
  5
4086
  8
0
 62
     0
 10
79.2759060000000204
 20
88.4851778365083845
 30
0.0
 11
74.2550826860667996
 21
93.5060011504416053
 31
0.0
  0
LINE
  5
4087
  8
0
 62
     0
 10
81.1235621504416144
 20
86.6375216860667905
 30
0.0
 11
79.2759060000000204
 21
88.4851778365083845
 31
0.0
  0
LINE
  5
4088
  8
0
 62
     0
 10
79.2759060000000204
 20
87.3361293170802497
 30
0.0
 11
74.0098242620990447
 21
92.6022110549812254
 31
0.0
  0
LINE
  5
4089
  8
0
 62
     0
 10
80.2197720549812345
 20
86.3922632620990356
 30
0.0
 11
79.2759060000000204
 21
87.3361293170802497
 31
0.0
  0
LINE
  5
408A
  8
0
 62
     0
 10
79.1532352469953508
 20
86.3097515506567845
 30
0.0
 11
73.9273125506567936
 21
91.5356742469953417
 31
0.0
  0
LINE
  5
408B
  8
0
 62
     0
 10
77.797173911767743
 20
86.5167643664562576
 30
0.0
 11
74.1343253664562809
 21
90.1796129117677339
 31
0.0
  0
LINE
  5
408C
  8
0
 62
     0
 10
80.7784216103926269
 20
86.5236642075333151
 30
0.0
 11
84.4105867924667308
 21
90.1558293896074332
 31
0.0
  0
LINE
  5
408D
  8
0
 62
     0
 10
79.4158854345216838
 20
86.3101765510905352
 30
0.0
 11
84.6240744489095107
 21
91.5183655654783337
 31
0.0
  0
LINE
  5
408E
  8
0
 62
     0
 10
79.2759060000000346
 20
87.3192456359970066
 30
0.0
 11
84.5445368647599338
 21
92.5878765007569058
 31
0.0
  0
LINE
  5
408F
  8
0
 62
     0
 10
78.3463744992431401
 20
86.3897141352401121
 30
0.0
 11
79.2759060000000346
 21
87.3192456359970066
 31
0.0
  0
LINE
  5
4090
  8
0
 62
     0
 10
79.2759060000000204
 20
88.4682941554251556
 30
0.0
 11
84.3012585061464961
 21
93.4936466615716029
 31
0.0
  0
LINE
  5
4091
  8
0
 62
     0
 10
77.440604338428443
 20
86.6329924938535498
 30
0.0
 11
79.2759060000000204
 21
88.4682941554251556
 31
0.0
  0
LINE
  5
4092
  8
0
 62
     0
 10
79.2759060000000346
 20
89.6173426748533046
 30
0.0
 11
83.9391845888219876
 21
94.2806212636752576
 31
0.0
  0
LINE
  5
4093
  8
0
 62
     0
 10
76.6536297363247883
 20
86.9950664111780441
 30
0.0
 11
79.2759060000000346
 21
89.6173426748533046
 31
0.0
  0
LINE
  5
4094
  8
0
 62
     0
 10
79.2759060000000346
 20
90.7663911942814252
 30
0.0
 11
83.4785243020503458
 21
94.9690094963317648
 31
0.0
  0
LINE
  5
4095
  8
0
 62
     0
 10
75.9652415036682811
 20
87.4557266979496859
 30
0.0
 11
79.2759060000000346
 21
90.7663911942814252
 31
0.0
  0
LINE
  5
4096
  8
0
 62
     0
 10
79.2759060000000204
 20
91.91543971370956
 30
0.0
 11
82.9281952671010743
 21
95.5677289808106138
 31
0.0
  0
LINE
  5
4097
  8
0
 62
     0
 10
75.3665220191894321
 20
88.0060557328989859
 30
0.0
 11
79.2759060000000204
 21
91.91543971370956
 31
0.0
  0
LINE
  5
4098
  8
0
 62
     0
 10
79.2759060000000346
 20
93.0644882331376948
 30
0.0
 11
82.2899488963262655
 21
96.0785311294639257
 31
0.0
  0
LINE
  5
4099
  8
0
 62
     0
 10
74.855719870536106
 20
88.6443021036737946
 30
0.0
 11
79.2759060000000346
 21
93.0644882331376948
 31
0.0
  0
LINE
  5
409A
  8
0
 62
     0
 10
79.2759060000000346
 20
94.2135367525658438
 30
0.0
 11
81.5590682981660393
 21
96.4966990507318485
 31
0.0
  0
LINE
  5
409B
  8
0
 62
     0
 10
74.4375519492681832
 20
89.3751827018340066
 30
0.0
 11
79.2759060000000346
 21
94.2135367525658438
 31
0.0
  0
LINE
  5
409C
  8
0
 62
     0
 10
79.2759060000000204
 20
95.3625852719939786
 30
0.0
 11
80.7224069398216102
 21
96.8090862118155826
 31
0.0
  0
LINE
  5
409D
  8
0
 62
     0
 10
74.1251647881844633
 20
90.2118440601784357
 30
0.0
 11
79.2759060000000204
 21
95.3625852719939786
 31
0.0
  0
LINE
  5
409E
  8
0
 62
     0
 10
79.2759060000000346
 20
96.5116337914221418
 30
0.0
 11
79.751441298374786
 21
96.9871690897968932
 31
0.0
  0
LINE
  5
409F
  8
0
 62
     0
 10
73.9470819102031527
 20
91.1828097016252599
 30
0.0
 11
79.2759060000000346
 21
96.5116337914221418
 31
0.0
  0
LINE
  5
40A0
  8
0
 62
     0
 10
73.9716444889362634
 20
92.3564207997865054
 30
0.0
 11
78.5778302002135405
 21
96.9626065110637825
 31
0.0
  0
LINE
  5
40A1
  8
0
 62
     0
 10
74.4650328645596318
 20
93.9988576948379944
 30
0.0
 11
76.9353933051620373
 21
96.4692181354404141
 31
0.0
  0
ENDBLK
  5
40A3
  8
0
  0
BLOCK
  8
0
  2
*X1
 70
     1
 10
0.0
 20
0.0
 30
0.0
  3
*X1
  1

  0
LINE
  5
40A5
  8
0
 62
     0
 10
219.5186948035816954
 20
94.0320137077799671
 30
0.0
 11
217.0977627077799923
 21
96.4529458035816845
 31
0.0
  0
LINE
  5
40A6
  8
0
 62
     0
 10
220.0257548144734869
 20
92.3759051774600266
 30
0.0
 11
215.4416541774600944
 21
96.9600058144734334
 31
0.0
  0
LINE
  5
40A7
  8
0
 62
     0
 10
214.724094000000008
 20
96.5285174725053707
 30
0.0
 11
214.2640800614724128
 21
96.9885314110329517
 31
0.0
  0
LINE
  5
40A8
  8
0
 62
     0
 10
220.0542804110328916
 20
91.1983310614723734
 30
0.0
 11
214.724094000000008
 21
96.5285174725053707
 31
0.0
  0
LINE
  5
40A9
  8
0
 62
     0
 10
214.724094000000008
 20
95.3794689530772217
 30
0.0
 11
213.2907890800993016
 21
96.8127738729779281
 31
0.0
  0
LINE
  5
40AA
  8
0
 62
     0
 10
219.8785228729778964
 20
90.2250400800993049
 30
0.0
 11
214.724094000000008
 21
95.3794689530772217
 31
0.0
  0
LINE
  5
40AB
  8
0
 62
     0
 10
214.724094000000008
 20
94.2304204336490585
 30
0.0
 11
212.4524137697544006
 21
96.5021006638946517
 31
0.0
  0
LINE
  5
40AC
  8
0
 62
     0
 10
219.5678496638946058
 20
89.3866647697544323
 30
0.0
 11
214.724094000000008
 21
94.2304204336490585
 31
0.0
  0
LINE
  5
40AD
  8
0
 62
     0
 10
214.724094000000008
 20
93.0813719142209379
 30
0.0
 11
211.7200996048308923
 21
96.0853663093899968
 31
0.0
  0
LINE
  5
40AE
  8
0
 62
     0
 10
219.151115309389894
 20
88.6543506048309524
 30
0.0
 11
214.724094000000008
 21
93.0813719142209379
 31
0.0
  0
LINE
  5
40AF
  8
0
 62
     0
 10
214.724094000000008
 20
91.9323233947927747
 30
0.0
 11
211.0805430296695135
 21
95.575874365123326
 31
0.0
  0
LINE
  5
40B0
  8
0
 62
     0
 10
218.6416233651233085
 20
88.0147940296694884
 30
0.0
 11
214.724094000000008
 21
91.9323233947927747
 31
0.0
  0
LINE
  5
40B1
  8
0
 62
     0
 10
214.724094000000008
 20
90.7832748753646399
 30
0.0
 11
210.5289249654541948
 21
94.9784439099104389
 31
0.0
  0
LINE
  5
40B2
  8
0
 62
     0
 10
218.0441929099104073
 20
87.4631759654542265
 30
0.0
 11
214.724094000000008
 21
90.7832748753646399
 31
0.0
  0
LINE
  5
40B3
  8
0
 62
     0
 10
214.724094000000008
 20
89.6342263559365051
 30
0.0
 11
210.0669028657165995
 21
94.2914174902198852
 31
0.0
  0
LINE
  5
40B4
  8
0
 62
     0
 10
217.3571664902198108
 20
87.0011538657166454
 30
0.0
 11
214.724094000000008
 21
89.6342263559365051
 31
0.0
  0
LINE
  5
40B5
  8
0
 62
     0
 10
214.724094000000008
 20
88.4851778365083703
 30
0.0
 11
209.703270686066702
 21
93.5060011504416195
 31
0.0
  0
LINE
  5
40B6
  8
0
 62
     0
 10
216.571750150441602
 20
86.6375216860667905
 30
0.0
 11
214.724094000000008
 21
88.4851778365083703
 31
0.0
  0
LINE
  5
40B7
  8
0
 62
     0
 10
214.724094000000008
 20
87.3361293170802071
 30
0.0
 11
209.4580122620990039
 21
92.6022110549812538
 31
0.0
  0
LINE
  5
40B8
  8
0
 62
     0
 10
215.6679600549811937
 20
86.3922632620990356
 30
0.0
 11
214.724094000000008
 21
87.3361293170802071
 31
0.0
  0
LINE
  5
40B9
  8
0
 62
     0
 10
214.6014232469952958
 20
86.3097515506568129
 30
0.0
 11
209.3755005506567954
 21
91.5356742469953417
 31
0.0
  0
LINE
  5
40BA
  8
0
 62
     0
 10
213.2453619117677022
 20
86.516764366456286
 30
0.0
 11
209.5825133664561974
 21
90.1796129117677339
 31
0.0
  0
LINE
  5
40BB
  8
0
 62
     0
 10
216.2266096103925008
 20
86.5236642075332867
 30
0.0
 11
219.8587747924667042
 21
90.1558293896074758
 31
0.0
  0
LINE
  5
40BC
  8
0
 62
     0
 10
214.8640734345216003
 20
86.3101765510905352
 30
0.0
 11
220.0722624489094983
 21
91.5183655654784047
 31
0.0
  0
LINE
  5
40BD
  8
0
 62
     0
 10
214.724094000000008
 20
87.3192456359970066
 30
0.0
 11
219.9927248647599072
 21
92.5878765007568916
 31
0.0
  0
LINE
  5
40BE
  8
0
 62
     0
 10
213.7945624992431135
 20
86.3897141352401405
 30
0.0
 11
214.724094000000008
 21
87.3192456359970066
 31
0.0
  0
LINE
  5
40BF
  8
0
 62
     0
 10
214.724094000000008
 20
88.4682941554251556
 30
0.0
 11
219.7494465061465121
 21
93.4936466615716029
 31
0.0
  0
LINE
  5
40C0
  8
0
 62
     0
 10
212.8887923384284022
 20
86.6329924938535783
 30
0.0
 11
214.724094000000008
 21
88.4682941554251556
 31
0.0
  0
LINE
  5
40C1
  8
0
 62
     0
 10
214.724094000000008
 20
89.6173426748532904
 30
0.0
 11
219.3873725888219894
 21
94.2806212636752576
 31
0.0
  0
LINE
  5
40C2
  8
0
 62
     0
 10
212.1018177363247901
 20
86.9950664111780725
 30
0.0
 11
214.724094000000008
 21
89.6173426748532904
 31
0.0
  0
LINE
  5
40C3
  8
0
 62
     0
 10
214.724094000000008
 20
90.7663911942814252
 30
0.0
 11
218.926712302050305
 21
94.9690094963317506
 31
0.0
  0
LINE
  5
40C4
  8
0
 62
     0
 10
211.4134295036683113
 20
87.4557266979497001
 30
0.0
 11
214.724094000000008
 21
90.7663911942814252
 31
0.0
  0
LINE
  5
40C5
  8
0
 62
     0
 10
214.724094000000008
 20
91.91543971370956
 30
0.0
 11
218.376383267101005
 21
95.5677289808105996
 31
0.0
  0
LINE
  5
40C6
  8
0
 62
     0
 10
210.8147100191893912
 20
88.0060557328989859
 30
0.0
 11
214.724094000000008
 21
91.91543971370956
 31
0.0
  0
LINE
  5
40C7
  8
0
 62
     0
 10
214.724094000000008
 20
93.0644882331376948
 30
0.0
 11
217.7381368963262105
 21
96.0785311294639257
 31
0.0
  0
LINE
  5
40C8
  8
0
 62
     0
 10
210.3039078705361078
 20
88.6443021036737946
 30
0.0
 11
214.724094000000008
 21
93.0644882331376948
 31
0.0
  0
LINE
  5
40C9
  8
0
 62
     0
 10
214.724094000000008
 20
94.2135367525658438
 30
0.0
 11
217.0072562981659985
 21
96.4966990507318343
 31
0.0
  0
LINE
  5
40CA
  8
0
 62
     0
 10
209.8857399492682134
 20
89.3751827018340066
 30
0.0
 11
214.724094000000008
 21
94.2135367525658438
 31
0.0
  0
LINE
  5
40CB
  8
0
 62
     0
 10
214.724094000000008
 20
95.3625852719939786
 30
0.0
 11
216.1705949398215978
 21
96.8090862118155542
 31
0.0
  0
LINE
  5
40CC
  8
0
 62
     0
 10
209.5733527881843941
 20
90.2118440601784357
 30
0.0
 11
214.724094000000008
 21
95.3625852719939786
 31
0.0
  0
LINE
  5
40CD
  8
0
 62
     0
 10
214.724094000000008
 20
96.5116337914221134
 30
0.0
 11
215.1996292983747026
 21
96.9871690897968648
 31
0.0
  0
LINE
  5
40CE
  8
0
 62
     0
 10
209.3952699102030977
 20
91.1828097016252599
 30
0.0
 11
214.724094000000008
 21
96.5116337914221134
 31
0.0
  0
LINE
  5
40CF
  8
0
 62
     0
 10
209.4198324889362084
 20
92.356420799786477
 30
0.0
 11
214.0260182002135139
 21
96.9626065110637825
 31
0.0
  0
LINE
  5
40D0
  8
0
 62
     0
 10
209.9132208645594915
 20
93.9988576948379659
 30
0.0
 11
212.3835813051620107
 21
96.4692181354404568
 31
0.0
  0
ENDBLK
  5
40D2
  8
0
  0
ENDSEC
  0
SECTION
  2
ENTITIES
  0
LINE
  5
52E
  8
0
 10
172.4999948537476087
 20
183.6584279999999865
 30
0.0
 11
121.5000051462523061
 21
183.6584279999999865
 31
0.0
  0
LINE
  5
531
  8
0
 10
172.4999948537476087
 20
153.6584279999999865
 30
0.0
 11
121.5000051462523061
 21
153.6584279999999865
 31
0.0
  0
LINE
  5
534
  8
0
 10
163.5999999999999943
 20
148.1584279999999865
 30
0.0
 11
157.1999999999999886
 21
148.1584279999999865
 31
0.0
  0
LINE
  5
535
  8
1
 10
182.9999948537476087
 20
168.6584279999999865
 30
0.0
 11
111.0000051462524056
 21
168.6584279999999865
 31
0.0
  0
LINE
  5
536
  8
0
 10
165.9199999999999875
 20
166.6584279999999865
 30
0.0
 11
165.9199999999999875
 21
170.6584279999999865
 31
0.0
  0
LINE
  5
537
  8
0
 10
165.9199999999999875
 20
166.6584279999999865
 30
0.0
 11
158.4199999999999875
 21
153.6584279999999865
 31
0.0
  0
LINE
  5
538
  8
0
 10
165.9199999999999875
 20
170.6584279999999865
 30
0.0
 11
158.4199999999999875
 21
183.6584279999999865
 31
0.0
  0
LINE
  5
539
  8
0
 10
128.0800000000000125
 20
170.6584279999999865
 30
0.0
 11
135.5800000000000125
 21
183.6584279999999865
 31
0.0
  0
LINE
  5
53A
  8
0
 10
128.0800000000000125
 20
166.6584279999999865
 30
0.0
 11
135.5800000000000125
 21
153.6584279999999865
 31
0.0
  0
LINE
  5
53B
  8
0
 10
128.0800000000000125
 20
166.6584279999999865
 30
0.0
 11
128.0800000000000125
 21
170.6584279999999865
 31
0.0
  0
LINE
  5
53C
  8
1
 10
147.0
 20
143.1584279999999865
 30
0.0
 11
147.0
 21
194.1584279999999865
 31
0.0
  0
LINE
  5
53D
  8
1
 10
148.0
 20
157.9084279999999865
 30
0.0
 11
148.0
 21
179.4084279999999865
 31
0.0
  0
LINE
  5
53E
  8
1
 10
146.0
 20
157.9084279999999865
 30
0.0
 11
146.0
 21
179.4084279999999865
 31
0.0
  0
TEXT
  5
53F
  8
0
 10
137.3833333333332973
 20
178.9584279999999978
 30
0.0
 40
3.2000000000000002
  1
O
 72
     4
 11
138.4499999999999886
 21
180.5584279999999922
 31
0.0
  0
TEXT
  5
540
  8
0
 10
140.3833333333332973
 20
178.9584279999999978
 30
0.0
 40
3.2000000000000002
  1
K
 72
     4
 11
141.4499999999999886
 21
180.5584279999999922
 31
0.0
  0
TEXT
  5
541
  8
0
 10
143.3833333333332973
 20
178.9584279999999978
 30
0.0
 40
3.2000000000000002
  1
-
 72
     4
 11
144.4499999999999886
 21
180.5584279999999922
 31
0.0
  0
TEXT
  5
542
  8
0
 10
145.8499999999999943
 20
178.9584279999999978
 30
0.0
 40
3.2000000000000002
  1
V
 72
     4
 11
147.4499999999999886
 21
180.5584279999999922
 31
0.0
  0
TEXT
  5
543
  8
0
 10
149.9166666666666003
 20
178.9584279999999978
 30
0.0
 40
3.2000000000000002
  1
I
 72
     4
 11
150.4499999999999886
 21
180.5584279999999922
 31
0.0
  0
TEXT
  5
544
  8
0
 10
152.3833333333332973
 20
178.9584279999999978
 30
0.0
 40
3.2000000000000002
  1
S
 72
     4
 11
153.4499999999999886
 21
180.5584279999999922
 31
0.0
  0
TEXT
  5
545
  8
0
 10
155.3833333333332973
 20
178.9584279999999978
 30
0.0
 40
3.2000000000000002
  1
E
 72
     4
 11
156.4499999999999886
 21
180.5584279999999922
 31
0.0
  0
TEXT
  5
546
  8
0
 10
153.1833333333333087
 20
154.6440680000000043
 30
0.0
 40
3.2000000000000002
  1
T
 72
     4
 11
154.25
 21
156.2440679999999986
 31
0.0
  0
TEXT
  5
547
  8
0
 10
149.6500000000000057
 20
154.6440680000000043
 30
0.0
 40
3.2000000000000002
  1
V
 72
     4
 11
151.25
 21
156.2440679999999986
 31
0.0
  0
TEXT
  5
548
  8
0
 10
147.1833333333333087
 20
154.6440680000000043
 30
0.0
 40
3.2000000000000002
  1
-
 72
     4
 11
148.25
 21
156.2440679999999986
 31
0.0
  0
TEXT
  5
549
  8
0
 10
144.1833333333333087
 20
154.6440680000000043
 30
0.0
 40
3.2000000000000002
  1
2
 72
     4
 11
145.25
 21
156.2440679999999986
 31
0.0
  0
TEXT
  5
54A
  8
0
 10
141.1833333333333087
 20
154.6440680000000043
 30
0.0
 40
3.2000000000000002
  1
K
 72
     4
 11
142.25
 21
156.2440679999999986
 31
0.0
  0
TEXT
  5
54B
  8
0
 10
138.1833333333333087
 20
154.6440680000000043
 30
0.0
 40
3.2000000000000002
  1
D
 72
     4
 11
139.25
 21
156.2440679999999986
 31
0.0
  0
LINE
  5
54C
  8
0
 10
129.4000000000000057
 20
149.1584279999999865
 30
0.0
 11
129.4000000000000057
 21
149.9584279999999978
 31
0.0
  0
LINE
  5
54D
  8
0
 10
164.5999999999999943
 20
149.1584279999999865
 30
0.0
 11
164.5999999999999943
 21
149.9584279999999978
 31
0.0
  0
LINE
  5
54E
  8
0
 10
136.8000000000000114
 20
148.1584279999999865
 30
0.0
 11
136.8000000000000114
 21
153.6584279999999865
 31
0.0
  0
LINE
  5
54F
  8
0
 10
157.1999999999999886
 20
148.1584279999999865
 30
0.0
 11
157.1999999999999886
 21
153.6584279999999865
 31
0.0
  0
LINE
  5
550
  8
0
 10
136.8000000000000114
 20
148.1584279999999865
 30
0.0
 11
130.4000000000000057
 21
148.1584279999999865
 31
0.0
  0
LINE
  5
551
  8
0
 10
129.4000000000000057
 20
149.1584279999999865
 30
0.0
 11
130.4000000000000057
 21
148.1584279999999865
 31
0.0
  0
LINE
  5
552
  8
0
 10
163.5999999999999943
 20
148.1584279999999865
 30
0.0
 11
164.5999999999999943
 21
149.1584279999999865
 31
0.0
  0
LINE
  5
553
  8
0
 10
164.5999999999999943
 20
149.1584279999999865
 30
0.0
 11
157.1999999999999886
 21
149.1584279999999865
 31
0.0
  0
LINE
  5
554
  8
0
 10
136.8000000000000114
 20
149.1584279999999865
 30
0.0
 11
129.4000000000000057
 21
149.1584279999999865
 31
0.0
  0
LINE
  5
555
  8
0
 10
164.75
 20
150.1584279999999865
 30
0.0
 11
157.4000000000000057
 21
150.1584279999999865
 31
0.0
  0
LINE
  5
556
  8
0
 10
136.5999999999999943
 20
150.1584279999999865
 30
0.0
 11
129.25
 21
150.1584279999999865
 31
0.0
  0
LINE
  5
557
  8
0
 10
129.4000000000000057
 20
149.9584279999999978
 30
0.0
 11
129.5999999999999943
 21
150.1584279999999865
 31
0.0
  0
LINE
  5
558
  8
0
 10
136.5999999999999943
 20
150.1584279999999865
 30
0.0
 11
136.8000000000000114
 21
149.9584279999999978
 31
0.0
  0
LINE
  5
559
  8
0
 10
157.1999999999999886
 20
149.9584279999999978
 30
0.0
 11
157.4000000000000057
 21
150.1584279999999865
 31
0.0
  0
LINE
  5
55A
  8
0
 10
164.5999999999999943
 20
149.9584279999999978
 30
0.0
 11
164.4000000000000057
 21
150.1584279999999865
 31
0.0
  0
LINE
  5
55B
  8
0
 10
157.1999999999999886
 20
149.9212179999998966
 30
0.0
 11
136.8000000000000114
 21
149.9212179999998966
 31
0.0
  0
ARC
  5
55C
  8
0
 10
129.25
 20
151.9084279999999865
 30
0.0
 40
1.75
 50
90.0
 51
270.0
  0
ARC
  5
55D
  8
0
 10
164.75
 20
151.9084279999999865
 30
0.0
 40
1.75
 50
270.0
 51
90.0
  0
ARC
  5
55E
  8
0
 10
164.4126709999999889
 20
151.9084279999999865
 30
0.0
 40
1.75
 50
270.0
 51
90.0
  0
ARC
  5
55F
  8
0
 10
163.9943829999999991
 20
151.9084279999999865
 30
0.0
 40
1.75
 50
270.0
 51
90.0
  0
ARC
  5
560
  8
0
 10
163.4951360000000022
 20
151.9084279999999865
 30
0.0
 40
1.75
 50
270.0
 51
90.0
  0
ARC
  5
561
  8
0
 10
162.941915999999992
 20
151.9084279999999865
 30
0.0
 40
1.75
 50
270.0
 51
90.0
  0
ARC
  5
562
  8
0
 10
162.2537639999999897
 20
151.9084279999999865
 30
0.0
 40
1.75
 50
270.0
 51
90.0
  0
ARC
  5
563
  8
0
 10
159.6495830000000069
 20
151.9084279999999865
 30
0.0
 40
2.2336419999999988
 50
308.4202579999999898
 51
51.5797419999999889
  0
ARC
  5
564
  8
0
 10
159.0963639999999941
 20
151.9084279999999865
 30
0.0
 40
2.2336419999999988
 50
308.4202579999999898
 51
51.5797419999999889
  0
ARC
  5
565
  8
0
 10
158.4621850000000052
 20
151.9084279999999865
 30
0.0
 40
2.2336419999999988
 50
308.4202579999999898
 51
51.5797419999999889
  0
ARC
  5
566
  8
0
 10
157.7740330000000029
 20
151.9084279999999865
 30
0.0
 40
2.2336419999999988
 50
308.4202579999999898
 51
51.5797419999999889
  0
ARC
  5
567
  8
0
 10
157.085881999999998
 20
151.9084279999999865
 30
0.0
 40
2.2336419999999988
 50
308.4202579999999898
 51
51.5797419999999889
  0
ARC
  5
568
  8
0
 10
156.3032780000000059
 20
151.9084279999999865
 30
0.0
 40
2.2336419999999988
 50
308.4202579999999898
 51
51.5797419999999889
  0
ARC
  5
569
  8
0
 10
155.5881410000000074
 20
151.9084279999999865
 30
0.0
 40
2.2336419999999988
 50
316.1890799999999899
 51
43.810920000000003
  0
ARC
  5
56A
  8
0
 10
159.9599259999999958
 20
151.9084279999999865
 30
0.0
 40
2.3955599999999988
 50
313.0701530000000048
 51
46.9298469999999881
  0
ARC
  5
56B
  8
0
 10
160.4591729999999927
 20
151.9084279999999865
 30
0.0
 40
2.3955599999999988
 50
313.0701530000000048
 51
46.9298469999999881
  0
ARC
  5
56C
  8
0
 10
161.4079190554325862
 20
151.9110575490981034
 30
0.0
 40
1.9460637211103731
 50
295.7626440143911282
 51
63.8834048992672123
  0
ARC
  5
56D
  8
0
 10
132.5879064493919941
 20
151.9084279999999865
 30
0.0
 40
1.9418828866282341
 50
115.6854392505756977
 51
244.3145607494249987
  0
ARC
  5
56E
  8
0
 10
133.5408270000000073
 20
151.9084279999999865
 30
0.0
 40
2.3955599999999988
 50
133.0701530000000048
 51
226.9298469999999952
  0
ARC
  5
56F
  8
0
 10
134.0400740000000042
 20
151.9084279999999865
 30
0.0
 40
2.3955599999999988
 50
133.0701530000000048
 51
226.9298469999999952
  0
ARC
  5
570
  8
0
 10
138.4118589999999926
 20
151.9084279999999865
 30
0.0
 40
2.2336419999999988
 50
136.1890799999999899
 51
223.8109200000000101
  0
ARC
  5
571
  8
0
 10
137.6967219999999941
 20
151.9084279999999865
 30
0.0
 40
2.2336419999999988
 50
128.4202579999999898
 51
231.5797420000000102
  0
ARC
  5
572
  8
0
 10
136.914118000000002
 20
151.9084279999999865
 30
0.0
 40
2.2336419999999988
 50
128.4202579999999898
 51
231.5797420000000102
  0
ARC
  5
573
  8
0
 10
136.2259669999999971
 20
151.9084279999999865
 30
0.0
 40
2.2336419999999988
 50
128.4202579999999898
 51
231.5797420000000102
  0
ARC
  5
574
  8
0
 10
135.5378149999999948
 20
151.9084279999999865
 30
0.0
 40
2.2336419999999988
 50
128.4202579999999898
 51
231.5797420000000102
  0
ARC
  5
575
  8
0
 10
134.9036360000000059
 20
151.9084279999999865
 30
0.0
 40
2.2336419999999988
 50
128.4202579999999898
 51
231.5797420000000102
  0
ARC
  5
576
  8
0
 10
134.3504169999999931
 20
151.9084279999999865
 30
0.0
 40
2.2336419999999988
 50
128.4202579999999898
 51
231.5797420000000102
  0
ARC
  5
577
  8
0
 10
131.7462360000000103
 20
151.9084279999999865
 30
0.0
 40
1.75
 50
90.0
 51
270.0
  0
ARC
  5
578
  8
0
 10
131.058084000000008
 20
151.9084279999999865
 30
0.0
 40
1.75
 50
90.0
 51
270.0
  0
ARC
  5
579
  8
0
 10
130.5048639999999978
 20
151.9084279999999865
 30
0.0
 40
1.75
 50
90.0
 51
270.0
  0
ARC
  5
57A
  8
0
 10
130.0056170000000009
 20
151.9084279999999865
 30
0.0
 40
1.75
 50
90.0
 51
270.0
  0
ARC
  5
57B
  8
0
 10
129.5873290000000111
 20
151.9084279999999865
 30
0.0
 40
1.75
 50
90.0
 51
270.0
  0
ARC
  5
57C
  8
0
 10
129.5873290000000111
 20
185.4084279999999865
 30
0.0
 40
1.75
 50
90.0
 51
270.0
  0
ARC
  5
57D
  8
0
 10
130.0056170000000009
 20
185.4084279999999865
 30
0.0
 40
1.75
 50
90.0
 51
270.0
  0
ARC
  5
57E
  8
0
 10
130.5048639999999978
 20
185.4084279999999865
 30
0.0
 40
1.75
 50
90.0
 51
270.0
  0
ARC
  5
57F
  8
0
 10
131.058084000000008
 20
185.4084279999999865
 30
0.0
 40
1.75
 50
90.0
 51
270.0
  0
ARC
  5
580
  8
0
 10
131.7462360000000103
 20
185.4084279999999865
 30
0.0
 40
1.75
 50
90.0
 51
270.0
  0
ARC
  5
581
  8
0
 10
134.3504169999999931
 20
185.4084279999999865
 30
0.0
 40
2.2336419999999988
 50
128.4202579999999898
 51
231.5797420000000102
  0
ARC
  5
582
  8
0
 10
134.9036360000000059
 20
185.4084279999999865
 30
0.0
 40
2.2336419999999988
 50
128.4202579999999898
 51
231.5797420000000102
  0
ARC
  5
583
  8
0
 10
135.5378149999999948
 20
185.4084279999999865
 30
0.0
 40
2.2336419999999988
 50
128.4202579999999898
 51
231.5797420000000102
  0
ARC
  5
584
  8
0
 10
136.2259669999999971
 20
185.4084279999999865
 30
0.0
 40
2.2336419999999988
 50
128.4202579999999898
 51
231.5797420000000102
  0
ARC
  5
585
  8
0
 10
136.914118000000002
 20
185.4084279999999865
 30
0.0
 40
2.2336419999999988
 50
128.4202579999999898
 51
231.5797420000000102
  0
ARC
  5
586
  8
0
 10
137.6967219999999941
 20
185.4084279999999865
 30
0.0
 40
2.2336419999999988
 50
128.4202579999999898
 51
231.5797420000000102
  0
ARC
  5
587
  8
0
 10
138.4118589999999926
 20
185.4084279999999865
 30
0.0
 40
2.2336419999999988
 50
136.1890799999999899
 51
223.8109200000000101
  0
ARC
  5
588
  8
0
 10
134.0400740000000042
 20
185.4084279999999865
 30
0.0
 40
2.3955599999999988
 50
133.0701530000000048
 51
226.9298469999999952
  0
ARC
  5
589
  8
0
 10
133.5408270000000073
 20
185.4084279999999865
 30
0.0
 40
2.3955599999999988
 50
133.0701530000000048
 51
226.9298469999999952
  0
ARC
  5
58A
  8
0
 10
132.5879064493919941
 20
185.4084279999999865
 30
0.0
 40
1.94188288662831
 50
115.6854392505764935
 51
244.3145607494228102
  0
ARC
  5
58B
  8
0
 10
161.4120935506080912
 20
185.4084279999999865
 30
0.0
 40
1.941882886628236
 50
295.6854392505719034
 51
64.3145607494273577
  0
ARC
  5
58C
  8
0
 10
160.4591729999999927
 20
185.4084279999999865
 30
0.0
 40
2.3955599999999988
 50
313.0701530000000048
 51
46.9298469999999881
  0
ARC
  5
58D
  8
0
 10
159.9599259999999958
 20
185.4084279999999865
 30
0.0
 40
2.3955599999999988
 50
313.0701530000000048
 51
46.9298469999999881
  0
ARC
  5
58E
  8
0
 10
155.5881410000000074
 20
185.4084279999999865
 30
0.0
 40
2.2336419999999988
 50
316.1890799999999899
 51
43.810920000000003
  0
ARC
  5
58F
  8
0
 10
156.3032780000000059
 20
185.4084279999999865
 30
0.0
 40
2.2336419999999988
 50
308.4202579999999898
 51
51.5797419999999889
  0
ARC
  5
590
  8
0
 10
157.085881999999998
 20
185.4084279999999865
 30
0.0
 40
2.2336419999999988
 50
308.4202579999999898
 51
51.5797419999999889
  0
ARC
  5
591
  8
0
 10
157.7740330000000029
 20
185.4084279999999865
 30
0.0
 40
2.2336419999999988
 50
308.4202579999999898
 51
51.5797419999999889
  0
ARC
  5
592
  8
0
 10
158.4621850000000052
 20
185.4084279999999865
 30
0.0
 40
2.2336419999999988
 50
308.4202579999999898
 51
51.5797419999999889
  0
ARC
  5
593
  8
0
 10
159.0963639999999941
 20
185.4084279999999865
 30
0.0
 40
2.2336419999999988
 50
308.4202579999999898
 51
51.5797419999999889
  0
ARC
  5
594
  8
0
 10
159.6495830000000069
 20
185.4084279999999865
 30
0.0
 40
2.2336419999999988
 50
308.4202579999999898
 51
51.5797419999999889
  0
ARC
  5
595
  8
0
 10
162.2537639999999897
 20
185.4084279999999865
 30
0.0
 40
1.75
 50
270.0
 51
90.0
  0
ARC
  5
596
  8
0
 10
162.941915999999992
 20
185.4084279999999865
 30
0.0
 40
1.75
 50
270.0
 51
90.0
  0
ARC
  5
597
  8
0
 10
163.4951360000000022
 20
185.4084279999999865
 30
0.0
 40
1.75
 50
270.0
 51
90.0
  0
ARC
  5
598
  8
0
 10
163.9943829999999991
 20
185.4084279999999865
 30
0.0
 40
1.75
 50
270.0
 51
90.0
  0
ARC
  5
599
  8
0
 10
164.4126709999999889
 20
185.4084279999999865
 30
0.0
 40
1.75
 50
270.0
 51
90.0
  0
ARC
  5
59A
  8
0
 10
164.75
 20
185.4084279999999865
 30
0.0
 40
1.75
 50
270.0
 51
90.0
  0
ARC
  5
59B
  8
0
 10
129.25
 20
185.4084279999999865
 30
0.0
 40
1.75
 50
90.0
 51
270.0
  0
LINE
  5
59C
  8
0
 10
157.1999999999999886
 20
187.3956379999999911
 30
0.0
 11
136.8000000000000114
 21
187.3956379999999911
 31
0.0
  0
LINE
  5
59D
  8
0
 10
164.5999999999999943
 20
187.3584280000000035
 30
0.0
 11
164.4000000000000057
 21
187.1584279999999865
 31
0.0
  0
LINE
  5
59E
  8
0
 10
157.1999999999999886
 20
187.3584280000000035
 30
0.0
 11
157.4000000000000057
 21
187.1584279999999865
 31
0.0
  0
LINE
  5
59F
  8
0
 10
136.5999999999999943
 20
187.1584279999999865
 30
0.0
 11
136.8000000000000114
 21
187.3584280000000035
 31
0.0
  0
LINE
  5
5A0
  8
0
 10
129.4000000000000057
 20
187.3584280000000035
 30
0.0
 11
129.5999999999999943
 21
187.1584279999999865
 31
0.0
  0
LINE
  5
5A1
  8
0
 10
136.5999999999999943
 20
187.1584279999999865
 30
0.0
 11
129.25
 21
187.1584279999999865
 31
0.0
  0
LINE
  5
5A2
  8
0
 10
164.75
 20
187.1584279999999865
 30
0.0
 11
157.4000000000000057
 21
187.1584279999999865
 31
0.0
  0
LINE
  5
5A3
  8
0
 10
136.8000000000000114
 20
188.1584279999999865
 30
0.0
 11
129.4000000000000057
 21
188.1584279999999865
 31
0.0
  0
LINE
  5
5A4
  8
0
 10
164.5999999999999943
 20
188.1584279999999865
 30
0.0
 11
157.1999999999999886
 21
188.1584279999999865
 31
0.0
  0
LINE
  5
5A5
  8
0
 10
163.5999999999999943
 20
189.1584279999999865
 30
0.0
 11
164.5999999999999943
 21
188.1584279999999865
 31
0.0
  0
LINE
  5
5A6
  8
0
 10
129.4000000000000057
 20
188.1584279999999865
 30
0.0
 11
130.4000000000000057
 21
189.1584279999999865
 31
0.0
  0
LINE
  5
5A7
  8
0
 10
136.8000000000000114
 20
189.1584279999999865
 30
0.0
 11
130.4000000000000057
 21
189.1584279999999865
 31
0.0
  0
LINE
  5
5A8
  8
0
 10
157.1999999999999886
 20
189.1584279999999865
 30
0.0
 11
157.1999999999999886
 21
183.6584279999999865
 31
0.0
  0
LINE
  5
5A9
  8
0
 10
136.8000000000000114
 20
189.1584279999999865
 30
0.0
 11
136.8000000000000114
 21
183.6584279999999865
 31
0.0
  0
LINE
  5
5AA
  8
0
 10
164.5999999999999943
 20
188.1584279999999865
 30
0.0
 11
164.5999999999999943
 21
187.3584280000000035
 31
0.0
  0
LINE
  5
5AB
  8
0
 10
129.4000000000000057
 20
188.1584279999999865
 30
0.0
 11
129.4000000000000057
 21
187.3584280000000035
 31
0.0
  0
LINE
  5
5AC
  8
0
 10
163.5999999999999943
 20
189.1584279999999865
 30
0.0
 11
157.1999999999999886
 21
189.1584279999999865
 31
0.0
  0
ARC
  5
5AE
  8
0
 10
148.0
 20
168.6584279999999865
 30
0.0
 40
6.25
 50
270.0
 51
90.0
  0
ARC
  5
5AF
  8
0
 10
148.0
 20
168.6584279999999865
 30
0.0
 40
9.25
 50
270.0
 51
90.0
  0
ARC
  5
5B0
  8
0
 10
146.0
 20
168.6584279999999865
 30
0.0
 40
9.25
 50
90.0
 51
270.0
  0
ARC
  5
5B1
  8
0
 10
146.0
 20
168.6584279999999865
 30
0.0
 40
6.25
 50
90.0
 51
270.0
  0
LINE
  5
5B2
  8
0
 10
146.0
 20
162.4084279999999865
 30
0.0
 11
148.0
 21
162.4084279999999865
 31
0.0
  0
LINE
  5
5B3
  8
0
 10
146.0
 20
159.4084279999999865
 30
0.0
 11
148.0
 21
159.4084279999999865
 31
0.0
  0
LINE
  5
5B4
  8
0
 10
146.0
 20
174.9084279999999865
 30
0.0
 11
148.0
 21
174.9084279999999865
 31
0.0
  0
LINE
  5
5B5
  8
0
 10
146.0
 20
177.9084279999999865
 30
0.0
 11
148.0
 21
177.9084279999999865
 31
0.0
  0
TEXT
  5
6F4
  8
0
 62
     3
 10
0.0
 20
0.0
 30
0.0
 40
10.0
  1
DK2-VT-P
  7
STANDARD1
  0
LINE
  5
91D
  8
3
 10
89.7103689999999858
 20
82.7440939999999898
 30
0.0
 11
91.7244560000000035
 21
83.9525469999999956
 31
0.0
  0
LINE
  5
91E
  8
3
 10
89.7103689999999858
 20
82.5725959999999901
 30
0.0
 11
91.7244560000000035
 21
81.3641429999999986
 31
0.0
  0
LINE
  5
91F
  8
3
 10
91.8273549999999688
 20
81.3641429999999986
 30
0.0
 11
93.8414430000000266
 21
82.5725959999999901
 31
0.0
  0
LINE
  5
920
  8
3
 10
91.8273549999999688
 20
83.9525469999999956
 30
0.0
 11
93.8414430000000266
 21
82.7440939999999898
 31
0.0
  0
LINE
  5
921
  8
0
 10
94.2759060000000062
 20
106.4583449999999942
 30
0.0
 11
94.2759060000000062
 21
80.6583449999999971
 31
0.0
  0
LINE
  5
922
  8
0
 10
64.2759060000000204
 20
102.6583449999999971
 30
0.0
 11
94.2759060000000062
 21
102.6583449999999971
 31
0.0
  0
LINE
  5
923
  8
0
 10
64.2759060000000204
 20
80.6583449999999971
 30
0.0
 11
64.2759060000000204
 21
106.4583449999999942
 31
0.0
  0
LINE
  5
924
  8
0
 10
94.2759060000000062
 20
80.6583449999999971
 30
0.0
 11
64.2759060000000204
 21
80.6583449999999971
 31
0.0
  0
ARC
  5
925
  8
3
 10
93.7899930669310464
 20
82.6583449999999829
 30
0.0
 40
0.0999999330689841
 50
300.9640184329088015
 51
59.0359815670953125
  0
ARC
  5
926
  8
3
 10
91.7759054999999648
 20
81.4498969842081664
 30
0.0
 40
0.1000039842097412
 50
239.0376635472173064
 51
300.9623364527967055
  0
ARC
  5
927
  8
3
 10
89.7618168733704636
 20
82.6583449999999544
 30
0.0
 40
0.0999988733703953
 50
120.9630064794553022
 51
239.0369935205320928
  0
ARC
  5
928
  8
3
 10
91.7759055000000075
 20
83.8667930157676267
 30
0.0
 40
0.1000039842304938
 50
59.0376635543507717
 51
120.9623364456631975
  0
ARC
  5
929
  8
3
 10
91.7759054999999648
 20
86.8667930157918562
 30
0.0
 40
0.1000039842097388
 50
59.0376635471879183
 51
120.9623364527798941
  0
ARC
  5
92A
  8
3
 10
89.7618168733704351
 20
85.6583449999999971
 30
0.0
 40
0.0999988733703636
 50
120.9630064794566948
 51
239.0369935205474974
  0
ARC
  5
92B
  8
3
 10
91.7759055000000075
 20
84.4498969842322396
 30
0.0
 40
0.1000039842303988
 50
239.0376635542990016
 51
300.9623364456896866
  0
ARC
  5
92C
  8
3
 10
93.7899930669311317
 20
85.6583449999999971
 30
0.0
 40
0.0999999330689524
 50
300.9640184328628152
 51
59.0359815671288075
  0
LINE
  5
92D
  8
3
 10
91.8273549999999688
 20
86.9525469999999956
 30
0.0
 11
93.8414430000000266
 21
85.7440939999999756
 31
0.0
  0
LINE
  5
92E
  8
3
 10
91.8273549999999688
 20
84.3641429999999986
 30
0.0
 11
93.8414430000000266
 21
85.5725960000000043
 31
0.0
  0
LINE
  5
92F
  8
3
 10
89.7103689999999858
 20
85.5725960000000043
 30
0.0
 11
91.7244560000000035
 21
84.3641429999999986
 31
0.0
  0
LINE
  5
930
  8
3
 10
89.7103689999999858
 20
85.7440939999999756
 30
0.0
 11
91.7244560000000035
 21
86.9525469999999956
 31
0.0
  0
ARC
  5
931
  8
3
 10
91.7759054999999648
 20
89.8667930157918278
 30
0.0
 40
0.1000039842097632
 50
59.0376635471963027
 51
120.962336452771595
  0
ARC
  5
932
  8
3
 10
89.7618168733704209
 20
88.6583450000000255
 30
0.0
 40
0.0999988733703246
 50
120.9630064794510957
 51
239.0369935205725085
  0
ARC
  5
933
  8
3
 10
91.7759055000000075
 20
87.4498969842322538
 30
0.0
 40
0.1000039842304109
 50
239.0376635543032933
 51
300.9623364456854802
  0
ARC
  5
934
  8
3
 10
93.7899930669311317
 20
88.6583449999999829
 30
0.0
 40
0.0999999330689402
 50
300.9640184328670216
 51
59.0359815671357993
  0
LINE
  5
935
  8
3
 10
91.8273549999999688
 20
89.9525469999999956
 30
0.0
 11
93.8414430000000266
 21
88.7440939999999898
 31
0.0
  0
LINE
  5
936
  8
3
 10
91.8273549999999688
 20
87.3641429999999843
 30
0.0
 11
93.8414430000000266
 21
88.5725959999999901
 31
0.0
  0
LINE
  5
937
  8
3
 10
89.7103689999999858
 20
88.5725959999999901
 30
0.0
 11
91.7244560000000035
 21
87.3641429999999843
 31
0.0
  0
LINE
  5
938
  8
3
 10
89.7103689999999858
 20
88.7440939999999898
 30
0.0
 11
91.7244560000000035
 21
89.9525469999999956
 31
0.0
  0
ARC
  5
939
  8
3
 10
91.7759055000000075
 20
92.8667930157676267
 30
0.0
 40
0.1000039842304938
 50
59.0376635543507717
 51
120.9623364456631975
  0
ARC
  5
93A
  8
3
 10
89.7618168733704351
 20
91.6583449999999829
 30
0.0
 40
0.0999988733703758
 50
120.9630064794525026
 51
239.036993520543291
  0
ARC
  5
93B
  8
3
 10
91.7759054999999648
 20
90.4498969842081664
 30
0.0
 40
0.1000039842097412
 50
239.0376635472173064
 51
300.9623364527967055
  0
ARC
  5
93C
  8
3
 10
93.7899930669310748
 20
91.6583449999999686
 30
0.0
 40
0.09999993306895
 50
300.9640184328920895
 51
59.0359815671204373
  0
LINE
  5
93D
  8
3
 10
91.8273549999999688
 20
92.9525469999999956
 30
0.0
 11
93.8414430000000266
 21
91.744094000000004
 31
0.0
  0
LINE
  5
93E
  8
3
 10
91.8273549999999688
 20
90.3641429999999986
 30
0.0
 11
93.8414430000000266
 21
91.5725959999999901
 31
0.0
  0
LINE
  5
93F
  8
3
 10
89.7103689999999858
 20
91.5725959999999901
 30
0.0
 11
91.7244560000000035
 21
90.3641429999999986
 31
0.0
  0
LINE
  5
940
  8
3
 10
89.7103689999999858
 20
91.744094000000004
 30
0.0
 11
91.7244560000000035
 21
92.9525469999999956
 31
0.0
  0
ARC
  5
941
  8
3
 10
91.7759055000000075
 20
95.8667930157676267
 30
0.0
 40
0.1000039842304816
 50
59.0376635543465795
 51
120.962336445667404
  0
ARC
  5
942
  8
3
 10
89.7618168733704778
 20
94.6583449999999971
 30
0.0
 40
0.0999988733703782
 50
120.9630064794707067
 51
239.0369935205335139
  0
ARC
  5
943
  8
3
 10
91.7759054999999648
 20
93.449896984208209
 30
0.0
 40
0.1000039842097778
 50
239.0376635472298119
 51
300.9623364527842
  0
ARC
  5
944
  8
3
 10
93.7899930669310606
 20
94.6583450000000113
 30
0.0
 40
0.0999999330690012
 50
300.9640184328935106
 51
59.0359815670938985
  0
LINE
  5
945
  8
3
 10
91.8273549999999688
 20
95.9525469999999956
 30
0.0
 11
93.8414430000000266
 21
94.7440939999999756
 31
0.0
  0
LINE
  5
946
  8
3
 10
91.8273549999999688
 20
93.3641429999999843
 30
0.0
 11
93.8414430000000266
 21
94.5725959999999759
 31
0.0
  0
LINE
  5
947
  8
3
 10
89.7103689999999858
 20
94.5725959999999759
 30
0.0
 11
91.7244560000000035
 21
93.3641429999999843
 31
0.0
  0
LINE
  5
948
  8
3
 10
89.7103689999999858
 20
94.7440939999999756
 30
0.0
 11
91.7244560000000035
 21
95.9525469999999956
 31
0.0
  0
ARC
  5
949
  8
3
 10
91.7759055000000359
 20
98.8667930157677546
 30
0.0
 40
0.1000039842303768
 50
59.0376635543200408
 51
120.9623364457079049
  0
ARC
  5
94A
  8
3
 10
89.7618168733704778
 20
97.6583449999999971
 30
0.0
 40
0.0999988733703782
 50
120.9630064794707067
 51
239.0369935205335139
  0
ARC
  5
94B
  8
3
 10
91.7759054999999648
 20
96.4498969842081948
 30
0.0
 40
0.1000039842097656
 50
239.0376635472256055
 51
300.9623364527882927
  0
ARC
  5
94C
  8
3
 10
93.7899930669310748
 20
97.6583449999999829
 30
0.0
 40
0.0999999330689622
 50
300.9640184328878831
 51
59.035981567116238
  0
LINE
  5
94D
  8
3
 10
91.8273549999999688
 20
98.9525469999999956
 30
0.0
 11
93.8414430000000266
 21
97.7440939999999898
 31
0.0
  0
LINE
  5
94E
  8
3
 10
91.8273549999999688
 20
96.3641429999999986
 30
0.0
 11
93.8414430000000266
 21
97.5725959999999901
 31
0.0
  0
LINE
  5
94F
  8
3
 10
89.7103689999999858
 20
97.5725959999999901
 30
0.0
 11
91.7244560000000035
 21
96.3641429999999986
 31
0.0
  0
LINE
  5
950
  8
3
 10
89.7103689999999858
 20
97.7440939999999898
 30
0.0
 11
91.7244560000000035
 21
98.9525469999999956
 31
0.0
  0
ARC
  5
951
  8
3
 10
91.7759055000000075
 20
101.8667930157675983
 30
0.0
 40
0.1000039842304816
 50
59.0376635543465795
 51
120.962336445667404
  0
ARC
  5
952
  8
3
 10
89.7618168733704636
 20
100.6583449999998976
 30
0.0
 40
0.0999988733704075
 50
120.9630064794510957
 51
239.0369935205278864
  0
ARC
  5
953
  8
3
 10
91.7759054999999648
 20
99.4498969842081948
 30
0.0
 40
0.1000039842097656
 50
239.0376635472256055
 51
300.9623364527882927
  0
ARC
  5
954
  8
3
 10
93.7899930669310748
 20
100.6583449999999971
 30
0.0
 40
0.0999999330689622
 50
300.9640184328878831
 51
59.035981567116238
  0
LINE
  5
955
  8
3
 10
91.8273549999999688
 20
101.9525469999999956
 30
0.0
 11
93.8414430000000266
 21
100.744094000000004
 31
0.0
  0
LINE
  5
956
  8
3
 10
91.8273549999999688
 20
99.3641429999999986
 30
0.0
 11
93.8414430000000266
 21
100.5725960000000043
 31
0.0
  0
LINE
  5
957
  8
3
 10
89.7103689999999858
 20
100.5725960000000043
 30
0.0
 11
91.7244560000000035
 21
99.3641429999999986
 31
0.0
  0
LINE
  5
958
  8
3
 10
89.7103689999999858
 20
100.744094000000004
 30
0.0
 11
91.7244560000000035
 21
101.9525469999999956
 31
0.0
  0
ARC
  5
959
  8
3
 10
86.7759054999999648
 20
83.8667930157677262
 30
0.0
 40
0.1000039842304085
 50
59.0376635543214476
 51
120.9623364456646044
  0
ARC
  5
95A
  8
3
 10
84.7618168733703214
 20
82.6583449999999829
 30
0.0
 40
0.0999988733702953
 50
120.9630064793756929
 51
239.0369935206200012
  0
ARC
  5
95B
  8
3
 10
86.7759054999999648
 20
81.4498969842081095
 30
0.0
 40
0.1000039842096779
 50
239.0376635472144073
 51
300.9623364527996046
  0
ARC
  5
95C
  8
3
 10
88.7899930669310748
 20
82.6583449999999829
 30
0.0
 40
0.0999999330689695
 50
300.9640184328948749
 51
59.0359815671092676
  0
LINE
  5
95D
  8
3
 10
86.8273549999999545
 20
83.9525469999999956
 30
0.0
 11
88.8414430000000266
 21
82.7440939999999898
 31
0.0
  0
LINE
  5
95E
  8
3
 10
86.8273549999999545
 20
81.3641429999999986
 30
0.0
 11
88.8414430000000266
 21
82.5725959999999901
 31
0.0
  0
LINE
  5
95F
  8
3
 10
84.7103690000000142
 20
82.5725959999999901
 30
0.0
 11
86.724456000000032
 21
81.3641429999999986
 31
0.0
  0
LINE
  5
960
  8
3
 10
84.7103690000000142
 20
82.7440939999999898
 30
0.0
 11
86.724456000000032
 21
83.9525469999999956
 31
0.0
  0
ARC
  5
961
  8
3
 10
86.7759054999999648
 20
86.8667930157677404
 30
0.0
 40
0.1000039842303963
 50
59.0376635543172625
 51
120.9623364456687966
  0
ARC
  5
962
  8
3
 10
84.7618168733703214
 20
85.6583449999999971
 30
0.0
 40
0.0999988733702953
 50
120.9630064793756929
 51
239.0369935206200012
  0
ARC
  5
963
  8
3
 10
86.7759054999999933
 20
84.4498969842079816
 30
0.0
 40
0.1000039842095755
 50
239.0376635471697
 51
300.9623364528301863
  0
ARC
  5
964
  8
3
 10
88.7899930669310606
 20
85.6583449999999971
 30
0.0
 40
0.099999933068989
 50
300.964018432897717
 51
59.0359815670981121
  0
LINE
  5
965
  8
3
 10
86.8273549999999545
 20
86.9525469999999956
 30
0.0
 11
88.8414430000000266
 21
85.7440939999999756
 31
0.0
  0
LINE
  5
966
  8
3
 10
86.8273549999999545
 20
84.3641429999999986
 30
0.0
 11
88.8414430000000266
 21
85.5725960000000043
 31
0.0
  0
LINE
  5
967
  8
3
 10
84.7103690000000142
 20
85.5725960000000043
 30
0.0
 11
86.724456000000032
 21
84.3641429999999986
 31
0.0
  0
LINE
  5
968
  8
3
 10
84.7103690000000142
 20
85.7440939999999756
 30
0.0
 11
86.724456000000032
 21
86.9525469999999956
 31
0.0
  0
ARC
  5
96B
  8
3
 10
86.7759054999999933
 20
87.4498969842079816
 30
0.0
 40
0.1000039842095755
 50
239.0376635471697
 51
300.9623364528301863
  0
ARC
  5
96C
  8
3
 10
88.7899930669310606
 20
88.6583449999999829
 30
0.0
 40
0.0999999330689768
 50
300.9640184329019235
 51
59.0359815671022901
  0
LINE
  5
96D
  8
3
 10
87.0601369137967254
 20
89.8128778286065739
 30
0.0
 11
88.8414430000000266
 21
88.7440939999999898
 31
0.0
  0
LINE
  5
96E
  8
3
 10
86.8273549999999545
 20
87.3641429999999843
 30
0.0
 11
88.8414430000000266
 21
88.5725959999999901
 31
0.0
  0
LINE
  5
96F
  8
3
 10
86.2118176626226358
 20
87.671726206047552
 30
0.0
 11
86.724456000000032
 21
87.3641429999999843
 31
0.0
  0
ARC
  5
974
  8
3
 10
88.7899930669310606
 20
91.6583449999999829
 30
0.0
 40
0.0999999330689768
 50
300.9640184329019235
 51
59.0359815671022901
  0
LINE
  5
975
  8
3
 10
87.2042910738035459
 20
92.7263853182878677
 30
0.0
 11
88.8414430000000266
 21
91.744094000000004
 31
0.0
  0
LINE
  5
976
  8
3
 10
87.2042910738035459
 20
90.590304681712098
 30
0.0
 11
88.8414430000000266
 21
91.5725959999999901
 31
0.0
  0
ARC
  5
979
  8
3
 10
86.7759054999999648
 20
95.8667930157919272
 30
0.0
 40
0.1000039842096511
 50
59.0376635471767415
 51
120.9623364527911065
  0
ARC
  5
97C
  8
3
 10
88.7899930669310748
 20
94.6583449999999686
 30
0.0
 40
0.0999999330689622
 50
300.9640184328878831
 51
59.0359815671134598
  0
LINE
  5
97D
  8
3
 10
86.8273549999999545
 20
95.9525469999999956
 30
0.0
 11
88.8414430000000266
 21
94.7440939999999756
 31
0.0
  0
LINE
  5
97E
  8
3
 10
87.0601369137967254
 20
93.5038121713934061
 30
0.0
 11
88.8414430000000266
 21
94.5725959999999759
 31
0.0
  0
LINE
  5
980
  8
3
 10
86.2118176626226358
 20
95.6449637939524422
 30
0.0
 11
86.724456000000032
 21
95.9525469999999956
 31
0.0
  0
ARC
  5
981
  8
3
 10
86.7759054999999648
 20
98.8667930157677546
 30
0.0
 40
0.1000039842303963
 50
59.0376635543172625
 51
120.9623364456687966
  0
ARC
  5
982
  8
3
 10
84.7618168733703499
 20
97.6583449999999829
 30
0.0
 40
0.09999887337031
 50
120.9630064793897049
 51
239.0369935206061029
  0
ARC
  5
983
  8
3
 10
86.7759054999999933
 20
96.4498969842080953
 30
0.0
 40
0.100003984209673
 50
239.0376635472032945
 51
300.9623364527967055
  0
ARC
  5
984
  8
3
 10
88.7899930669310748
 20
97.6583449999999829
 30
0.0
 40
0.0999999330689622
 50
300.9640184328878831
 51
59.035981567116238
  0
LINE
  5
985
  8
3
 10
86.8273549999999545
 20
98.9525469999999956
 30
0.0
 11
88.8414430000000266
 21
97.7440939999999898
 31
0.0
  0
LINE
  5
986
  8
3
 10
86.8273549999999545
 20
96.3641429999999986
 30
0.0
 11
88.8414430000000266
 21
97.5725959999999901
 31
0.0
  0
LINE
  5
987
  8
3
 10
84.7103690000000142
 20
97.5725959999999901
 30
0.0
 11
86.724456000000032
 21
96.3641429999999986
 31
0.0
  0
LINE
  5
988
  8
3
 10
84.7103690000000142
 20
97.7440939999999898
 30
0.0
 11
86.724456000000032
 21
98.9525469999999956
 31
0.0
  0
ARC
  5
989
  8
3
 10
86.7759054999999648
 20
101.8667930157676977
 30
0.0
 40
0.1000039842303963
 50
59.0376635543172625
 51
120.9623364456687966
  0
ARC
  5
98A
  8
3
 10
84.7618168733703357
 20
100.6583449999999971
 30
0.0
 40
0.0999988733703027
 50
120.9630064793826989
 51
239.0369935206130094
  0
ARC
  5
98B
  8
3
 10
86.7759054999999933
 20
99.4498969842079816
 30
0.0
 40
0.1000039842095755
 50
239.0376635471697
 51
300.9623364528301863
  0
ARC
  5
98C
  8
3
 10
88.7899930669310464
 20
100.6583449999999971
 30
0.0
 40
0.0999999330689963
 50
300.9640184329047088
 51
59.0359815670911203
  0
LINE
  5
98D
  8
3
 10
86.8273549999999545
 20
101.9525469999999956
 30
0.0
 11
88.8414430000000266
 21
100.744094000000004
 31
0.0
  0
LINE
  5
98E
  8
3
 10
86.8273549999999545
 20
99.3641429999999986
 30
0.0
 11
88.8414430000000266
 21
100.5725960000000043
 31
0.0
  0
LINE
  5
98F
  8
3
 10
84.7103690000000142
 20
100.5725960000000043
 30
0.0
 11
86.724456000000032
 21
99.3641429999999986
 31
0.0
  0
LINE
  5
990
  8
3
 10
84.7103690000000142
 20
100.744094000000004
 30
0.0
 11
86.724456000000032
 21
101.9525469999999956
 31
0.0
  0
ARC
  5
991
  8
3
 10
81.7759054999999648
 20
83.8667930157919415
 30
0.0
 40
0.1000039842096511
 50
59.0376635471767415
 51
120.9623364527911065
  0
ARC
  5
992
  8
3
 10
79.7618168733703641
 20
82.6583450000000255
 30
0.0
 40
0.0999988733702929
 50
120.9630064794049957
 51
239.0369935206061029
  0
ARC
  5
993
  8
3
 10
81.7759055000000075
 20
81.4498969842321259
 30
0.0
 40
0.1000039842302866
 50
239.0376635542795896
 51
300.9623364457063985
  0
ARC
  5
994
  8
3
 10
83.7899930669311033
 20
82.6583449999999829
 30
0.0
 40
0.0999999330689549
 50
300.9640184328810051
 51
59.0359815671232298
  0
LINE
  5
995
  8
3
 10
81.8273549999999545
 20
83.9525469999999956
 30
0.0
 11
83.8414430000000266
 21
82.7440939999999898
 31
0.0
  0
LINE
  5
996
  8
3
 10
81.8273549999999545
 20
81.3641429999999986
 30
0.0
 11
83.8414430000000266
 21
82.5725959999999901
 31
0.0
  0
LINE
  5
997
  8
3
 10
79.7103690000000142
 20
82.5725959999999901
 30
0.0
 11
81.724456000000032
 21
81.3641429999999986
 31
0.0
  0
LINE
  5
998
  8
3
 10
79.7103690000000142
 20
82.7440939999999898
 30
0.0
 11
81.724456000000032
 21
83.9525469999999956
 31
0.0
  0
ARC
  5
9C1
  8
3
 10
81.7759054999999648
 20
101.8667930157676977
 30
0.0
 40
0.100003984230372
 50
59.0376635543088781
 51
120.9623364456770958
  0
ARC
  5
9C2
  8
3
 10
79.7618168733703783
 20
100.6583449999999971
 30
0.0
 40
0.0999988733703124
 50
120.9630064794077953
 51
239.0369935205962975
  0
ARC
  5
9C3
  8
3
 10
81.7759054999999933
 20
99.4498969842079816
 30
0.0
 40
0.1000039842095755
 50
239.0376635471697
 51
300.9623364528301863
  0
ARC
  5
9C4
  8
3
 10
83.7899930669311033
 20
100.6583449999998976
 30
0.0
 40
0.0999999330689427
 50
300.9640184328852115
 51
59.035981567127422
  0
LINE
  5
9C5
  8
3
 10
81.8273549999999545
 20
101.9525469999999956
 30
0.0
 11
83.8414430000000266
 21
100.744094000000004
 31
0.0
  0
LINE
  5
9C6
  8
3
 10
81.8273549999999545
 20
99.3641429999999986
 30
0.0
 11
83.8414430000000266
 21
100.5725960000000043
 31
0.0
  0
LINE
  5
9C7
  8
3
 10
79.7103690000000142
 20
100.5725960000000043
 30
0.0
 11
81.724456000000032
 21
99.3641429999999986
 31
0.0
  0
LINE
  5
9C8
  8
3
 10
79.7103690000000142
 20
100.744094000000004
 30
0.0
 11
81.724456000000032
 21
101.9525469999999956
 31
0.0
  0
ARC
  5
9C9
  8
3
 10
76.7759054999999933
 20
83.8667930157678683
 30
0.0
 40
0.1000039842302793
 50
59.0376635542865387
 51
120.962336445713504
  0
ARC
  5
9CA
  8
3
 10
74.7618168733703357
 20
82.6583449999999544
 30
0.0
 40
0.0999988733703149
 50
120.9630064793785067
 51
239.0369935206088883
  0
ARC
  5
9CB
  8
3
 10
76.7759054999999648
 20
81.4498969842080953
 30
0.0
 40
0.1000039842096657
 50
239.0376635472102862
 51
300.9623364528036973
  0
ARC
  5
9CC
  8
3
 10
78.7899930669311601
 20
82.6583449999999971
 30
0.0
 40
0.0999999330689378
 50
300.9640184328488886
 51
59.0359815671469619
  0
LINE
  5
9CD
  8
3
 10
76.8273549999999545
 20
83.9525469999999956
 30
0.0
 11
78.8414430000000266
 21
82.7440939999999898
 31
0.0
  0
LINE
  5
9CE
  8
3
 10
76.8273549999999545
 20
81.3641429999999986
 30
0.0
 11
78.8414430000000266
 21
82.5725959999999901
 31
0.0
  0
LINE
  5
9CF
  8
3
 10
74.7103690000000142
 20
82.5725959999999901
 30
0.0
 11
76.724456000000032
 21
81.3641429999999986
 31
0.0
  0
LINE
  5
9D0
  8
3
 10
74.7103690000000142
 20
82.7440939999999898
 30
0.0
 11
76.724456000000032
 21
83.9525469999999956
 31
0.0
  0
ARC
  5
9F9
  8
3
 10
76.7759054999999648
 20
101.8667930157677972
 30
0.0
 40
0.1000039842302988
 50
59.0376635542837533
 51
120.9623364457023058
  0
ARC
  5
9FA
  8
3
 10
74.7618168733703641
 20
100.6583449999998976
 30
0.0
 40
0.0999988733703295
 50
120.9630064793925044
 51
239.0369935205949048
  0
ARC
  5
9FB
  8
3
 10
76.7759054999999648
 20
99.4498969842079958
 30
0.0
 40
0.1000039842095804
 50
239.0376635471808981
 51
300.9623364528330853
  0
ARC
  5
9FC
  8
3
 10
78.7899930669310891
 20
100.6583449999999971
 30
0.0
 40
0.0999999330689622
 50
300.9640184328878831
 51
59.035981567116238
  0
LINE
  5
9FD
  8
3
 10
76.8273549999999545
 20
101.9525469999999956
 30
0.0
 11
78.8414430000000266
 21
100.744094000000004
 31
0.0
  0
LINE
  5
9FE
  8
3
 10
76.8273549999999545
 20
99.3641429999999986
 30
0.0
 11
78.8414430000000266
 21
100.5725960000000043
 31
0.0
  0
LINE
  5
9FF
  8
3
 10
74.7103690000000142
 20
100.5725960000000043
 30
0.0
 11
76.724456000000032
 21
99.3641429999999986
 31
0.0
  0
LINE
  5
A00
  8
3
 10
74.7103690000000142
 20
100.744094000000004
 30
0.0
 11
76.724456000000032
 21
101.9525469999999956
 31
0.0
  0
ARC
  5
A01
  8
3
 10
71.7759054999999933
 20
83.8667930157678256
 30
0.0
 40
0.1000039842303037
 50
59.0376635542949302
 51
120.9623364457051053
  0
ARC
  5
A02
  8
3
 10
69.7618168733703783
 20
82.6583449999999829
 30
0.0
 40
0.0999988733703246
 50
120.9630064794037025
 51
239.036993520592091
  0
ARC
  5
A03
  8
3
 10
71.7759054999999648
 20
81.4498969842080101
 30
0.0
 40
0.1000039842095926
 50
239.0376635471851046
 51
300.9623364528288221
  0
ARC
  5
A04
  8
3
 10
73.7899930669311175
 20
82.6583449999999829
 30
0.0
 40
0.0999999330689475
 50
300.9640184328738997
 51
59.0359815671302073
  0
LINE
  5
A05
  8
3
 10
71.8273549999999545
 20
83.9525469999999956
 30
0.0
 11
73.8414430000000266
 21
82.7440939999999898
 31
0.0
  0
LINE
  5
A06
  8
3
 10
71.8273549999999545
 20
81.3641429999999986
 30
0.0
 11
73.8414430000000266
 21
82.5725959999999901
 31
0.0
  0
LINE
  5
A07
  8
3
 10
69.7103690000000142
 20
82.5725959999999901
 30
0.0
 11
71.724456000000032
 21
81.3641429999999986
 31
0.0
  0
LINE
  5
A08
  8
3
 10
69.7103690000000142
 20
82.7440939999999898
 30
0.0
 11
71.724456000000032
 21
83.9525469999999956
 31
0.0
  0
ARC
  5
A09
  8
3
 10
71.7759054999999648
 20
86.8667930157677404
 30
0.0
 40
0.1000039842303963
 50
59.0376635543172625
 51
120.9623364456687966
  0
ARC
  5
A0A
  8
3
 10
69.7618168733703925
 20
85.6583449999999971
 30
0.0
 40
0.0999988733703319
 50
120.9630064794105948
 51
239.0369935205850993
  0
ARC
  5
A0B
  8
3
 10
71.7759054999999648
 20
84.4498969842079532
 30
0.0
 40
0.100003984209556
 50
239.037663547172599
 51
300.9623364528413845
  0
ARC
  5
A0C
  8
3
 10
73.7899930669311601
 20
85.6583450000000113
 30
0.0
 40
0.09999993306895
 50
300.9640184328446821
 51
59.0359815671427768
  0
LINE
  5
A0D
  8
3
 10
71.8273549999999545
 20
86.9525469999999956
 30
0.0
 11
73.8414430000000266
 21
85.7440939999999756
 31
0.0
  0
LINE
  5
A0E
  8
3
 10
71.8273549999999545
 20
84.3641429999999986
 30
0.0
 11
73.8414430000000266
 21
85.5725960000000043
 31
0.0
  0
LINE
  5
A0F
  8
3
 10
69.7103690000000142
 20
85.5725960000000043
 30
0.0
 11
71.724456000000032
 21
84.3641429999999986
 31
0.0
  0
LINE
  5
A10
  8
3
 10
69.7103690000000142
 20
85.7440939999999756
 30
0.0
 11
71.724456000000032
 21
86.9525469999999956
 31
0.0
  0
ARC
  5
A12
  8
3
 10
69.7618168733703357
 20
88.6583449999999829
 30
0.0
 40
0.0999988733703027
 50
120.9630064793826989
 51
239.0369935206130094
  0
ARC
  5
A13
  8
3
 10
71.7759054999999648
 20
87.4498969842079958
 30
0.0
 40
0.1000039842095804
 50
239.0376635471808981
 51
300.9623364528330853
  0
LINE
  5
A16
  8
3
 10
71.8273549999999545
 20
87.3641429999999843
 30
0.0
 11
72.3399941462137264
 21
87.6717265386335782
 31
0.0
  0
LINE
  5
A17
  8
3
 10
69.7103690000000142
 20
88.5725959999999901
 30
0.0
 11
71.724456000000032
 21
87.3641429999999843
 31
0.0
  0
LINE
  5
A18
  8
3
 10
69.7103690000000142
 20
88.7440939999999898
 30
0.0
 11
71.491674976063905
 21
89.8128782931771781
 31
0.0
  0
ARC
  5
A1A
  8
3
 10
69.7618168733703214
 20
91.6583449999999829
 30
0.0
 40
0.0999988733702953
 50
120.9630064793756929
 51
239.0369935206200012
  0
LINE
  5
A1F
  8
3
 10
69.7103690000000142
 20
91.5725959999999901
 30
0.0
 11
71.3475209976735982
 21
90.5903041511152765
 31
0.0
  0
LINE
  5
A20
  8
3
 10
69.7103690000000142
 20
91.744094000000004
 30
0.0
 11
71.3475209976735982
 21
92.7263858488846751
 31
0.0
  0
ARC
  5
A21
  8
3
 10
71.7759054999999648
 20
95.8667930157919557
 30
0.0
 40
0.1000039842096389
 50
59.0376635471725635
 51
120.9623364527952987
  0
ARC
  5
A22
  8
3
 10
69.7618168733704209
 20
94.6583449999999686
 30
0.0
 40
0.0999988733703465
 50
120.9630064794246067
 51
239.0369935205712011
  0
LINE
  5
A25
  8
3
 10
71.8273549999999545
 20
95.9525469999999956
 30
0.0
 11
72.3399941462137122
 21
95.6449634613664159
 31
0.0
  0
LINE
  5
A27
  8
3
 10
69.7103690000000142
 20
94.5725959999999759
 30
0.0
 11
71.491674976063905
 21
93.5038117068228161
 31
0.0
  0
LINE
  5
A28
  8
3
 10
69.7103690000000142
 20
94.7440939999999756
 30
0.0
 11
71.724456000000032
 21
95.9525469999999956
 31
0.0
  0
ARC
  5
A29
  8
3
 10
71.7759054999999648
 20
98.8667930157677546
 30
0.0
 40
0.1000039842304036
 50
59.0376635543102708
 51
120.9623364456618049
  0
ARC
  5
A2A
  8
3
 10
69.7618168733703925
 20
97.6583449999999829
 30
0.0
 40
0.0999988733703319
 50
120.9630064794105948
 51
239.0369935205850993
  0
ARC
  5
A2B
  8
3
 10
71.7759054999999648
 20
96.4498969842080101
 30
0.0
 40
0.1000039842095804
 50
239.0376635471808981
 51
300.9623364528330853
  0
ARC
  5
A2C
  8
3
 10
73.7899930669310891
 20
97.6583449999999829
 30
0.0
 40
0.0999999330689622
 50
300.9640184328878831
 51
59.035981567116238
  0
LINE
  5
A2D
  8
3
 10
71.8273549999999545
 20
98.9525469999999956
 30
0.0
 11
73.8414430000000266
 21
97.7440939999999898
 31
0.0
  0
LINE
  5
A2E
  8
3
 10
71.8273549999999545
 20
96.3641429999999986
 30
0.0
 11
73.8414430000000266
 21
97.5725959999999901
 31
0.0
  0
LINE
  5
A2F
  8
3
 10
69.7103690000000142
 20
97.5725959999999901
 30
0.0
 11
71.724456000000032
 21
96.3641429999999986
 31
0.0
  0
LINE
  5
A30
  8
3
 10
69.7103690000000142
 20
97.7440939999999898
 30
0.0
 11
71.724456000000032
 21
98.9525469999999956
 31
0.0
  0
ARC
  5
A31
  8
3
 10
71.7759054999999933
 20
101.8667930157677972
 30
0.0
 40
0.1000039842303037
 50
59.0376635542949302
 51
120.9623364457051053
  0
ARC
  5
A32
  8
3
 10
69.7618168733703925
 20
100.6583449999999971
 30
0.0
 40
0.0999988733703319
 50
120.9630064794105948
 51
239.0369935205850993
  0
ARC
  5
A33
  8
3
 10
71.7759054999999648
 20
99.4498969842079816
 30
0.0
 40
0.1000039842095682
 50
239.0376635471766917
 51
300.9623364528371781
  0
ARC
  5
A34
  8
3
 10
73.7899930669311317
 20
100.6583449999999971
 30
0.0
 40
0.0999999330689524
 50
300.9640184328628152
 51
59.0359815671330068
  0
LINE
  5
A35
  8
3
 10
71.8273549999999545
 20
101.9525469999999956
 30
0.0
 11
73.8414430000000266
 21
100.744094000000004
 31
0.0
  0
LINE
  5
A36
  8
3
 10
71.8273549999999545
 20
99.3641429999999986
 30
0.0
 11
73.8414430000000266
 21
100.5725960000000043
 31
0.0
  0
LINE
  5
A37
  8
3
 10
69.7103690000000142
 20
100.5725960000000043
 30
0.0
 11
71.724456000000032
 21
99.3641429999999986
 31
0.0
  0
LINE
  5
A38
  8
3
 10
69.7103690000000142
 20
100.744094000000004
 30
0.0
 11
71.724456000000032
 21
101.9525469999999956
 31
0.0
  0
ARC
  5
A39
  8
3
 10
66.7759055000000075
 20
83.8667930157678683
 30
0.0
 40
0.100003984230272
 50
59.0376635542935233
 51
120.9623364457203962
  0
ARC
  5
A3A
  8
3
 10
64.7618168733703357
 20
82.6583449999999544
 30
0.0
 40
0.0999988733703149
 50
120.9630064793785067
 51
239.0369935206088883
  0
ARC
  5
A3B
  8
3
 10
66.7759054999999648
 20
81.4498969842081237
 30
0.0
 40
0.10000398420969
 50
239.0376635472186138
 51
300.9623364527952845
  0
ARC
  5
A3C
  8
3
 10
68.7899930669311175
 20
82.6583449999999829
 30
0.0
 40
0.0999999330689475
 50
300.9640184328738997
 51
59.0359815671302073
  0
LINE
  5
A3D
  8
3
 10
66.8273549999999545
 20
83.9525469999999956
 30
0.0
 11
68.8414430000000266
 21
82.7440939999999898
 31
0.0
  0
LINE
  5
A3E
  8
3
 10
66.8273549999999545
 20
81.3641429999999986
 30
0.0
 11
68.8414430000000266
 21
82.5725959999999901
 31
0.0
  0
LINE
  5
A3F
  8
3
 10
64.7103690000000142
 20
82.5725959999999901
 30
0.0
 11
66.724456000000032
 21
81.3641429999999986
 31
0.0
  0
LINE
  5
A40
  8
3
 10
64.7103690000000142
 20
82.7440939999999898
 30
0.0
 11
66.724456000000032
 21
83.9525469999999956
 31
0.0
  0
ARC
  5
A41
  8
3
 10
66.7759055000000075
 20
86.8667930157678541
 30
0.0
 40
0.100003984230272
 50
59.0376635542935233
 51
120.9623364457203962
  0
ARC
  5
A42
  8
3
 10
64.7618168733703357
 20
85.6583449999999971
 30
0.0
 40
0.0999988733703027
 50
120.9630064793826989
 51
239.0369935206130094
  0
ARC
  5
A43
  8
3
 10
66.7759055000000075
 20
84.4498969842079248
 30
0.0
 40
0.1000039842095341
 50
239.0376635471459963
 51
300.9623364528400202
  0
ARC
  5
A44
  8
3
 10
68.7899930669311175
 20
85.6583449999999971
 30
0.0
 40
0.0999999330689475
 50
300.9640184328738997
 51
59.0359815671302073
  0
LINE
  5
A45
  8
3
 10
66.8273549999999545
 20
86.9525469999999956
 30
0.0
 11
68.8414430000000266
 21
85.7440939999999756
 31
0.0
  0
LINE
  5
A46
  8
3
 10
66.8273549999999545
 20
84.3641429999999986
 30
0.0
 11
68.8414430000000266
 21
85.5725960000000043
 31
0.0
  0
LINE
  5
A47
  8
3
 10
64.7103690000000142
 20
85.5725960000000043
 30
0.0
 11
66.724456000000032
 21
84.3641429999999986
 31
0.0
  0
LINE
  5
A48
  8
3
 10
64.7103690000000142
 20
85.7440939999999756
 30
0.0
 11
66.724456000000032
 21
86.9525469999999956
 31
0.0
  0
ARC
  5
A49
  8
3
 10
66.7759054999999933
 20
89.8667930157677546
 30
0.0
 40
0.1000039842303768
 50
59.0376635543200408
 51
120.9623364456798953
  0
ARC
  5
A4A
  8
3
 10
64.7618168733703357
 20
88.6583449999999829
 30
0.0
 40
0.0999988733703027
 50
120.9630064793826989
 51
239.0369935206130094
  0
ARC
  5
A4B
  8
3
 10
66.7759054999999648
 20
87.4498969842079958
 30
0.0
 40
0.1000039842095804
 50
239.0376635471808981
 51
300.9623364528330853
  0
ARC
  5
A4C
  8
3
 10
68.7899930669310891
 20
88.6583449999999829
 30
0.0
 40
0.0999999330689622
 50
300.9640184328878831
 51
59.035981567116238
  0
LINE
  5
A4D
  8
3
 10
66.8273549999999545
 20
89.9525469999999956
 30
0.0
 11
68.8414430000000266
 21
88.7440939999999898
 31
0.0
  0
LINE
  5
A4E
  8
3
 10
66.8273549999999545
 20
87.3641429999999843
 30
0.0
 11
68.8414430000000266
 21
88.5725959999999901
 31
0.0
  0
LINE
  5
A4F
  8
3
 10
64.7103690000000142
 20
88.5725959999999901
 30
0.0
 11
66.724456000000032
 21
87.3641429999999843
 31
0.0
  0
LINE
  5
A50
  8
3
 10
64.7103690000000142
 20
88.7440939999999898
 30
0.0
 11
66.724456000000032
 21
89.9525469999999956
 31
0.0
  0
ARC
  5
A51
  8
3
 10
66.7759055000000075
 20
92.8667930157678683
 30
0.0
 40
0.100003984230272
 50
59.0376635542935233
 51
120.9623364457203962
  0
ARC
  5
A52
  8
3
 10
64.7618168733703357
 20
91.6583449999999829
 30
0.0
 40
0.0999988733703027
 50
120.9630064793826989
 51
239.0369935206130094
  0
ARC
  5
A53
  8
3
 10
66.7759054999999648
 20
90.4498969842079958
 30
0.0
 40
0.1000039842095804
 50
239.0376635471808981
 51
300.9623364528330853
  0
ARC
  5
A54
  8
3
 10
68.7899930669311175
 20
91.6583449999999829
 30
0.0
 40
0.0999999330689475
 50
300.9640184328738997
 51
59.0359815671302073
  0
LINE
  5
A55
  8
3
 10
66.8273549999999545
 20
92.9525469999999956
 30
0.0
 11
68.8414430000000266
 21
91.744094000000004
 31
0.0
  0
LINE
  5
A56
  8
3
 10
66.8273549999999545
 20
90.3641429999999986
 30
0.0
 11
68.8414430000000266
 21
91.5725959999999901
 31
0.0
  0
LINE
  5
A57
  8
3
 10
64.7103690000000142
 20
91.5725959999999901
 30
0.0
 11
66.724456000000032
 21
90.3641429999999986
 31
0.0
  0
LINE
  5
A58
  8
3
 10
64.7103690000000142
 20
91.744094000000004
 30
0.0
 11
66.724456000000032
 21
92.9525469999999956
 31
0.0
  0
ARC
  5
A59
  8
3
 10
66.7759054999999648
 20
95.8667930157677262
 30
0.0
 40
0.1000039842304085
 50
59.0376635543214476
 51
120.9623364456646044
  0
ARC
  5
A5A
  8
3
 10
64.7618168733703499
 20
94.6583449999999686
 30
0.0
 40
0.09999887337031
 50
120.9630064793897049
 51
239.0369935206061029
  0
ARC
  5
A5B
  8
3
 10
66.7759054999999648
 20
93.4498969842079958
 30
0.0
 40
0.1000039842095804
 50
239.0376635471808981
 51
300.9623364528330853
  0
ARC
  5
A5C
  8
3
 10
68.7899930669310891
 20
94.6583449999999971
 30
0.0
 40
0.0999999330689743
 50
300.9640184328837904
 51
59.03598156711206
  0
LINE
  5
A5D
  8
3
 10
66.8273549999999545
 20
95.9525469999999956
 30
0.0
 11
68.8414430000000266
 21
94.7440939999999756
 31
0.0
  0
LINE
  5
A5E
  8
3
 10
66.8273549999999545
 20
93.3641429999999843
 30
0.0
 11
68.8414430000000266
 21
94.5725959999999759
 31
0.0
  0
LINE
  5
A5F
  8
3
 10
64.7103690000000142
 20
94.5725959999999759
 30
0.0
 11
66.724456000000032
 21
93.3641429999999843
 31
0.0
  0
LINE
  5
A60
  8
3
 10
64.7103690000000142
 20
94.7440939999999756
 30
0.0
 11
66.724456000000032
 21
95.9525469999999956
 31
0.0
  0
ARC
  5
A61
  8
3
 10
66.7759054999999933
 20
98.8667930157677546
 30
0.0
 40
0.100003984230389
 50
59.0376635543242401
 51
120.9623364456757031
  0
ARC
  5
A62
  8
3
 10
64.7618168733703925
 20
97.6583449999999829
 30
0.0
 40
0.0999988733703319
 50
120.9630064794105948
 51
239.0369935205850993
  0
ARC
  5
A63
  8
3
 10
66.7759054999999648
 20
96.4498969842080101
 30
0.0
 40
0.1000039842095804
 50
239.0376635471808981
 51
300.9623364528330853
  0
ARC
  5
A64
  8
3
 10
68.7899930669311033
 20
97.6583449999999829
 30
0.0
 40
0.0999999330689549
 50
300.9640184328810051
 51
59.0359815671232298
  0
LINE
  5
A65
  8
3
 10
66.8273549999999545
 20
98.9525469999999956
 30
0.0
 11
68.8414430000000266
 21
97.7440939999999898
 31
0.0
  0
LINE
  5
A66
  8
3
 10
66.8273549999999545
 20
96.3641429999999986
 30
0.0
 11
68.8414430000000266
 21
97.5725959999999901
 31
0.0
  0
LINE
  5
A67
  8
3
 10
64.7103690000000142
 20
97.5725959999999901
 30
0.0
 11
66.724456000000032
 21
96.3641429999999986
 31
0.0
  0
LINE
  5
A68
  8
3
 10
64.7103690000000142
 20
97.7440939999999898
 30
0.0
 11
66.724456000000032
 21
98.9525469999999956
 31
0.0
  0
ARC
  5
A69
  8
3
 10
66.7759054999999648
 20
101.8667930157676977
 30
0.0
 40
0.1000039842304207
 50
59.0376635543256327
 51
120.962336445660398
  0
ARC
  5
A6A
  8
3
 10
64.7618168733703641
 20
100.6583449999998976
 30
0.0
 40
0.0999988733703295
 50
120.9630064793925044
 51
239.0369935205949048
  0
ARC
  5
A6B
  8
3
 10
66.7759054999999648
 20
99.4498969842079958
 30
0.0
 40
0.1000039842095804
 50
239.0376635471808981
 51
300.9623364528330853
  0
ARC
  5
A6C
  8
3
 10
68.7899930669311175
 20
100.6583449999999971
 30
0.0
 40
0.0999999330689475
 50
300.9640184328738997
 51
59.0359815671302073
  0
LINE
  5
A6D
  8
3
 10
66.8273549999999545
 20
101.9525469999999956
 30
0.0
 11
68.8414430000000266
 21
100.744094000000004
 31
0.0
  0
LINE
  5
A6E
  8
3
 10
66.8273549999999545
 20
99.3641429999999986
 30
0.0
 11
68.8414430000000266
 21
100.5725960000000043
 31
0.0
  0
LINE
  5
A6F
  8
3
 10
64.7103690000000142
 20
100.5725960000000043
 30
0.0
 11
66.724456000000032
 21
99.3641429999999986
 31
0.0
  0
LINE
  5
A70
  8
3
 10
64.7103690000000142
 20
100.744094000000004
 30
0.0
 11
66.724456000000032
 21
101.9525469999999956
 31
0.0
  0
LINE
  5
A71
  8
3
 10
64.3273555762430789
 20
97.8641437078489247
 30
0.0
 11
66.3414430000000266
 21
99.0725959999999901
 31
0.0
  0
LINE
  5
A72
  8
3
 10
64.3273549999999545
 20
100.4525469999999956
 30
0.0
 11
66.3414430000000266
 21
99.244094000000004
 31
0.0
  0
ARC
  5
A73
  8
3
 10
66.2899930669311601
 20
99.1583449999999686
 30
0.0
 40
0.0999999330689134
 50
300.9640184328571877
 51
59.0359815671567389
  0
ARC
  5
A74
  8
3
 10
64.2759060000000204
 20
97.949893000000003
 30
0.0
 40
0.1
 50
270.0
 51
300.9637570000002142
  0
ARC
  5
A75
  8
3
 10
64.2759054183349434
 20
100.3667927209415041
 30
0.0
 40
0.1000042790601845
 50
59.0377103356767421
 51
89.9996667447283158
  0
LINE
  5
A76
  8
3
 10
64.3273549999999545
 20
94.8641429999999843
 30
0.0
 11
66.3414430000000266
 21
96.0725959999999901
 31
0.0
  0
LINE
  5
A77
  8
3
 10
64.3273549999999545
 20
97.4525469999999956
 30
0.0
 11
66.3414430000000266
 21
96.2440939999999898
 31
0.0
  0
ARC
  5
A78
  8
3
 10
66.2899930669311175
 20
96.1583449999999829
 30
0.0
 40
0.0999999330689353
 50
300.9640184328782198
 51
59.0359815671371919
  0
ARC
  5
A79
  8
3
 10
64.2759054183349718
 20
94.9498972790584617
 30
0.0
 40
0.1000042790601446
 50
270.0003332552636266
 51
300.9622896643289209
  0
ARC
  5
A7A
  8
3
 10
64.2759054183349434
 20
97.3667927209415183
 30
0.0
 40
0.1000042790601602
 50
59.0377103356683719
 51
89.9996667447283158
  0
LINE
  5
A7B
  8
3
 10
64.3273549999999545
 20
91.8641429999999986
 30
0.0
 11
66.3414430000000266
 21
93.0725960000000043
 31
0.0
  0
LINE
  5
A7C
  8
3
 10
64.3273549999999545
 20
94.4525469999999956
 30
0.0
 11
66.3414430000000266
 21
93.2440939999999756
 31
0.0
  0
ARC
  5
A7D
  8
3
 10
66.2899930669311175
 20
93.1583449999999971
 30
0.0
 40
0.0999999330689597
 50
300.9640184328698069
 51
59.0359815671288075
  0
ARC
  5
A7E
  8
3
 10
64.2759054183349434
 20
91.9498972790584475
 30
0.0
 40
0.1000042790601304
 50
270.0003332552716984
 51
300.9622896643400054
  0
ARC
  5
A7F
  8
3
 10
64.2759054183349434
 20
94.3667927209415041
 30
0.0
 40
0.1000042790601602
 50
59.0377103356683719
 51
89.9996667447283158
  0
LINE
  5
A80
  8
3
 10
64.3273549999999545
 20
88.8641429999999986
 30
0.0
 11
66.3414430000000266
 21
90.0725959999999901
 31
0.0
  0
LINE
  5
A81
  8
3
 10
64.3273549999999545
 20
91.4525469999999956
 30
0.0
 11
66.3414430000000266
 21
90.2440939999999898
 31
0.0
  0
ARC
  5
A82
  8
3
 10
66.2899930669311175
 20
90.1583449999999829
 30
0.0
 40
0.0999999330689475
 50
300.9640184328738997
 51
59.0359815671330068
  0
ARC
  5
A83
  8
3
 10
64.2759054183349718
 20
88.949897279058419
 30
0.0
 40
0.1000042790601161
 50
270.0003332552636266
 51
300.9622896643372201
  0
ARC
  5
A84
  8
3
 10
64.2759054183349434
 20
91.3667927209415467
 30
0.0
 40
0.100004279060148
 50
59.0377103356641726
 51
89.9996667447283158
  0
LINE
  5
A85
  8
3
 10
64.3273549999999545
 20
85.8641429999999843
 30
0.0
 11
66.3414430000000266
 21
87.0725959999999759
 31
0.0
  0
LINE
  5
A86
  8
3
 10
64.3273549999999545
 20
88.4525469999999956
 30
0.0
 11
66.3414430000000266
 21
87.2440939999999756
 31
0.0
  0
ARC
  5
A87
  8
3
 10
66.2899930669311317
 20
87.1583449999999686
 30
0.0
 40
0.0999999330689402
 50
300.9640184328670216
 51
59.0359815671399772
  0
ARC
  5
A88
  8
3
 10
64.2759054183349718
 20
85.9498972790584475
 30
0.0
 40
0.1000042790601446
 50
270.0003332552636266
 51
300.9622896643289209
  0
ARC
  5
A89
  8
3
 10
64.2759054183349434
 20
88.3667927209415751
 30
0.0
 40
0.1000042790601236
 50
59.0377103356558024
 51
89.9996667447283158
  0
LINE
  5
A8A
  8
3
 10
64.3273549999999545
 20
82.8641429999999986
 30
0.0
 11
66.3414430000000266
 21
84.0725959999999901
 31
0.0
  0
LINE
  5
A8B
  8
3
 10
64.3273549999999545
 20
85.4525469999999956
 30
0.0
 11
66.3414430000000266
 21
84.244094000000004
 31
0.0
  0
ARC
  5
A8C
  8
3
 10
66.2899930669311317
 20
84.1583449999999829
 30
0.0
 40
0.0999999330689402
 50
300.9640184328670216
 51
59.0359815671399772
  0
ARC
  5
A8D
  8
3
 10
64.2759054183349434
 20
82.9498972790584617
 30
0.0
 40
0.1000042790601446
 50
270.0003332552716984
 51
300.962289664335799
  0
ARC
  5
A8E
  8
3
 10
64.2759054183349434
 20
85.3667927209415467
 30
0.0
 40
0.1000042790601358
 50
59.0377103356599804
 51
89.9996667447283158
  0
LINE
  5
A8F
  8
3
 10
65.6510250000000042
 20
80.6583449999999971
 30
0.0
 11
66.3414430000000266
 21
81.0725959999999901
 31
0.0
  0
LINE
  5
A90
  8
3
 10
64.3273549999999545
 20
82.4525469999999956
 30
0.0
 11
66.3414430000000266
 21
81.2440939999999898
 31
0.0
  0
ARC
  5
A91
  8
3
 10
66.2899930669311601
 20
81.1583449999999544
 30
0.0
 40
0.0999999330689134
 50
300.9640184328571877
 51
59.0359815671567389
  0
ARC
  5
A92
  8
3
 10
64.2759054183349434
 20
82.3667927209415325
 30
0.0
 40
0.100004279060148
 50
59.0377103356641726
 51
89.9996667447283158
  0
LINE
  5
A93
  8
3
 10
67.2103690000000142
 20
99.244094000000004
 30
0.0
 11
69.224456000000032
 21
100.4525469999999956
 31
0.0
  0
LINE
  5
A94
  8
3
 10
67.2103690000000142
 20
99.0725959999999901
 30
0.0
 11
69.224456000000032
 21
97.8641429999999986
 31
0.0
  0
LINE
  5
A95
  8
3
 10
69.3273549999999545
 20
97.8641429999999986
 30
0.0
 11
71.3414430000000266
 21
99.0725959999999901
 31
0.0
  0
LINE
  5
A96
  8
3
 10
69.3273549999999545
 20
100.4525469999999956
 30
0.0
 11
71.3414430000000266
 21
99.244094000000004
 31
0.0
  0
ARC
  5
A97
  8
3
 10
71.2899930669311175
 20
99.1583449999999544
 30
0.0
 40
0.099999933068911
 50
300.9640184328865189
 51
59.0359815671441766
  0
ARC
  5
A98
  8
3
 10
69.2759055000000075
 20
97.9498969842321543
 30
0.0
 40
0.1000039842302988
 50
239.0376635542837107
 51
300.9623364457023058
  0
ARC
  5
A99
  8
3
 10
67.2618168733704351
 20
99.1583449999999829
 30
0.0
 40
0.0999988733703538
 50
120.9630064794315984
 51
239.0369935205642093
  0
ARC
  5
A9A
  8
3
 10
69.2759054999999648
 20
100.3667930157918988
 30
0.0
 40
0.1000039842096194
 50
59.037663547175363
 51
120.9623364528107032
  0
LINE
  5
A9B
  8
3
 10
67.2103690000000142
 20
96.2440939999999898
 30
0.0
 11
69.224456000000032
 21
97.4525469999999956
 31
0.0
  0
LINE
  5
A9C
  8
3
 10
67.2103690000000142
 20
96.0725959999999901
 30
0.0
 11
69.224456000000032
 21
94.8641429999999843
 31
0.0
  0
LINE
  5
A9D
  8
3
 10
69.3273549999999545
 20
94.8641429999999843
 30
0.0
 11
71.3414430000000266
 21
96.0725959999999901
 31
0.0
  0
LINE
  5
A9E
  8
3
 10
69.3273549999999545
 20
97.4525469999999956
 30
0.0
 11
71.3414430000000266
 21
96.2440939999999898
 31
0.0
  0
ARC
  5
A9F
  8
3
 10
71.2899930669310891
 20
96.1583449999999829
 30
0.0
 40
0.0999999330689622
 50
300.9640184328878831
 51
59.035981567116238
  0
ARC
  5
AA0
  8
3
 10
69.2759054999999648
 20
94.9498969842080243
 30
0.0
 40
0.1000039842096047
 50
239.037663547189311
 51
300.9623364528246725
  0
ARC
  5
AA1
  8
3
 10
67.2618168733703357
 20
96.1583449999999829
 30
0.0
 40
0.0999988733703149
 50
120.9630064793785067
 51
239.0369935206088883
  0
ARC
  5
AA2
  8
3
 10
69.2759055000000075
 20
97.3667930157678541
 30
0.0
 40
0.1000039842302842
 50
59.0376635542977226
 51
120.962336445716204
  0
LINE
  5
AA3
  8
3
 10
67.2103690000000142
 20
93.2440939999999756
 30
0.0
 11
69.224456000000032
 21
94.4525469999999956
 31
0.0
  0
LINE
  5
AA4
  8
3
 10
67.2103690000000142
 20
93.0725960000000043
 30
0.0
 11
69.224456000000032
 21
91.8641429999999986
 31
0.0
  0
LINE
  5
AA5
  8
3
 10
69.3273549999999545
 20
91.8641429999999986
 30
0.0
 11
71.3414430000000266
 21
93.0725960000000043
 31
0.0
  0
LINE
  5
AA6
  8
3
 10
69.3273549999999545
 20
94.4525469999999956
 30
0.0
 11
71.3414430000000266
 21
93.2440939999999756
 31
0.0
  0
ARC
  5
AA7
  8
3
 10
71.2899930669310891
 20
93.1583449999999971
 30
0.0
 40
0.0999999330689743
 50
300.9640184328837904
 51
59.03598156711206
  0
ARC
  5
AA8
  8
3
 10
69.2759060000000204
 20
91.949893000000003
 30
0.0
 40
0.1
 50
239.0362429999995015
 51
300.9637570000002142
  0
ARC
  5
AA9
  8
3
 10
67.2618168733703357
 20
93.1583449999999971
 30
0.0
 40
0.0999988733703027
 50
120.9630064793826989
 51
239.0369935206130094
  0
ARC
  5
AAA
  8
3
 10
69.2759054999999648
 20
94.3667930157678541
 30
0.0
 40
0.1000039842302988
 50
59.0376635542837533
 51
120.9623364457023058
  0
LINE
  5
AAB
  8
3
 10
67.2103690000000142
 20
90.2440939999999898
 30
0.0
 11
69.224456000000032
 21
91.4525469999999956
 31
0.0
  0
LINE
  5
AAC
  8
3
 10
67.2103690000000142
 20
90.0725959999999901
 30
0.0
 11
69.224456000000032
 21
88.8641429999999986
 31
0.0
  0
LINE
  5
AAD
  8
3
 10
69.3273549999999545
 20
88.8641429999999986
 30
0.0
 11
71.3414430000000266
 21
90.0725959999999901
 31
0.0
  0
LINE
  5
AAE
  8
3
 10
69.3273549999999545
 20
91.4525469999999956
 30
0.0
 11
71.3414430000000266
 21
90.2440939999999898
 31
0.0
  0
ARC
  5
AAF
  8
3
 10
71.2899930669310748
 20
90.1583449999999829
 30
0.0
 40
0.0999999330689695
 50
300.9640184328948749
 51
59.0359815671092676
  0
ARC
  5
AB0
  8
3
 10
69.2759054999999933
 20
88.9498969842321543
 30
0.0
 40
0.1000039842303037
 50
239.0376635542949089
 51
300.9623364457050911
  0
ARC
  5
AB1
  8
3
 10
67.2618168733703357
 20
90.1583449999999971
 30
0.0
 40
0.0999988733702905
 50
120.9630064793869053
 51
239.0369935206173011
  0
ARC
  5
AB2
  8
3
 10
69.2759054999999933
 20
91.3667930157677546
 30
0.0
 40
0.1000039842303768
 50
59.0376635543200408
 51
120.9623364456798953
  0
LINE
  5
AB3
  8
3
 10
67.2103690000000142
 20
87.2440939999999756
 30
0.0
 11
69.224456000000032
 21
88.4525469999999956
 31
0.0
  0
LINE
  5
AB4
  8
3
 10
67.2103690000000142
 20
87.0725959999999759
 30
0.0
 11
69.224456000000032
 21
85.8641429999999843
 31
0.0
  0
LINE
  5
AB5
  8
3
 10
69.3273549999999545
 20
85.8641429999999843
 30
0.0
 11
71.3414430000000266
 21
87.0725959999999759
 31
0.0
  0
LINE
  5
AB6
  8
3
 10
69.3273549999999545
 20
88.4525469999999956
 30
0.0
 11
71.3414430000000266
 21
87.2440939999999756
 31
0.0
  0
ARC
  5
AB7
  8
3
 10
71.2899930669311175
 20
87.1583449999999686
 30
0.0
 40
0.0999999330689353
 50
300.9640184328782198
 51
59.0359815671371919
  0
ARC
  5
AB8
  8
3
 10
69.2759054999999933
 20
85.9498969842321401
 30
0.0
 40
0.1000039842302915
 50
239.0376635542907025
 51
300.9623364457092975
  0
ARC
  5
AB9
  8
3
 10
67.2618168733704067
 20
87.1583449999999686
 30
0.0
 40
0.0999988733703392
 50
120.9630064794176008
 51
239.0369935205781928
  0
ARC
  5
ABA
  8
3
 10
69.2759054999999648
 20
88.3667930157919557
 30
0.0
 40
0.1000039842096316
 50
59.0376635471795481
 51
120.9623364528023046
  0
LINE
  5
ABB
  8
3
 10
67.2103690000000142
 20
84.244094000000004
 30
0.0
 11
69.224456000000032
 21
85.4525469999999956
 31
0.0
  0
LINE
  5
ABC
  8
3
 10
67.2103690000000142
 20
84.0725959999999901
 30
0.0
 11
69.224456000000032
 21
82.8641429999999986
 31
0.0
  0
LINE
  5
ABD
  8
3
 10
69.3273549999999545
 20
82.8641429999999986
 30
0.0
 11
71.3414430000000266
 21
84.0725959999999901
 31
0.0
  0
LINE
  5
ABE
  8
3
 10
69.3273549999999545
 20
85.4525469999999956
 30
0.0
 11
71.3414430000000266
 21
84.244094000000004
 31
0.0
  0
ARC
  5
ABF
  8
3
 10
71.289993066931018
 20
84.1583449999999544
 30
0.0
 40
0.0999999330689743
 50
300.9640184329311978
 51
59.0359815670911203
  0
ARC
  5
AC0
  8
3
 10
69.2759054999999933
 20
82.9498969842321259
 30
0.0
 40
0.1000039842302915
 50
239.0376635542907025
 51
300.9623364457092975
  0
ARC
  5
AC1
  8
3
 10
67.2618168733703783
 20
84.1583449999999829
 30
0.0
 40
0.0999988733703246
 50
120.9630064794037025
 51
239.036993520592091
  0
ARC
  5
AC2
  8
3
 10
69.2759054999999648
 20
85.3667930157919557
 30
0.0
 40
0.1000039842096194
 50
59.037663547175363
 51
120.9623364528107032
  0
LINE
  5
AC3
  8
3
 10
67.2103690000000142
 20
81.2440939999999898
 30
0.0
 11
69.224456000000032
 21
82.4525469999999956
 31
0.0
  0
LINE
  5
AC4
  8
3
 10
67.2103690000000142
 20
81.0725959999999901
 30
0.0
 11
67.9007870000000366
 21
80.6583449999999971
 31
0.0
  0
LINE
  5
AC5
  8
3
 10
70.6510250000000042
 20
80.6583449999999971
 30
0.0
 11
71.3414430000000266
 21
81.0725959999999901
 31
0.0
  0
LINE
  5
AC6
  8
3
 10
69.3273549999999545
 20
82.4525469999999956
 30
0.0
 11
71.3414430000000266
 21
81.2440939999999898
 31
0.0
  0
ARC
  5
AC7
  8
3
 10
71.2899930669311175
 20
81.1583449999999544
 30
0.0
 40
0.0999999330689232
 50
300.9640184328824262
 51
59.0359815671399772
  0
ARC
  5
AC8
  8
3
 10
67.2618168733704067
 20
81.1583449999999971
 30
0.0
 40
0.099998873370327
 50
120.963006479421793
 51
239.0369935205795002
  0
ARC
  5
AC9
  8
3
 10
69.2759054999999648
 20
82.3667930157919699
 30
0.0
 40
0.1000039842096194
 50
59.037663547175363
 51
120.9623364528107032
  0
LINE
  5
ACA
  8
3
 10
72.2103690000000142
 20
99.244094000000004
 30
0.0
 11
74.224456000000032
 21
100.4525469999999956
 31
0.0
  0
LINE
  5
ACB
  8
3
 10
72.2103690000000142
 20
99.0725959999999901
 30
0.0
 11
74.224456000000032
 21
97.8641429999999986
 31
0.0
  0
LINE
  5
ACD
  8
3
 10
74.3273549999999545
 20
100.4525469999999956
 30
0.0
 11
76.3414430000000266
 21
99.244094000000004
 31
0.0
  0
ARC
  5
ACE
  8
3
 10
76.289993033465322
 20
99.1583449810522097
 30
0.0
 40
0.0999999665346679
 50
334.9731992832670926
 51
59.0359707107331388
  0
ARC
  5
ACF
  8
3
 10
74.2759051982275338
 20
97.9498958946530962
 30
0.0
 40
0.1000028946562901
 50
239.0374906469023131
 51
240.1485893145022033
  0
ARC
  5
AD0
  8
3
 10
72.2618168733703499
 20
99.1583449999999686
 30
0.0
 40
0.0999988733703222
 50
120.9630064793854984
 51
239.0369935206018965
  0
ARC
  5
AD1
  8
3
 10
74.2759054999999648
 20
100.3667930157676977
 30
0.0
 40
0.1000039842304036
 50
59.0376635543102708
 51
120.9623364456618049
  0
LINE
  5
AD2
  8
3
 10
72.2103690000000142
 20
96.2440939999999898
 30
0.0
 11
73.1573176472005855
 21
96.8122635644505038
 31
0.0
  0
LINE
  5
AD3
  8
3
 10
72.2103690000000142
 20
96.0725959999999901
 30
0.0
 11
72.4943429723511343
 21
95.9022115037941774
 31
0.0
  0
ARC
  5
AD8
  8
3
 10
72.2618168733703214
 20
96.1583449999999829
 30
0.0
 40
0.0999988733703075
 50
120.9630064793715007
 51
239.0369935206159084
  0
LINE
  5
AEA
  8
3
 10
72.2103690000000142
 20
87.2440939999999756
 30
0.0
 11
72.4943429723511343
 21
87.4144784962057884
 31
0.0
  0
LINE
  5
AEB
  8
3
 10
72.2103690000000142
 20
87.0725959999999759
 30
0.0
 11
73.1573176472005855
 21
86.5044264355494619
 31
0.0
  0
ARC
  5
AF0
  8
3
 10
72.2618168733703214
 20
87.1583449999999971
 30
0.0
 40
0.0999988733702832
 50
120.9630064793798994
 51
239.0369935206242076
  0
LINE
  5
AF2
  8
3
 10
72.2103690000000142
 20
84.244094000000004
 30
0.0
 11
74.224456000000032
 21
85.4525469999999956
 31
0.0
  0
LINE
  5
AF3
  8
3
 10
72.2103690000000142
 20
84.0725959999999901
 30
0.0
 11
74.224456000000032
 21
82.8641429999999986
 31
0.0
  0
LINE
  5
AF4
  8
3
 10
74.3273549999999545
 20
82.8641429999999986
 30
0.0
 11
76.3414430000000266
 21
84.0725959999999901
 31
0.0
  0
ARC
  5
AF6
  8
3
 10
76.2899930334654215
 20
84.1583450189477986
 30
0.0
 40
0.0999999665346124
 50
300.9640292892095772
 51
25.0268007167938293
  0
ARC
  5
AF7
  8
3
 10
74.2759055000000075
 20
82.9498969842321543
 30
0.0
 40
0.100003984230311
 50
239.0376635542878887
 51
300.9623364456980994
  0
ARC
  5
AF8
  8
3
 10
72.2618168733703925
 20
84.1583449999999829
 30
0.0
 40
0.0999988733703319
 50
120.9630064794105948
 51
239.0369935205850993
  0
ARC
  5
AF9
  8
3
 10
74.2759051982275338
 20
85.3667941053469264
 30
0.0
 40
0.1000028946562732
 50
119.8514106855129029
 51
120.9625093531018933
  0
LINE
  5
AFA
  8
3
 10
72.2103690000000142
 20
81.2440939999999898
 30
0.0
 11
74.224456000000032
 21
82.4525469999999956
 31
0.0
  0
LINE
  5
AFB
  8
3
 10
72.2103690000000142
 20
81.0725959999999901
 30
0.0
 11
72.9007870000000366
 21
80.6583449999999971
 31
0.0
  0
LINE
  5
AFC
  8
3
 10
75.6510250000000042
 20
80.6583449999999971
 30
0.0
 11
76.3414430000000266
 21
81.0725959999999901
 31
0.0
  0
LINE
  5
AFD
  8
3
 10
74.3273549999999545
 20
82.4525469999999956
 30
0.0
 11
76.3414430000000266
 21
81.2440939999999898
 31
0.0
  0
ARC
  5
AFE
  8
3
 10
76.2899930669311601
 20
81.1583449999999544
 30
0.0
 40
0.0999999330689134
 50
300.9640184328571877
 51
59.0359815671567389
  0
ARC
  5
AFF
  8
3
 10
72.2618168733704067
 20
81.1583449999999971
 30
0.0
 40
0.099998873370327
 50
120.963006479421793
 51
239.0369935205795002
  0
ARC
  5
B00
  8
3
 10
74.2759054999999648
 20
82.366793015791913
 30
0.0
 40
0.1000039842096632
 50
59.0376635471809408
 51
120.9623364527869001
  0
LINE
  5
B01
  8
3
 10
77.6076670559657202
 20
99.4824729913871408
 30
0.0
 11
79.224456000000032
 21
100.4525469999999956
 31
0.0
  0
LINE
  5
B04
  8
3
 10
79.3273549999999545
 20
100.4525469999999956
 30
0.0
 11
80.9441446380337766
 21
99.4824730566316759
 31
0.0
  0
ARC
  5
B08
  8
3
 10
79.2759054999999648
 20
100.3667930157676977
 30
0.0
 40
0.1000039842304085
 50
59.0376635543214476
 51
120.9623364456646044
  0
LINE
  5
B2A
  8
3
 10
77.6076670559656492
 20
83.8342170086128959
 30
0.0
 11
79.224456000000032
 21
82.8641429999999986
 31
0.0
  0
LINE
  5
B2B
  8
3
 10
79.3273549999999545
 20
82.8641429999999986
 30
0.0
 11
80.944144638033805
 21
83.834216943368304
 31
0.0
  0
ARC
  5
B2E
  8
3
 10
79.2759054999999933
 20
82.9498969842321259
 30
0.0
 40
0.1000039842302793
 50
239.0376635542866097
 51
300.962336445713504
  0
LINE
  5
B31
  8
3
 10
77.2103690000000142
 20
81.2440939999999898
 30
0.0
 11
79.224456000000032
 21
82.4525469999999956
 31
0.0
  0
LINE
  5
B32
  8
3
 10
77.2103690000000142
 20
81.0725959999999901
 30
0.0
 11
77.9007870000000366
 21
80.6583449999999971
 31
0.0
  0
LINE
  5
B33
  8
3
 10
80.6510250000000042
 20
80.6583449999999971
 30
0.0
 11
81.3414430000000266
 21
81.0725959999999901
 31
0.0
  0
LINE
  5
B34
  8
3
 10
79.3273549999999545
 20
82.4525469999999956
 30
0.0
 11
81.3414430000000266
 21
81.2440939999999898
 31
0.0
  0
ARC
  5
B35
  8
3
 10
81.2899930669311317
 20
81.1583449999999829
 30
0.0
 40
0.0999999330689402
 50
300.9640184328670216
 51
59.0359815671399772
  0
ARC
  5
B36
  8
3
 10
77.2618168733704209
 20
81.1583449999999971
 30
0.0
 40
0.0999988733703343
 50
120.9630064794287989
 51
239.0369935205752938
  0
ARC
  5
B37
  8
3
 10
79.2759054999999933
 20
82.3667930157919699
 30
0.0
 40
0.1000039842096121
 50
59.0376635471823477
 51
120.9623364528175955
  0
LINE
  5
B38
  8
3
 10
82.2103690000000142
 20
99.244094000000004
 30
0.0
 11
84.224456000000032
 21
100.4525469999999956
 31
0.0
  0
LINE
  5
B3A
  8
3
 10
84.3273549999999545
 20
97.8641429999999986
 30
0.0
 11
86.3414430000000266
 21
99.0725959999999901
 31
0.0
  0
LINE
  5
B3B
  8
3
 10
84.3273549999999545
 20
100.4525469999999956
 30
0.0
 11
86.3414430000000266
 21
99.244094000000004
 31
0.0
  0
ARC
  5
B3C
  8
3
 10
86.2899930669311033
 20
99.1583449999999544
 30
0.0
 40
0.0999999330689183
 50
300.9640184328935106
 51
59.0359815671371919
  0
ARC
  5
B3D
  8
3
 10
84.2759060000000204
 20
97.949893000000003
 30
0.0
 40
0.1
 50
299.8524623228212249
 51
300.9637570000002142
  0
ARC
  5
B3E
  8
3
 10
82.2618174366808432
 20
99.158344681054075
 30
0.0
 40
0.0999994366813682
 50
120.963189222920704
 51
205.0264273861575077
  0
ARC
  5
B3F
  8
3
 10
84.2759054999999648
 20
100.3667930157676977
 30
0.0
 40
0.1000039842303963
 50
59.0376635543172625
 51
120.9623364456687966
  0
LINE
  5
B42
  8
3
 10
86.0574689891603839
 20
95.902211565297435
 30
0.0
 11
86.3414430000000266
 21
96.0725959999999901
 31
0.0
  0
LINE
  5
B43
  8
3
 10
85.3944948332336935
 20
96.8122629940922366
 30
0.0
 11
86.3414430000000266
 21
96.2440939999999898
 31
0.0
  0
ARC
  5
B44
  8
3
 10
86.2899930669311033
 20
96.1583449999999829
 30
0.0
 40
0.0999999330689549
 50
300.9640184328810051
 51
59.0359815671232298
  0
LINE
  5
B5A
  8
3
 10
85.3944948332336367
 20
86.5044270059077149
 30
0.0
 11
86.3414430000000266
 21
87.0725959999999759
 31
0.0
  0
LINE
  5
B5B
  8
3
 10
86.0574689891603555
 20
87.4144784347025166
 30
0.0
 11
86.3414430000000266
 21
87.2440939999999756
 31
0.0
  0
ARC
  5
B5C
  8
3
 10
86.2899930669310748
 20
87.1583449999999686
 30
0.0
 40
0.0999999330689622
 50
300.9640184328878831
 51
59.035981567116238
  0
LINE
  5
B61
  8
3
 10
82.2103690000000142
 20
84.0725959999999901
 30
0.0
 11
84.224456000000032
 21
82.8641429999999986
 31
0.0
  0
LINE
  5
B62
  8
3
 10
84.3273549999999545
 20
82.8641429999999986
 30
0.0
 11
86.3414430000000266
 21
84.0725959999999901
 31
0.0
  0
LINE
  5
B63
  8
3
 10
84.3273549999999545
 20
85.4525469999999956
 30
0.0
 11
86.3414430000000266
 21
84.244094000000004
 31
0.0
  0
ARC
  5
B64
  8
3
 10
86.2899930669310748
 20
84.1583449999999971
 30
0.0
 40
0.0999999330689743
 50
300.9640184328837904
 51
59.03598156711206
  0
ARC
  5
B65
  8
3
 10
84.2759054999999933
 20
82.9498969842321259
 30
0.0
 40
0.1000039842302793
 50
239.0376635542866097
 51
300.962336445713504
  0
ARC
  5
B66
  8
3
 10
82.2618174366808717
 20
84.1583453189458908
 30
0.0
 40
0.0999994366813617
 50
154.9735726138497967
 51
239.0368107770680979
  0
ARC
  5
B67
  8
3
 10
84.2759063017657866
 20
85.366795910529703
 30
0.0
 40
0.1000010894707161
 50
59.0372041832506014
 51
60.147933491874177
  0
LINE
  5
B68
  8
3
 10
82.2103690000000142
 20
81.2440939999999898
 30
0.0
 11
84.224456000000032
 21
82.4525469999999956
 31
0.0
  0
LINE
  5
B69
  8
3
 10
82.2103690000000142
 20
81.0725959999999901
 30
0.0
 11
82.9007870000000366
 21
80.6583449999999971
 31
0.0
  0
LINE
  5
B6A
  8
3
 10
85.6510250000000042
 20
80.6583449999999971
 30
0.0
 11
86.3414430000000266
 21
81.0725959999999901
 31
0.0
  0
LINE
  5
B6B
  8
3
 10
84.3273549999999545
 20
82.4525469999999956
 30
0.0
 11
86.3414430000000266
 21
81.2440939999999898
 31
0.0
  0
ARC
  5
B6C
  8
3
 10
86.2899930669311033
 20
81.1583449999999544
 30
0.0
 40
0.0999999330689305
 50
300.9640184328894179
 51
59.0359815671330068
  0
ARC
  5
B6D
  8
3
 10
82.2618168733704067
 20
81.1583449999999829
 30
0.0
 40
0.0999988733703392
 50
120.9630064794176008
 51
239.0369935205781928
  0
ARC
  5
B6E
  8
3
 10
84.2759054999999648
 20
82.366793015791913
 30
0.0
 40
0.1000039842096559
 50
59.0376635471879183
 51
120.962336452793906
  0
LINE
  5
B6F
  8
3
 10
87.2103690000000142
 20
99.244094000000004
 30
0.0
 11
89.2244560000000035
 21
100.4525469999999956
 31
0.0
  0
LINE
  5
B70
  8
3
 10
87.2103690000000142
 20
99.0725959999999901
 30
0.0
 11
89.2244560000000035
 21
97.8641429999999986
 31
0.0
  0
LINE
  5
B71
  8
3
 10
89.3273549999999688
 20
97.8641429999999986
 30
0.0
 11
91.3414430000000266
 21
99.0725959999999901
 31
0.0
  0
LINE
  5
B72
  8
3
 10
89.3273549999999688
 20
100.4525469999999956
 30
0.0
 11
91.3414430000000266
 21
99.244094000000004
 31
0.0
  0
ARC
  5
B73
  8
3
 10
91.2899930669311317
 20
99.1583449999999829
 30
0.0
 40
0.0999999330689402
 50
300.9640184328670216
 51
59.0359815671330068
  0
ARC
  5
B74
  8
3
 10
89.2759055000000359
 20
97.949896984232339
 30
0.0
 40
0.1000039842304914
 50
239.0376635543215116
 51
300.9623364456534205
  0
ARC
  5
B75
  8
3
 10
87.2618168733704636
 20
99.1583449999999971
 30
0.0
 40
0.0999988733703563
 50
120.9630064794497031
 51
239.0369935205544039
  0
ARC
  5
B76
  8
3
 10
89.2759055000000075
 20
100.3667930157675983
 30
0.0
 40
0.1000039842304938
 50
59.0376635543507717
 51
120.9623364456631975
  0
LINE
  5
B77
  8
3
 10
87.2103690000000142
 20
96.2440939999999898
 30
0.0
 11
89.2244560000000035
 21
97.4525469999999956
 31
0.0
  0
LINE
  5
B78
  8
3
 10
87.2103690000000142
 20
96.0725959999999901
 30
0.0
 11
89.2244560000000035
 21
94.8641429999999843
 31
0.0
  0
LINE
  5
B79
  8
3
 10
89.3273549999999688
 20
94.8641429999999843
 30
0.0
 11
91.3414430000000266
 21
96.0725959999999901
 31
0.0
  0
LINE
  5
B7A
  8
3
 10
89.3273549999999688
 20
97.4525469999999956
 30
0.0
 11
91.3414430000000266
 21
96.2440939999999898
 31
0.0
  0
ARC
  5
B7B
  8
3
 10
91.2899930669309896
 20
96.1583450000000113
 30
0.0
 40
0.0999999330690377
 50
300.9640184329284125
 51
59.0359815670562114
  0
ARC
  5
B7C
  8
3
 10
89.2759055000000075
 20
94.9498969842322253
 30
0.0
 40
0.1000039842303866
 50
239.0376635542949089
 51
300.962336445693893
  0
ARC
  5
B7D
  8
3
 10
87.2618168733703641
 20
96.1583449999999829
 30
0.0
 40
0.0999988733703246
 50
120.9630064794037025
 51
239.036993520592091
  0
ARC
  5
B7E
  8
3
 10
89.2759054999999648
 20
97.3667930157918704
 30
0.0
 40
0.1000039842097388
 50
59.0376635471879183
 51
120.9623364527798941
  0
LINE
  5
B7F
  8
3
 10
87.2103690000000142
 20
93.2440939999999756
 30
0.0
 11
89.2244560000000035
 21
94.4525469999999956
 31
0.0
  0
LINE
  5
B80
  8
3
 10
87.2103690000000142
 20
93.0725960000000043
 30
0.0
 11
89.2244560000000035
 21
91.8641429999999986
 31
0.0
  0
LINE
  5
B81
  8
3
 10
89.3273549999999688
 20
91.8641429999999986
 30
0.0
 11
91.3414430000000266
 21
93.0725960000000043
 31
0.0
  0
LINE
  5
B82
  8
3
 10
89.3273549999999688
 20
94.4525469999999956
 30
0.0
 11
91.3414430000000266
 21
93.2440939999999756
 31
0.0
  0
ARC
  5
B83
  8
3
 10
91.2899930669311317
 20
93.1583449999999971
 30
0.0
 40
0.0999999330689402
 50
300.9640184328670216
 51
59.0359815671330068
  0
ARC
  5
B84
  8
3
 10
89.2759055000000359
 20
91.9498969842323248
 30
0.0
 40
0.1000039842304792
 50
239.0376635543173052
 51
300.9623364456576269
  0
ARC
  5
B85
  8
3
 10
87.2618168733704209
 20
93.1583450000000113
 30
0.0
 40
0.0999988733703221
 50
120.9630064794330053
 51
239.0369935205781928
  0
ARC
  5
B86
  8
3
 10
89.2759054999999648
 20
94.366793015791842
 30
0.0
 40
0.100003984209751
 50
59.0376635471921176
 51
120.9623364527758014
  0
LINE
  5
B87
  8
3
 10
87.2103690000000142
 20
90.2440939999999898
 30
0.0
 11
89.2244560000000035
 21
91.4525469999999956
 31
0.0
  0
LINE
  5
B88
  8
3
 10
87.2103690000000142
 20
90.0725959999999901
 30
0.0
 11
89.2244560000000035
 21
88.8641429999999986
 31
0.0
  0
LINE
  5
B89
  8
3
 10
89.3273549999999688
 20
88.8641429999999986
 30
0.0
 11
91.3414430000000266
 21
90.0725959999999901
 31
0.0
  0
LINE
  5
B8A
  8
3
 10
89.3273549999999688
 20
91.4525469999999956
 30
0.0
 11
91.3414430000000266
 21
90.2440939999999898
 31
0.0
  0
ARC
  5
B8B
  8
3
 10
91.2899930669310606
 20
90.1583449999999971
 30
0.0
 40
0.099999933068989
 50
300.964018432897717
 51
59.0359815670981121
  0
ARC
  5
B8C
  8
3
 10
89.2759055000000075
 20
88.9498969842322253
 30
0.0
 40
0.1000039842303744
 50
239.0376635542907025
 51
300.9623364456980994
  0
ARC
  5
B8D
  8
3
 10
87.2618168733704067
 20
90.1583449999999971
 30
0.0
 40
0.099998873370327
 50
120.963006479421793
 51
239.0369935205795002
  0
ARC
  5
B8E
  8
3
 10
89.2759055000000075
 20
91.3667930157675983
 30
0.0
 40
0.100003984230506
 50
59.0376635543549568
 51
120.9623364456590053
  0
LINE
  5
B8F
  8
3
 10
87.2103690000000142
 20
87.2440939999999756
 30
0.0
 11
89.2244560000000035
 21
88.4525469999999956
 31
0.0
  0
LINE
  5
B90
  8
3
 10
87.2103690000000142
 20
87.0725959999999759
 30
0.0
 11
89.2244560000000035
 21
85.8641429999999843
 31
0.0
  0
LINE
  5
B91
  8
3
 10
89.3273549999999688
 20
85.8641429999999843
 30
0.0
 11
91.3414430000000266
 21
87.0725959999999759
 31
0.0
  0
LINE
  5
B92
  8
3
 10
89.3273549999999688
 20
88.4525469999999956
 30
0.0
 11
91.3414430000000266
 21
87.2440939999999756
 31
0.0
  0
ARC
  5
B93
  8
3
 10
91.2899930669311317
 20
87.1583449999999971
 30
0.0
 40
0.0999999330689524
 50
300.9640184328628152
 51
59.0359815671288075
  0
ARC
  5
B94
  8
3
 10
89.2759055000000075
 20
85.9498969842322538
 30
0.0
 40
0.1000039842303988
 50
239.0376635542990016
 51
300.9623364456896866
  0
ARC
  5
B95
  8
3
 10
87.2618168733703925
 20
87.1583449999999686
 30
0.0
 40
0.0999988733703319
 50
120.9630064794105948
 51
239.0369935205823992
  0
ARC
  5
B96
  8
3
 10
89.2759054999999648
 20
88.366793015791842
 30
0.0
 40
0.100003984209751
 50
59.0376635471921176
 51
120.9623364527758014
  0
LINE
  5
B97
  8
3
 10
87.2103690000000142
 20
84.244094000000004
 30
0.0
 11
89.2244560000000035
 21
85.4525469999999956
 31
0.0
  0
LINE
  5
B98
  8
3
 10
87.2103690000000142
 20
84.0725959999999901
 30
0.0
 11
89.2244560000000035
 21
82.8641429999999986
 31
0.0
  0
LINE
  5
B99
  8
3
 10
89.3273549999999688
 20
82.8641429999999986
 30
0.0
 11
91.3414430000000266
 21
84.0725959999999901
 31
0.0
  0
LINE
  5
B9A
  8
3
 10
89.3273549999999688
 20
85.4525469999999956
 30
0.0
 11
91.3414430000000266
 21
84.244094000000004
 31
0.0
  0
ARC
  5
B9B
  8
3
 10
91.2899930669310038
 20
84.1583449999999971
 30
0.0
 40
0.0999999330690231
 50
300.9640184329144859
 51
59.0359815670701593
  0
ARC
  5
B9C
  8
3
 10
89.2759055000000075
 20
82.9498969842322538
 30
0.0
 40
0.1000039842304109
 50
239.0376635543032933
 51
300.9623364456854802
  0
ARC
  5
B9D
  8
3
 10
87.2618168733704067
 20
84.1583449999999971
 30
0.0
 40
0.0999988733703149
 50
120.9630064794259994
 51
239.0369935205850993
  0
ARC
  5
B9E
  8
3
 10
89.2759054999999648
 20
85.3667930157918562
 30
0.0
 40
0.1000039842097388
 50
59.0376635471879183
 51
120.9623364527798941
  0
ARC
  5
B9F
  8
3
 10
89.2759054999999648
 20
82.3667930157917851
 30
0.0
 40
0.1000039842097924
 50
59.0376635472158426
 51
120.9623364527702023
  0
ARC
  5
BA0
  8
3
 10
87.2618168733704067
 20
81.1583449999999829
 30
0.0
 40
0.0999988733703392
 50
120.9630064794176008
 51
239.0369935205752938
  0
ARC
  5
BA1
  8
3
 10
91.2899930669311317
 20
81.1583449999999829
 30
0.0
 40
0.0999999330689402
 50
300.9640184328670216
 51
59.0359815671330068
  0
LINE
  5
BA2
  8
3
 10
89.3273549999999688
 20
82.4525469999999956
 30
0.0
 11
91.3414430000000266
 21
81.2440939999999898
 31
0.0
  0
LINE
  5
BA3
  8
3
 10
90.6510250000000042
 20
80.6583449999999971
 30
0.0
 11
91.3414430000000266
 21
81.0725959999999901
 31
0.0
  0
LINE
  5
BA4
  8
3
 10
87.2103690000000142
 20
81.0725959999999901
 30
0.0
 11
87.9007870000000366
 21
80.6583449999999971
 31
0.0
  0
LINE
  5
BA5
  8
3
 10
87.2103690000000142
 20
81.2440939999999898
 30
0.0
 11
89.2244560000000035
 21
82.4525469999999956
 31
0.0
  0
ARC
  5
BA6
  8
3
 10
94.275907545491151
 20
82.3667856304897441
 30
0.0
 40
0.1000113695221685
 50
90.0008854005411081
 51
120.9611645840531935
  0
LINE
  5
BA7
  8
3
 10
92.2103689999999858
 20
81.2440939999999898
 30
0.0
 11
94.2244560000000035
 21
82.4525469999999956
 31
0.0
  0
ARC
  5
BA8
  8
3
 10
92.2618168733704636
 20
81.1583449999999971
 30
0.0
 40
0.0999988733703709
 50
120.9630064794637008
 51
239.036993520540392
  0
LINE
  5
BA9
  8
3
 10
92.2103689999999858
 20
81.0725959999999901
 30
0.0
 11
92.900786999999994
 21
80.6583449999999971
 31
0.0
  0
LINE
  5
BAA
  8
3
 10
64.3273549999999545
 20
100.8641429999999986
 30
0.0
 11
66.3414430000000266
 21
102.0725960000000043
 31
0.0
  0
ARC
  5
BAB
  8
3
 10
64.2759054183349434
 20
100.9498972790584048
 30
0.0
 40
0.1000042790601161
 50
270.0003332552716984
 51
300.9622896643442118
  0
ARC
  5
BAC
  8
3
 10
66.2899930669311175
 20
102.1583449999998976
 30
0.0
 40
0.0999999330689353
 50
300.9640184328782198
 51
59.0359815671371919
  0
LINE
  5
BAD
  8
3
 10
65.6510250000000042
 20
102.6583449999999971
 30
0.0
 11
66.3414430000000266
 21
102.244094000000004
 31
0.0
  0
LINE
  5
BAE
  8
3
 10
69.3273549999999545
 20
100.8641429999999986
 30
0.0
 11
71.3414430000000266
 21
102.0725960000000043
 31
0.0
  0
LINE
  5
BAF
  8
3
 10
67.2103690000000142
 20
102.0725960000000043
 30
0.0
 11
69.224456000000032
 21
100.8641429999999986
 31
0.0
  0
ARC
  5
BB0
  8
3
 10
69.2759055000000075
 20
100.9498969842320975
 30
0.0
 40
0.100003984230311
 50
239.0376635542878887
 51
300.9623364456980994
  0
ARC
  5
BB1
  8
3
 10
71.2899930669311175
 20
102.1583449999998976
 30
0.0
 40
0.0999999330689232
 50
300.9640184328824262
 51
59.0359815671399772
  0
LINE
  5
BB2
  8
3
 10
70.6510250000000042
 20
102.6583449999999971
 30
0.0
 11
71.3414430000000266
 21
102.244094000000004
 31
0.0
  0
LINE
  5
BB3
  8
3
 10
67.2103690000000142
 20
102.244094000000004
 30
0.0
 11
67.9007870000000366
 21
102.6583449999999971
 31
0.0
  0
ARC
  5
BB4
  8
3
 10
67.2618168733703925
 20
102.1583449999999971
 30
0.0
 40
0.0999988733702953
 50
120.9630064794231998
 51
239.0369935205962975
  0
LINE
  5
BB5
  8
3
 10
92.2103689999999858
 20
84.0725959999999901
 30
0.0
 11
94.2244560000000035
 21
82.8641429999999986
 31
0.0
  0
ARC
  5
BB6
  8
3
 10
94.275907545491151
 20
82.9499043695102074
 30
0.0
 40
0.1000113695221408
 50
239.0388354159383937
 51
269.9991145994588919
  0
ARC
  5
BB7
  8
3
 10
92.2618168733704636
 20
84.1583449999999686
 30
0.0
 40
0.0999988733703953
 50
120.9630064794553022
 51
239.0369935205335139
  0
LINE
  5
BB8
  8
3
 10
92.2103689999999858
 20
84.244094000000004
 30
0.0
 11
94.2244560000000035
 21
85.4525469999999956
 31
0.0
  0
ARC
  5
BB9
  8
3
 10
94.275907545491151
 20
85.3667856304897583
 30
0.0
 40
0.1000113695221685
 50
90.0008854005411081
 51
120.9611645840531935
  0
ARC
  5
BBA
  8
3
 10
94.275907545491151
 20
85.9499043695101932
 30
0.0
 40
0.1000113695221408
 50
239.0388354159383937
 51
269.9991145994588919
  0
LINE
  5
BBB
  8
3
 10
92.2103689999999858
 20
87.0725959999999759
 30
0.0
 11
94.2244560000000035
 21
85.8641429999999843
 31
0.0
  0
ARC
  5
BBC
  8
3
 10
92.2618168733444293
 20
87.1583450000000113
 30
0.0
 40
0.0999988733569718
 50
120.9630064666837939
 51
239.036993533331497
  0
LINE
  5
BBD
  8
3
 10
92.2103689999999858
 20
87.2440939999999756
 30
0.0
 11
94.2244560000000035
 21
88.4525469999999956
 31
0.0
  0
ARC
  5
BBE
  8
3
 10
94.275907545491151
 20
88.3667856304897725
 30
0.0
 40
0.1000113695221543
 50
90.0008854005411081
 51
120.9611645840573999
  0
ARC
  5
BBF
  8
3
 10
94.275907545491151
 20
88.9499043695101648
 30
0.0
 40
0.1000113695221165
 50
239.0388354159300093
 51
269.9991145994588919
  0
LINE
  5
BC0
  8
3
 10
92.2103689999999858
 20
90.0725959999999901
 30
0.0
 11
94.2244560000000035
 21
88.8641429999999986
 31
0.0
  0
ARC
  5
BC1
  8
3
 10
92.2618168733704209
 20
90.1583450000000255
 30
0.0
 40
0.0999988733703368
 50
120.9630064794469035
 51
239.0369935205683873
  0
LINE
  5
BC2
  8
3
 10
92.2103689999999858
 20
90.2440939999999898
 30
0.0
 11
94.2244560000000035
 21
91.4525469999999956
 31
0.0
  0
ARC
  5
BC3
  8
3
 10
94.275907545491151
 20
91.3667856304897725
 30
0.0
 40
0.1000113695221543
 50
90.0008854005411081
 51
120.9611645840573999
  0
ARC
  5
BC4
  8
3
 10
94.275907545491151
 20
91.949904369510179
 30
0.0
 40
0.1000113695221165
 50
239.0388354159300093
 51
269.9991145994588919
  0
LINE
  5
BC5
  8
3
 10
92.2103689999999858
 20
93.0725960000000043
 30
0.0
 11
94.2244560000000035
 21
91.8641429999999986
 31
0.0
  0
ARC
  5
BC6
  8
3
 10
92.2618168733704351
 20
93.1583450000000255
 30
0.0
 40
0.0999988733703319
 50
120.9630064794581017
 51
239.036993520565602
  0
LINE
  5
BC7
  8
3
 10
92.2103689999999858
 20
93.2440939999999756
 30
0.0
 11
94.2244560000000035
 21
94.4525469999999956
 31
0.0
  0
ARC
  5
BC8
  8
3
 10
94.275907545491151
 20
94.3667856304897583
 30
0.0
 40
0.1000113695221543
 50
90.0008854005411081
 51
120.9611645840573999
  0
ARC
  5
BC9
  8
3
 10
94.2759075454911368
 20
94.949904369510179
 30
0.0
 40
0.1000113695221092
 50
239.038835415937001
 51
269.9991145994670205
  0
LINE
  5
BCA
  8
3
 10
92.2103689999999858
 20
96.0725959999999901
 30
0.0
 11
94.2244560000000035
 21
94.8641429999999843
 31
0.0
  0
ARC
  5
BCB
  8
3
 10
92.2618168733704636
 20
96.1583449999999971
 30
0.0
 40
0.0999988733703709
 50
120.9630064794637008
 51
239.036993520540392
  0
LINE
  5
BCC
  8
3
 10
92.2103689999999858
 20
96.2440939999999898
 30
0.0
 11
94.2244560000000035
 21
97.4525469999999956
 31
0.0
  0
ARC
  5
BCD
  8
3
 10
94.275907545491151
 20
97.3667856304897867
 30
0.0
 40
0.1000113695221401
 50
90.0008854005411081
 51
120.9611645840616063
  0
ARC
  5
BCE
  8
3
 10
94.275907545491151
 20
97.9499043695101932
 30
0.0
 40
0.1000113695221287
 50
239.0388354159341873
 51
269.9991145994588919
  0
LINE
  5
BCF
  8
3
 10
92.2103689999999858
 20
99.0725959999999901
 30
0.0
 11
94.2244560000000035
 21
97.8641429999999986
 31
0.0
  0
ARC
  5
BD0
  8
3
 10
92.2618168733704636
 20
99.1583449999999971
 30
0.0
 40
0.0999988733703709
 50
120.9630064794637008
 51
239.036993520540392
  0
LINE
  5
BD1
  8
3
 10
92.2103689999999858
 20
99.244094000000004
 30
0.0
 11
94.2244560000000035
 21
100.4525469999999956
 31
0.0
  0
ARC
  5
BD2
  8
3
 10
94.275907545491151
 20
100.366785630489801
 30
0.0
 40
0.1000113695221401
 50
90.0008854005411081
 51
120.9611645840616063
  0
ARC
  5
BD3
  8
3
 10
94.275907545491151
 20
100.9499043695101932
 30
0.0
 40
0.1000113695221287
 50
239.0388354159341873
 51
269.9991145994588919
  0
LINE
  5
BD4
  8
3
 10
92.2103689999999858
 20
102.0725960000000043
 30
0.0
 11
94.2244560000000035
 21
100.8641429999999986
 31
0.0
  0
ARC
  5
BD5
  8
3
 10
92.2618168733704351
 20
102.1583449999999971
 30
0.0
 40
0.0999988733703685
 50
120.9630064794455961
 51
239.0369935205501974
  0
LINE
  5
BD6
  8
3
 10
92.2103689999999858
 20
102.244094000000004
 30
0.0
 11
92.900786999999994
 21
102.6583449999999971
 31
0.0
  0
ARC
  5
BD7
  8
3
 10
91.2899930669310606
 20
102.1583449999999971
 30
0.0
 40
0.0999999330689768
 50
300.9640184329019235
 51
59.0359815670994905
  0
LINE
  5
BD8
  8
3
 10
89.3273549999999688
 20
100.8641429999999986
 30
0.0
 11
91.3414430000000266
 21
102.0725960000000043
 31
0.0
  0
LINE
  5
BD9
  8
3
 10
87.2103690000000142
 20
102.0725960000000043
 30
0.0
 11
89.2244560000000035
 21
100.8641429999999986
 31
0.0
  0
ARC
  5
BDA
  8
3
 10
89.2759055000000075
 20
100.9498969842321969
 30
0.0
 40
0.1000039842303866
 50
239.0376635542949089
 51
300.962336445693893
  0
ARC
  5
BDB
  8
3
 10
87.2618168733703641
 20
102.1583449999998976
 30
0.0
 40
0.0999988733703368
 50
120.9630064793994961
 51
239.0369935205879983
  0
LINE
  5
BDC
  8
3
 10
87.2103690000000142
 20
102.244094000000004
 30
0.0
 11
87.9007870000000366
 21
102.6583449999999971
 31
0.0
  0
LINE
  5
BDD
  8
3
 10
90.6510250000000042
 20
102.6583449999999971
 30
0.0
 11
91.3414430000000266
 21
102.244094000000004
 31
0.0
  0
LINE
  5
BDE
  8
3
 10
85.6510250000000042
 20
102.6583449999999971
 30
0.0
 11
86.3414430000000266
 21
102.244094000000004
 31
0.0
  0
ARC
  5
BDF
  8
3
 10
86.2899930669311175
 20
102.1583449999999971
 30
0.0
 40
0.0999999330689475
 50
300.9640184328738997
 51
59.0359815671330068
  0
LINE
  5
BE0
  8
3
 10
82.2103690000000142
 20
102.244094000000004
 30
0.0
 11
82.9007870000000366
 21
102.6583449999999971
 31
0.0
  0
ARC
  5
BE1
  8
3
 10
82.2618168733703641
 20
102.1583449999999971
 30
0.0
 40
0.0999988733702929
 50
120.9630064794049957
 51
239.0369935206061029
  0
ARC
  5
BE2
  8
3
 10
84.2759054999999933
 20
100.9498969842320975
 30
0.0
 40
0.1000039842303037
 50
239.0376635542949089
 51
300.9623364457050911
  0
LINE
  5
BE3
  8
3
 10
82.2103690000000142
 20
102.0725960000000043
 30
0.0
 11
84.224456000000032
 21
100.8641429999999986
 31
0.0
  0
LINE
  5
BE4
  8
3
 10
84.3273549999999545
 20
100.8641429999999986
 30
0.0
 11
86.3414430000000266
 21
102.0725960000000043
 31
0.0
  0
LINE
  5
BE5
  8
3
 10
80.6510250000000042
 20
102.6583449999999971
 30
0.0
 11
81.3414430000000266
 21
102.244094000000004
 31
0.0
  0
ARC
  5
BE6
  8
3
 10
81.2899930669311459
 20
102.1583449999999971
 30
0.0
 40
0.0999999330689329
 50
300.964018432859973
 51
59.0359815671469619
  0
LINE
  5
BE7
  8
3
 10
77.2103690000000142
 20
102.244094000000004
 30
0.0
 11
77.9007870000000366
 21
102.6583449999999971
 31
0.0
  0
ARC
  5
BE8
  8
3
 10
77.2618168733704209
 20
102.1583449999999971
 30
0.0
 40
0.0999988733703343
 50
120.9630064794287989
 51
239.0369935205752938
  0
ARC
  5
BE9
  8
3
 10
79.2759054999999933
 20
100.9498969842320975
 30
0.0
 40
0.1000039842302793
 50
239.0376635542866097
 51
300.962336445713504
  0
LINE
  5
BEA
  8
3
 10
77.2103690000000142
 20
102.0725960000000043
 30
0.0
 11
79.224456000000032
 21
100.8641429999999986
 31
0.0
  0
LINE
  5
BEB
  8
3
 10
79.3273549999999545
 20
100.8641429999999986
 30
0.0
 11
81.3414430000000266
 21
102.0725960000000043
 31
0.0
  0
LINE
  5
BEC
  8
3
 10
75.6510250000000042
 20
102.6583449999999971
 30
0.0
 11
76.3414430000000266
 21
102.244094000000004
 31
0.0
  0
ARC
  5
BED
  8
3
 10
76.2899930669311317
 20
102.1583449999999971
 30
0.0
 40
0.0999999330689402
 50
300.9640184328670216
 51
59.0359815671399772
  0
LINE
  5
BEE
  8
3
 10
72.2103690000000142
 20
102.244094000000004
 30
0.0
 11
72.9007870000000366
 21
102.6583449999999971
 31
0.0
  0
ARC
  5
BEF
  8
3
 10
72.2618168733703499
 20
102.1583449999999971
 30
0.0
 40
0.09999887337031
 50
120.9630064793897049
 51
239.0369935206032892
  0
ARC
  5
BF0
  8
3
 10
74.2759054999999933
 20
100.9498969842320975
 30
0.0
 40
0.1000039842302915
 50
239.0376635542907025
 51
300.9623364457092975
  0
LINE
  5
BF1
  8
3
 10
72.2103690000000142
 20
102.0725960000000043
 30
0.0
 11
74.224456000000032
 21
100.8641429999999986
 31
0.0
  0
LINE
  5
BF2
  8
3
 10
74.3273549999999545
 20
100.8641429999999986
 30
0.0
 11
76.3414430000000266
 21
102.0725960000000043
 31
0.0
  0
LINE
  5
C3B
  8
1
 10
79.2759060000000204
 20
75.6583449999999971
 30
0.0
 11
79.2759060000000204
 21
111.6583449999999971
 31
0.0
1001
ACAD
1000
ASC_BOUNDS
1002
{
1070
    19
1005
2B2C
1002
}
  0
ARC
  5
C3C
  8
0
 10
62.2759060000000204
 20
87.2957999999999998
 30
0.0
 40
1.5
 50
180.0
 51
0.000000000000007
  0
ARC
  5
C3D
  8
0
 10
62.2759060000000204
 20
87.5756200000000007
 30
0.0
 40
1.5
 50
180.0
 51
0.000000000000007
  0
ARC
  5
C3E
  8
0
 10
62.2759060000000204
 20
87.9928939999999926
 30
0.0
 40
1.5
 50
180.0
 51
0.000000000000007
  0
ARC
  5
C3F
  8
0
 10
62.2759060000000204
 20
88.547623999999999
 30
0.0
 40
1.5
 50
180.0
 51
0.000000000000007
  0
ARC
  5
C40
  8
0
 10
62.2759060000000204
 20
89.3379909999999882
 30
0.0
 40
1.5
 50
180.0
 51
0.000000000000007
  0
ARC
  5
C41
  8
0
 10
62.2759060000000204
 20
90.2658129999999943
 30
0.0
 40
1.5
 50
180.0
 51
0.000000000000007
  0
ARC
  5
C42
  8
0
 10
62.2759060000000204
 20
91.2869089999999943
 30
0.0
 40
1.5
 50
180.0
 51
0.000000000000007
  0
ARC
  5
C43
  8
0
 10
62.2759060000000204
 20
87.4823459999999926
 30
0.0
 40
1.5
 50
180.0
 51
0.000000000000007
  0
ARC
  5
C44
  8
0
 10
62.2759060000000204
 20
87.8063479999999856
 30
0.0
 40
1.5
 50
180.0
 51
0.000000000000007
  0
ARC
  5
C45
  8
0
 10
62.2759060000000204
 20
88.1303489999999954
 30
0.0
 40
1.5
 50
180.0
 51
0.000000000000007
  0
ARC
  5
C46
  8
0
 10
62.2759060000000204
 20
88.8716249999999945
 30
0.0
 40
1.5
 50
180.0
 51
0.000000000000007
  0
ARC
  5
C47
  8
0
 10
62.2759060000000204
 20
89.7994479999999982
 30
0.0
 40
1.5
 50
180.0
 51
0.000000000000007
  0
ARC
  5
C48
  8
0
 10
62.2759060000000204
 20
90.8794529999999838
 30
0.0
 40
1.5
 50
180.0
 51
0.000000000000007
  0
ARC
  5
C49
  8
0
 10
62.2759060000000204
 20
90.8091560000000015
 30
0.0
 40
2.9258310000000001
 50
61.5814110000003723
 51
118.4185889999995993
  0
ARC
  5
C4B
  8
0
 10
63.5609060763368277
 20
93.196172024759008
 30
0.0
 40
0.2149999436702346
 50
241.7122557977291137
 51
60.0225359649587418
  0
ARC
  5
C4C
  8
0
 10
62.2759060000000204
 20
90.8084359999999862
 30
0.0
 40
2.4965509999999989
 50
61.7123479999988902
 51
118.2876520000013016
  0
ARC
  5
C4D
  8
0
 10
62.2759060000000204
 20
93.7082540000000108
 30
0.0
 40
2.4965509999999989
 50
241.7123479999987126
 51
298.2876520000011169
  0
ARC
  5
C4F
  8
0
 10
60.9909059236631919
 20
91.3205179752410459
 30
0.0
 40
0.2149999436702255
 50
61.7122557977256179
 51
240.0225359670234866
  0
ARC
  5
C50
  8
0
 10
62.2759060000000204
 20
93.7075339999999954
 30
0.0
 40
2.9258310000000001
 50
241.581411000000287
 51
298.4185889999995993
  0
ARC
  5
C51
  8
0
 10
63.5609059999999886
 20
92.2583449999999914
 30
0.0
 40
0.215
 50
270.0
 51
90.0
  0
ARC
  5
C52
  8
0
 10
60.9909060000000025
 20
92.2583449999999914
 30
0.0
 40
0.215
 50
90.0
 51
270.0
  0
LINE
  5
C53
  8
0
 10
60.9909060000000025
 20
92.043344999999988
 30
0.0
 11
63.5609059999999886
 21
92.043344999999988
 31
0.0
  0
LINE
  5
C54
  8
0
 10
60.9909060000000025
 20
92.4733449999999948
 30
0.0
 11
63.5609059999999886
 21
92.4733449999999948
 31
0.0
  0
ARC
  5
C55
  8
0
 10
62.2759060000000204
 20
93.6372379999999964
 30
0.0
 40
1.5
 50
0.000000000000007
 51
180.0
  0
ARC
  5
C56
  8
0
 10
62.2759060000000204
 20
94.7172419999999988
 30
0.0
 40
1.5
 50
0.000000000000007
 51
180.0
  0
ARC
  5
C57
  8
0
 10
62.2759060000000204
 20
95.6450650000000024
 30
0.0
 40
1.5
 50
0.000000000000007
 51
180.0
  0
ARC
  5
C58
  8
0
 10
62.2759060000000204
 20
96.3863410000000016
 30
0.0
 40
1.5
 50
0.000000000000007
 51
180.0
  0
ARC
  5
C59
  8
0
 10
62.2759060000000204
 20
96.7103420000000114
 30
0.0
 40
1.5
 50
0.000000000000007
 51
180.0
  0
ARC
  5
C5A
  8
0
 10
62.2759060000000204
 20
97.0343439999999902
 30
0.0
 40
1.5
 50
0.000000000000007
 51
180.0
  0
ARC
  5
C5B
  8
0
 10
62.2759060000000204
 20
93.2297810000000027
 30
0.0
 40
1.5
 50
0.000000000000007
 51
180.0
  0
ARC
  5
C5C
  8
0
 10
62.2759060000000204
 20
94.2508770000000027
 30
0.0
 40
1.5
 50
0.000000000000007
 51
180.0
  0
ARC
  5
C5D
  8
0
 10
62.2759060000000204
 20
95.1786989999999946
 30
0.0
 40
1.5
 50
0.000000000000007
 51
180.0
  0
ARC
  5
C5E
  8
0
 10
62.2759060000000204
 20
95.969065999999998
 30
0.0
 40
1.5
 50
0.000000000000007
 51
180.0
  0
ARC
  5
C5F
  8
0
 10
62.2759060000000204
 20
96.5237959999999902
 30
0.0
 40
1.5
 50
0.000000000000007
 51
180.0
  0
ARC
  5
C60
  8
0
 10
62.2759060000000204
 20
96.9410699999999963
 30
0.0
 40
1.5
 50
0.000000000000007
 51
180.0
  0
ARC
  5
C61
  8
0
 10
62.2759060000000204
 20
97.2208899999999971
 30
0.0
 40
1.5
 50
0.000000000000007
 51
180.0
  0
LINE
  5
C62
  8
0
 10
58.7759060000000204
 20
89.6583449999999971
 30
0.0
 11
59.7759060000000204
 21
88.6583449999999971
 31
0.0
  0
LINE
  5
C63
  8
0
 10
58.7759060000000204
 20
94.8583450000000141
 30
0.0
 11
59.7759060000000204
 21
95.8583449999999999
 31
0.0
  0
LINE
  5
C64
  8
0
 10
59.7759060000000204
 20
88.6583449999999971
 30
0.0
 11
59.7759060000000204
 21
95.8583449999999999
 31
0.0
  0
ARC
  5
C65
  8
0
 10
62.2142819999999688
 20
98.1583450000000113
 30
0.0
 40
1.0
 50
90.0
 51
145.9285469999994973
  0
ARC
  5
C66
  8
0
 10
61.9488262909251119
 20
98.6583478477259632
 30
0.0
 40
0.9999971522742852
 50
89.9999593728861811
 51
145.928658036405011
  0
ARC
  5
C67
  8
0
 10
63.7759060000000204
 20
99.1583449999999971
 30
0.0
 40
0.5
 50
0.000000000000007
 51
90.0
  0
ARC
  5
C68
  8
0
 10
63.2759060000000204
 20
98.6583449999999971
 30
0.0
 40
0.5
 50
0.000000000000007
 51
90.0
  0
LINE
  5
C69
  8
0
 10
61.0070479999999904
 20
98.1583450000000113
 30
0.0
 11
60.5386960000000229
 21
98.3583449999999999
 31
0.0
  0
LINE
  5
C6A
  8
0
 10
60.5386960000000229
 20
98.3583449999999999
 30
0.0
 11
61.1204879999999591
 21
99.2185709999999972
 31
0.0
  0
LINE
  5
C6B
  8
0
 10
61.0070479999999904
 20
98.1583450000000113
 30
0.0
 11
61.3859424358774319
 21
98.7185713529228934
 31
0.0
  0
LINE
  5
C6C
  8
0
 10
62.2142819999999688
 20
99.1583449999999971
 30
0.0
 11
63.2759060000000204
 21
99.1583449999999971
 31
0.0
  0
LINE
  5
C6D
  8
0
 10
61.9488269999999872
 20
99.6583449999999971
 30
0.0
 11
63.7759060000000204
 21
99.6583449999999971
 31
0.0
  0
ARC
  5
C6E
  8
0
 10
62.2759060000000204
 20
97.3583450000000141
 30
0.0
 40
1.5
 50
0.000000000000007
 51
180.0
  0
LINE
  5
C6F
  8
0
 10
62.9638190000000009
 20
83.5846189999999893
 30
0.0
 11
60.9536879999999996
 21
85.6583449999999971
 31
0.0
  0
LINE
  5
C70
  8
0
 10
63.4638190000000009
 20
83.7996159999999861
 30
0.0
 11
61.2976439999999911
 21
86.0212410000000034
 31
0.0
  0
ARC
  5
C71
  8
0
 10
62.2759060000000204
 20
87.1583449999999971
 30
0.0
 40
1.5
 50
180.0
 51
0.000000000000007
  0
LINE
  5
C72
  8
0
 10
60.7759060000000204
 20
87.1583449999999971
 30
0.0
 11
60.7759060000000204
 21
97.3583450000000141
 31
0.0
  0
LINE
  5
C73
  8
0
 10
59.7759060000000204
 20
95.8583449999999999
 30
0.0
 11
60.5759060000000318
 21
95.8583449999999999
 31
0.0
  0
LINE
  5
C74
  8
0
 10
59.7759060000000204
 20
88.6583449999999971
 30
0.0
 11
60.5759060000000318
 21
88.6583449999999971
 31
0.0
  0
LINE
  5
C75
  8
0
 10
60.9536879999999996
 20
85.6583449999999971
 30
0.0
 11
61.2976439999999911
 21
86.0212410000000034
 31
0.0
  0
ARC
  5
C76
  8
0
 10
62.7759080088351311
 20
81.7989788159907789
 30
0.0
 40
0.4999979911649143
 50
339.065217055117273
 51
0.0000210859885536
  0
ARC
  5
C77
  8
0
 10
63.2678965525614601
 20
81.1259766524325556
 30
0.0
 40
0.1999803729817507
 50
159.0638836091789869
 51
186.1959932794875954
  0
ARC
  5
C78
  8
0
 10
63.7759060000000204
 20
81.1583449999999971
 30
0.0
 40
0.5
 50
270.0
 51
0.000000000000007
  0
ARC
  5
C79
  8
0
 10
63.5661650000000122
 20
81.1583449999999971
 30
0.0
 40
0.5
 50
186.1945270000001074
 51
270.0
  0
LINE
  5
C7A
  8
0
 10
63.2429000000000201
 20
81.6203270000000032
 30
0.0
 11
63.0811190000000011
 21
81.1974349999999987
 31
0.0
  0
LINE
  5
C7B
  8
0
 10
63.7759060000000204
 20
81.6142290000000088
 30
0.0
 11
63.8879929999999874
 21
81.3212350000000015
 31
0.0
  0
LINE
  5
C7C
  8
0
 10
63.7759060000000204
 20
81.6142290000000088
 30
0.0
 11
63.663817999999992
 21
81.3212350000000015
 31
0.0
  0
ARC
  5
C7D
  8
0
 10
63.7759055000000004
 20
81.2783546990483643
 30
0.0
 40
0.1200096990495203
 50
159.0651008507400945
 51
20.9348991492647691
  0
LINE
  5
C7E
  8
0
 10
63.5661650000000122
 20
80.6583449999999971
 30
0.0
 11
63.7759060000000204
 21
80.6583449999999971
 31
0.0
  0
ARC
  5
C7F
  8
0
 10
62.2759111554933966
 20
82.8588280614321064
 30
0.0
 40
0.999994844507187
 50
359.9999391841059833
 51
46.5349960744139608
  0
ARC
  5
C80
  8
0
 10
62.7759111554933185
 20
83.0738250614321032
 30
0.0
 40
0.9999948445072581
 50
359.9999391841067791
 51
46.5349960744121205
  0
LINE
  5
C81
  8
0
 10
63.2759060000000204
 20
82.8588270000000051
 30
0.0
 11
63.2759060000000204
 21
81.7989790000000028
 31
0.0
  0
LINE
  5
C82
  8
0
 10
63.7759060000000204
 20
98.6583449999999971
 30
0.0
 11
63.7759060000000204
 21
81.6142290000000088
 31
0.0
  0
LINE
  5
C83
  8
0
 10
58.7759060000000204
 20
89.6583449999999971
 30
0.0
 11
58.7759060000000204
 21
94.8583450000000141
 31
0.0
  0
LINE
  5
C84
  8
0
 10
94.0759060000000034
 20
106.6583449999999971
 30
0.0
 11
64.475906000000009
 21
106.6583449999999971
 31
0.0
  0
LINE
  5
C85
  8
0
 10
77.2759060000000204
 20
102.6583449999999971
 30
0.0
 11
77.2759060000000204
 21
106.6583449999999971
 31
0.0
  0
LINE
  5
C86
  8
0
 10
81.2759060000000346
 20
102.6583449999999971
 30
0.0
 11
81.2759060000000346
 21
106.6583449999999971
 31
0.0
  0
LINE
  5
C89
  8
0
 10
60.5759060000000318
 20
88.6583449999999971
 30
0.0
 11
60.7759060000000204
 21
88.8583449999999857
 31
0.0
  0
LINE
  5
C8A
  8
0
 10
60.5759060000000318
 20
95.8583449999999999
 30
0.0
 11
60.7759060000000204
 21
95.6583449999999971
 31
0.0
  0
LINE
  5
C8B
  8
0
 10
94.0759060000000034
 20
106.6583449999999971
 30
0.0
 11
94.2759060000000062
 21
106.4583449999999942
 31
0.0
  0
LINE
  5
C8C
  8
0
 10
64.475906000000009
 20
106.6583449999999971
 30
0.0
 11
64.2759060000000204
 21
106.4583449999999942
 31
0.0
  0
CIRCLE
  5
CC7
  8
0
 10
79.2759060000000204
 20
91.6583449999999971
 30
0.0
 40
5.3499999999999988
1001
ACAD
1000
ASC_BOUNDS
1002
{
1070
    19
1005
2B2C
1005
2B2C
1002
}
  0
CIRCLE
  5
CC8
  8
0
 10
79.2759060000000204
 20
91.6583449999999971
 30
0.0
 40
6.0
  0
CIRCLE
  5
CC9
  8
0
 10
79.2759060000000204
 20
91.6583449999999971
 30
0.0
 40
7.0
  0
CIRCLE
  5
CCA
  8
0
 10
79.2759059999999636
 20
91.6583449999999971
 30
0.0
 40
8.0
  0
LINE
  5
1222
  8
0
 10
121.0000051462523061
 20
154.1584279999999865
 30
0.0
 11
121.0000051462523061
 21
183.1584279999999865
 31
0.0
  0
LINE
  5
1223
  8
5
 10
117.5000051462523061
 20
154.1584279999999865
 30
0.0
 11
117.5000051462523061
 21
160.6584279999999865
 31
0.0
  0
LINE
  5
1224
  8
5
 10
117.5000051462523061
 20
176.6584279999999865
 30
0.0
 11
117.5000051462523061
 21
183.1584279999999865
 31
0.0
  0
LINE
  5
1225
  8
5
 10
121.0000051462523061
 20
153.6584279999999865
 30
0.0
 11
118.0000051462523061
 21
153.6584279999999865
 31
0.0
  0
ARC
  5
1226
  8
0
 10
121.5000051462523061
 20
154.1584279999999865
 30
0.0
 40
0.5
 50
180.0
 51
270.0
  0
ARC
  5
1227
  8
5
 10
118.0000051462523061
 20
154.1584279999999865
 30
0.0
 40
0.5
 50
180.0
 51
270.0
  0
LINE
  5
1228
  8
5
 10
121.0000051462523061
 20
183.6584279999999865
 30
0.0
 11
118.0000051462523061
 21
183.6584279999999865
 31
0.0
  0
ARC
  5
1229
  8
5
 10
118.0000051462523061
 20
183.1584279999999865
 30
0.0
 40
0.5
 50
90.0
 51
180.0
  0
ARC
  5
122A
  8
0
 10
121.5000051462523061
 20
183.1584279999999865
 30
0.0
 40
0.5
 50
90.0
 51
180.0
  0
LINE
  5
122B
  8
0
 10
119.4898347730473063
 20
160.6584279999999865
 30
0.0
 11
121.000005146252505
 21
160.6584279999999865
 31
0.0
  0
LINE
  5
122C
  8
0
 10
121.0000051462523061
 20
176.6584279999999865
 30
0.0
 11
119.4898347730472068
 21
176.6584279999999865
 31
0.0
  0
LINE
  5
122D
  8
0
 10
119.4898347730472068
 20
176.6584279991025994
 30
0.0
 11
118.4898347725985985
 21
175.6584280004487937
 31
0.0
  0
LINE
  5
122E
  8
0
 10
118.489834772598698
 20
161.6584279995512929
 30
0.0
 11
119.4898347730473063
 21
160.6584280008974019
 31
0.0
  0
LINE
  5
122F
  8
0
 10
117.7000051462523942
 20
161.6584279999999865
 30
0.0
 11
118.4898347725985985
 21
161.6584279999999865
 31
0.0
  0
LINE
  5
1230
  8
0
 10
118.4898347725985985
 20
175.6584279999999865
 30
0.0
 11
117.7000051462522947
 21
175.6584279999999865
 31
0.0
  0
LINE
  5
1231
  8
0
 10
119.4898347730472068
 20
176.6584279999999865
 30
0.0
 11
119.4898347730473063
 21
160.6584279999999865
 31
0.0
  0
LINE
  5
1232
  8
0
 10
118.4898347725985985
 20
175.6584280004487937
 30
0.0
 11
118.4898347725985985
 21
161.6584279995512929
 31
0.0
  0
LINE
  5
1233
  8
0
 10
117.7000051462522947
 20
175.6584279999999865
 30
0.0
 11
117.7000051462523942
 21
161.6584279999999865
 31
0.0
  0
LINE
  5
1234
  8
0
 10
116.0000051462524056
 20
163.8584280000000035
 30
0.0
 11
116.0000051462523061
 21
173.4584279999999978
 31
0.0
  0
LINE
  5
1235
  8
5
 10
115.9898347730473063
 20
160.6584279999999865
 30
0.0
 11
117.5000051462524056
 21
160.6584279999999865
 31
0.0
  0
LINE
  5
1236
  8
5
 10
117.5000051462523061
 20
176.6584279999999865
 30
0.0
 11
115.9898347730472068
 21
176.6584279999999865
 31
0.0
  0
LINE
  5
1237
  8
5
 10
115.9898347730472068
 20
176.6584279991025994
 30
0.0
 11
114.9898347725985985
 21
175.6584280004487937
 31
0.0
  0
LINE
  5
1238
  8
5
 10
114.989834772598698
 20
161.6584279995512929
 30
0.0
 11
115.9898347730473063
 21
160.6584280008974019
 31
0.0
  0
ARC
  5
1239
  8
0
 10
119.6000051462523004
 20
168.6584279999999865
 30
0.0
 40
6.0
 50
108.4614582967684981
 51
126.8698976458453984
  0
ARC
  5
123A
  8
0
 10
119.6000051462523004
 20
168.6584279999999865
 30
0.0
 40
6.0
 50
233.1301023541581969
 51
251.5385417032314876
  0
LINE
  5
123B
  8
5
 10
114.2000051453548934
 20
161.6584279991025141
 30
0.0
 11
114.9898347717010978
 21
161.6584279991025141
 31
0.0
  0
LINE
  5
123C
  8
5
 10
114.9898347717010978
 20
175.6584279991025994
 30
0.0
 11
114.200005145354794
 21
175.6584279991025994
 31
0.0
  0
LINE
  5
123D
  8
5
 10
112.5000051453550043
 20
163.8584279991025028
 30
0.0
 11
112.5000051453548053
 21
173.4584279991024971
 31
0.0
  0
ARC
  5
123E
  8
5
 10
116.1000051453548991
 20
168.6584279991025141
 30
0.0
 40
6.0
 50
108.4614582967684981
 51
126.8698976458453984
  0
ARC
  5
123F
  8
5
 10
116.1000051453548991
 20
168.6584279991025141
 30
0.0
 40
6.0
 50
233.1301023541581969
 51
251.5385417032314876
  0
LINE
  5
1240
  8
5
 10
114.200005145354794
 20
175.6584279991025994
 30
0.0
 11
114.200005145354794
 21
174.34964930915541
 31
0.0
  0
LINE
  5
1241
  8
5
 10
114.2000051453548934
 20
162.9672066890495898
 30
0.0
 11
114.2000051453548934
 21
161.6584279991025141
 31
0.0
  0
LINE
  5
1269
  8
0
 10
172.9999948537476087
 20
154.1584279999999865
 30
0.0
 11
172.9999948537476087
 21
183.1584279999999865
 31
0.0
  0
LINE
  5
126A
  8
5
 10
176.4999948537476087
 20
154.1584279999999865
 30
0.0
 11
176.4999948537476087
 21
160.6584279999999865
 31
0.0
  0
LINE
  5
126B
  8
5
 10
176.4999948537476087
 20
176.6584279999999865
 30
0.0
 11
176.4999948537476087
 21
183.1584279999999865
 31
0.0
  0
LINE
  5
126C
  8
5
 10
172.9999948537476087
 20
153.6584279999999865
 30
0.0
 11
175.9999948537476087
 21
153.6584279999999865
 31
0.0
  0
ARC
  5
126D
  8
0
 10
172.4999948537476087
 20
154.1584279999999865
 30
0.0
 40
0.5
 50
270.0
 51
0.000000000000007
  0
ARC
  5
126E
  8
5
 10
175.9999948537476087
 20
154.1584279999999865
 30
0.0
 40
0.5
 50
270.0
 51
0.000000000000007
  0
LINE
  5
126F
  8
5
 10
172.9999948537476087
 20
183.6584279999999865
 30
0.0
 11
175.9999948537476087
 21
183.6584279999999865
 31
0.0
  0
ARC
  5
1270
  8
5
 10
175.9999948537476087
 20
183.1584279999999865
 30
0.0
 40
0.5
 50
0.000000000000007
 51
90.0
  0
ARC
  5
1271
  8
0
 10
172.4999948537476087
 20
183.1584279999999865
 30
0.0
 40
0.5
 50
0.000000000000007
 51
90.0
  0
LINE
  5
1272
  8
0
 10
174.5101652269526085
 20
160.6584279999999865
 30
0.0
 11
172.999994853747495
 21
160.6584279999999865
 31
0.0
  0
LINE
  5
1273
  8
0
 10
172.9999948537476087
 20
176.6584279999999865
 30
0.0
 11
174.5101652269528074
 21
176.6584279999999865
 31
0.0
  0
LINE
  5
1274
  8
0
 10
174.5101652269528074
 20
176.6584279991025994
 30
0.0
 11
175.5101652274013873
 21
175.6584280004487937
 31
0.0
  0
LINE
  5
1275
  8
0
 10
175.510165227401302
 20
161.6584279995512929
 30
0.0
 11
174.5101652269526085
 21
160.6584280008974019
 31
0.0
  0
LINE
  5
1276
  8
0
 10
176.2999948537475916
 20
161.6584279999999865
 30
0.0
 11
175.5101652274013873
 21
161.6584279999999865
 31
0.0
  0
LINE
  5
1277
  8
0
 10
175.5101652274013873
 20
175.6584279999999865
 30
0.0
 11
176.2999948537477053
 21
175.6584279999999865
 31
0.0
  0
LINE
  5
1278
  8
0
 10
174.5101652269528074
 20
176.6584279999999865
 30
0.0
 11
174.5101652269526085
 21
160.6584279999999865
 31
0.0
  0
LINE
  5
1279
  8
0
 10
175.5101652274013873
 20
175.6584280004487937
 30
0.0
 11
175.5101652274013873
 21
161.6584279995512929
 31
0.0
  0
LINE
  5
127A
  8
0
 10
176.2999948537477053
 20
175.6584279999999865
 30
0.0
 11
176.2999948537475916
 21
161.6584279999999865
 31
0.0
  0
LINE
  5
127B
  8
0
 10
177.9999948537476087
 20
163.8584280000000035
 30
0.0
 11
177.9999948537476939
 21
173.4584279999999978
 31
0.0
  0
LINE
  5
127C
  8
5
 10
178.0101652269526085
 20
160.6584279999999865
 30
0.0
 11
176.499994853747495
 21
160.6584279999999865
 31
0.0
  0
LINE
  5
127D
  8
5
 10
176.4999948537476087
 20
176.6584279999999865
 30
0.0
 11
178.0101652269528074
 21
176.6584279999999865
 31
0.0
  0
LINE
  5
127E
  8
5
 10
178.0101652269528074
 20
176.6584279991025994
 30
0.0
 11
179.0101652274013873
 21
175.6584280004487937
 31
0.0
  0
LINE
  5
127F
  8
5
 10
179.0101652274011883
 20
161.6584279995512929
 30
0.0
 11
178.0101652269526085
 21
160.6584280008974019
 31
0.0
  0
ARC
  5
1280
  8
0
 10
174.3999948537475859
 20
168.6584279999999865
 30
0.0
 40
6.0
 50
53.1301023541544097
 51
71.5385417032315161
  0
ARC
  5
1281
  8
0
 10
174.3999948537475859
 20
168.6584279999999865
 30
0.0
 40
6.0
 50
288.4614582967685124
 51
306.8698976458417178
  0
LINE
  5
1282
  8
5
 10
179.7999948546450071
 20
161.6584279991025141
 30
0.0
 11
179.0101652282988027
 21
161.6584279991025141
 31
0.0
  0
LINE
  5
1283
  8
5
 10
179.0101652282988027
 20
175.6584279991025994
 30
0.0
 11
179.7999948546450923
 21
175.6584279991025994
 31
0.0
  0
LINE
  5
1284
  8
5
 10
181.4999948546449957
 20
163.8584279991025028
 30
0.0
 11
181.4999948546451094
 21
173.4584279991024971
 31
0.0
  0
ARC
  5
1285
  8
5
 10
177.8999948546450867
 20
168.6584279991025141
 30
0.0
 40
6.0
 50
53.1301023541544097
 51
71.5385417032315161
  0
ARC
  5
1286
  8
5
 10
177.8999948546450867
 20
168.6584279991025141
 30
0.0
 40
6.0
 50
288.4614582967685124
 51
306.8698976458417178
  0
LINE
  5
1287
  8
5
 10
179.7999948546450923
 20
175.6584279991025994
 30
0.0
 11
179.7999948546450923
 21
174.34964930915541
 31
0.0
  0
LINE
  5
1288
  8
5
 10
179.7999948546450071
 20
162.9672066890495898
 30
0.0
 11
179.7999948546450071
 21
161.6584279991025141
 31
0.0
  0
ARC
  5
1476
  8
0
 10
63.560906076336849
 20
91.3205179752410459
 30
0.0
 40
0.21499994367023
 50
299.9774640313087275
 51
118.287744202279498
  0
ARC
  5
1479
  8
0
 10
60.9909059236631705
 20
93.1961720247589938
 30
0.0
 40
0.2149999436702364
 50
119.9774640327845958
 51
298.2877442022775085
  0
ARC
  5
1F54
  8
0
 10
96.2759060000000346
 20
87.2957999999999998
 30
0.0
 40
1.5
 50
180.0
 51
0.000000000000007
  0
ARC
  5
1F55
  8
0
 10
96.2759060000000346
 20
87.5756200000000007
 30
0.0
 40
1.5
 50
180.0
 51
0.000000000000007
  0
ARC
  5
1F56
  8
0
 10
96.2759060000000346
 20
87.9928939999999926
 30
0.0
 40
1.5
 50
180.0
 51
0.000000000000007
  0
ARC
  5
1F57
  8
0
 10
96.2759060000000346
 20
88.547623999999999
 30
0.0
 40
1.5
 50
180.0
 51
0.000000000000007
  0
ARC
  5
1F58
  8
0
 10
96.2759060000000346
 20
89.3379909999999882
 30
0.0
 40
1.5
 50
180.0
 51
0.000000000000007
  0
ARC
  5
1F59
  8
0
 10
96.2759060000000346
 20
90.2658129999999943
 30
0.0
 40
1.5
 50
180.0
 51
0.000000000000007
  0
ARC
  5
1F5A
  8
0
 10
96.2759060000000346
 20
91.2869089999999943
 30
0.0
 40
1.5
 50
180.0
 51
0.000000000000007
  0
ARC
  5
1F5B
  8
0
 10
96.2759060000000346
 20
87.4823459999999926
 30
0.0
 40
1.5
 50
180.0
 51
0.000000000000007
  0
ARC
  5
1F5C
  8
0
 10
96.2759060000000346
 20
87.8063479999999856
 30
0.0
 40
1.5
 50
180.0
 51
0.000000000000007
  0
ARC
  5
1F5D
  8
0
 10
96.2759060000000346
 20
88.1303489999999954
 30
0.0
 40
1.5
 50
180.0
 51
0.000000000000007
  0
ARC
  5
1F5E
  8
0
 10
96.2759060000000346
 20
88.8716249999999945
 30
0.0
 40
1.5
 50
180.0
 51
0.000000000000007
  0
ARC
  5
1F5F
  8
0
 10
96.2759060000000346
 20
89.7994479999999982
 30
0.0
 40
1.5
 50
180.0
 51
0.000000000000007
  0
ARC
  5
1F60
  8
0
 10
96.2759060000000346
 20
90.8794529999999838
 30
0.0
 40
1.5
 50
180.0
 51
0.000000000000007
  0
ARC
  5
1F61
  8
0
 10
96.2759060000000346
 20
90.8091560000000015
 30
0.0
 40
2.9258310000000001
 50
61.5814110000005286
 51
118.4185889999994004
  0
ARC
  5
1F62
  8
0
 10
97.5609060763368632
 20
93.1961720247589938
 30
0.0
 40
0.2149999436702364
 50
241.7122557977230031
 51
60.0225359672152194
  0
ARC
  5
1F63
  8
0
 10
94.9909059236632061
 20
93.196172024759008
 30
0.0
 40
0.2149999436702346
 50
119.9774640350408959
 51
298.2877442022711989
  0
ARC
  5
1F64
  8
0
 10
96.2759060000000346
 20
90.8084359999999862
 30
0.0
 40
2.4965509999999989
 50
61.7123479999984994
 51
118.2876520000014011
  0
ARC
  5
1F65
  8
0
 10
96.2759060000000346
 20
93.7082540000000108
 30
0.0
 40
2.4965509999999989
 50
241.7123479999985136
 51
298.2876520000015148
  0
ARC
  5
1F66
  8
0
 10
94.9909059236631776
 20
91.3205179752410459
 30
0.0
 40
0.21499994367023
 50
61.7122557977210775
 51
240.0225359686909883
  0
ARC
  5
1F67
  8
0
 10
97.560906076336849
 20
91.3205179752410459
 30
0.0
 40
0.2149999436702255
 50
299.9774640329766271
 51
118.2877442022748937
  0
ARC
  5
1F68
  8
0
 10
96.2759060000000346
 20
93.7075339999999954
 30
0.0
 40
2.9258310000000001
 50
241.5814110000005996
 51
298.4185889999993719
  0
ARC
  5
1F69
  8
0
 10
94.9909060000000522
 20
92.2583449999999914
 30
0.0
 40
0.215
 50
90.0
 51
270.0
  0
ARC
  5
1F6A
  8
0
 10
97.5609060000000454
 20
92.2583449999999914
 30
0.0
 40
0.215
 50
270.0
 51
90.0
  0
LINE
  5
1F6B
  8
0
 10
97.5609060000000454
 20
92.043344999999988
 30
0.0
 11
94.9909060000000522
 21
92.043344999999988
 31
0.0
  0
LINE
  5
1F6C
  8
0
 10
97.5609060000000454
 20
92.4733449999999948
 30
0.0
 11
94.9909060000000522
 21
92.4733449999999948
 31
0.0
  0
ARC
  5
1F6D
  8
0
 10
96.2759060000000346
 20
93.6372379999999964
 30
0.0
 40
1.5
 50
0.000000000000007
 51
180.0
  0
ARC
  5
1F6E
  8
0
 10
96.2759060000000346
 20
94.7172419999999988
 30
0.0
 40
1.5
 50
0.000000000000007
 51
180.0
  0
ARC
  5
1F6F
  8
0
 10
96.2759060000000346
 20
95.6450650000000024
 30
0.0
 40
1.5
 50
0.000000000000007
 51
180.0
  0
ARC
  5
1F70
  8
0
 10
96.2759060000000346
 20
96.3863410000000016
 30
0.0
 40
1.5
 50
0.000000000000007
 51
180.0
  0
ARC
  5
1F71
  8
0
 10
96.2759060000000346
 20
96.7103420000000114
 30
0.0
 40
1.5
 50
0.000000000000007
 51
180.0
  0
ARC
  5
1F72
  8
0
 10
96.2759060000000346
 20
97.0343439999999902
 30
0.0
 40
1.5
 50
0.000000000000007
 51
180.0
  0
ARC
  5
1F73
  8
0
 10
96.2759060000000346
 20
93.2297810000000027
 30
0.0
 40
1.5
 50
0.000000000000007
 51
180.0
  0
ARC
  5
1F74
  8
0
 10
96.2759060000000346
 20
94.2508770000000027
 30
0.0
 40
1.5
 50
0.000000000000007
 51
180.0
  0
ARC
  5
1F75
  8
0
 10
96.2759060000000346
 20
95.1786989999999946
 30
0.0
 40
1.5
 50
0.000000000000007
 51
180.0
  0
ARC
  5
1F76
  8
0
 10
96.2759060000000346
 20
95.969065999999998
 30
0.0
 40
1.5
 50
0.000000000000007
 51
180.0
  0
ARC
  5
1F77
  8
0
 10
96.2759060000000346
 20
96.5237959999999902
 30
0.0
 40
1.5
 50
0.000000000000007
 51
180.0
  0
ARC
  5
1F78
  8
0
 10
96.2759060000000346
 20
96.9410699999999963
 30
0.0
 40
1.5
 50
0.000000000000007
 51
180.0
  0
ARC
  5
1F79
  8
0
 10
96.2759060000000346
 20
97.2208899999999971
 30
0.0
 40
1.5
 50
0.000000000000007
 51
180.0
  0
LINE
  5
1F7A
  8
0
 10
99.7759060000000204
 20
89.6583449999999971
 30
0.0
 11
98.7759060000000346
 21
88.6583449999999971
 31
0.0
  0
LINE
  5
1F7B
  8
0
 10
99.7759060000000204
 20
94.8583450000000141
 30
0.0
 11
98.7759060000000346
 21
95.8583449999999999
 31
0.0
  0
LINE
  5
1F7C
  8
0
 10
98.7759060000000346
 20
88.6583449999999971
 30
0.0
 11
98.7759060000000346
 21
95.8583449999999999
 31
0.0
  0
ARC
  5
1F7D
  8
0
 10
96.3375300000000721
 20
98.1583450000000113
 30
0.0
 40
1.0
 50
34.0714530000007585
 51
90.0
  0
ARC
  5
1F7E
  8
0
 10
96.6029857090749147
 20
98.6583478477259632
 30
0.0
 40
0.9999971522742852
 50
34.0713419635947474
 51
90.0000406271145579
  0
ARC
  5
1F7F
  8
0
 10
94.7759060000000204
 20
99.1583449999999971
 30
0.0
 40
0.5
 50
90.0
 51
180.0
  0
ARC
  5
1F80
  8
0
 10
95.2759060000000062
 20
98.6583449999999971
 30
0.0
 40
0.5
 50
90.0
 51
180.0
  0
LINE
  5
1F81
  8
0
 10
97.5447640000000433
 20
98.1583450000000113
 30
0.0
 11
98.013116000000025
 21
98.3583449999999999
 31
0.0
  0
LINE
  5
1F82
  8
0
 10
98.013116000000025
 20
98.3583449999999999
 30
0.0
 11
97.4313240000000746
 21
99.2185709999999972
 31
0.0
  0
LINE
  5
1F83
  8
0
 10
97.5447640000000433
 20
98.1583450000000113
 30
0.0
 11
97.1658695641226018
 21
98.7185713529228934
 31
0.0
  0
LINE
  5
1F84
  8
0
 10
96.3375300000000721
 20
99.1583449999999971
 30
0.0
 11
95.2759060000000062
 21
99.1583449999999971
 31
0.0
  0
LINE
  5
1F85
  8
0
 10
96.6029850000000465
 20
99.6583449999999971
 30
0.0
 11
94.7759060000000204
 21
99.6583449999999971
 31
0.0
  0
ARC
  5
1F86
  8
0
 10
96.2759060000000346
 20
97.3583450000000141
 30
0.0
 40
1.5
 50
0.000000000000007
 51
180.0
  0
LINE
  5
1F87
  8
0
 10
95.5879930000000257
 20
83.5846189999999893
 30
0.0
 11
97.5981240000000412
 21
85.6583449999999971
 31
0.0
  0
LINE
  5
1F88
  8
0
 10
95.0879930000000542
 20
83.7996159999999861
 30
0.0
 11
97.2541680000000355
 21
86.0212410000000034
 31
0.0
  0
ARC
  5
1F89
  8
0
 10
96.2759060000000346
 20
87.1583449999999971
 30
0.0
 40
1.5
 50
180.0
 51
0.000000000000007
  0
LINE
  5
1F8A
  8
0
 10
97.7759060000000346
 20
87.1583449999999971
 30
0.0
 11
97.7759060000000346
 21
97.3583450000000141
 31
0.0
  0
LINE
  5
1F8B
  8
0
 10
98.7759060000000346
 20
95.8583449999999999
 30
0.0
 11
97.975906000000009
 21
95.8583449999999999
 31
0.0
  0
LINE
  5
1F8C
  8
0
 10
98.7759060000000346
 20
88.6583449999999971
 30
0.0
 11
97.975906000000009
 21
88.6583449999999971
 31
0.0
  0
LINE
  5
1F8D
  8
0
 10
97.5981240000000412
 20
85.6583449999999971
 30
0.0
 11
97.2541680000000355
 21
86.0212410000000034
 31
0.0
  0
ARC
  5
1F8E
  8
0
 10
95.7759039911649097
 20
81.7989788159907789
 30
0.0
 40
0.4999979911649143
 50
179.9999789140113933
 51
200.9347829448826985
  0
ARC
  5
1F8F
  8
0
 10
95.2839154474385737
 20
81.1259766524325556
 30
0.0
 40
0.1999803729817507
 50
353.8040067205124046
 51
20.9361163908210308
  0
ARC
  5
1F90
  8
0
 10
94.7759060000000204
 20
81.1583449999999971
 30
0.0
 40
0.5
 50
180.0
 51
270.0
  0
ARC
  5
1F91
  8
0
 10
94.9856470000000144
 20
81.1583449999999971
 30
0.0
 40
0.5
 50
270.0
 51
353.8054729999997789
  0
LINE
  5
1F92
  8
0
 10
95.3089120000000207
 20
81.6203270000000032
 30
0.0
 11
95.4706930000000256
 21
81.1974349999999987
 31
0.0
  0
LINE
  5
1F93
  8
0
 10
94.7759060000000204
 20
81.6142290000000088
 30
0.0
 11
94.6638190000000463
 21
81.3212350000000015
 31
0.0
  0
LINE
  5
1F94
  8
0
 10
94.7759060000000204
 20
81.6142290000000088
 30
0.0
 11
94.8879940000000346
 21
81.3212350000000015
 31
0.0
  0
ARC
  5
1F95
  8
0
 10
94.7759065000000334
 20
81.2783546990483643
 30
0.0
 40
0.1200096990495203
 50
159.065100850735206
 51
20.9348991492599517
  0
LINE
  5
1F96
  8
0
 10
94.9856470000000144
 20
80.6583449999999971
 30
0.0
 11
94.7759060000000204
 21
80.6583449999999971
 31
0.0
  0
ARC
  5
1F97
  8
0
 10
96.2759008445066655
 20
82.8588280614321064
 30
0.0
 40
0.999994844507187
 50
133.4650039255863874
 51
180.0000608158939883
  0
ARC
  5
1F98
  8
0
 10
95.7759008445067082
 20
83.0738250614321032
 30
0.0
 40
0.9999948445072581
 50
133.4650039255872969
 51
180.0000608158931072
  0
LINE
  5
1F99
  8
0
 10
95.2759060000000062
 20
82.8588270000000051
 30
0.0
 11
95.2759060000000062
 21
81.7989790000000028
 31
0.0
  0
LINE
  5
1F9A
  8
0
 10
94.7759060000000204
 20
98.6583449999999971
 30
0.0
 11
94.7759060000000204
 21
81.6142290000000088
 31
0.0
  0
LINE
  5
1F9B
  8
0
 10
99.7759060000000204
 20
89.6583449999999971
 30
0.0
 11
99.7759060000000204
 21
94.8583450000000141
 31
0.0
  0
LINE
  5
1F9C
  8
0
 10
97.975906000000009
 20
88.6583449999999971
 30
0.0
 11
97.7759060000000346
 21
88.8583449999999857
 31
0.0
  0
LINE
  5
1F9D
  8
0
 10
97.975906000000009
 20
95.8583449999999999
 30
0.0
 11
97.7759060000000346
 21
95.6583449999999971
 31
0.0
  0
INSERT
  5
2B2C
  8
3
  6
CONTINUOUS
  2
*X0
 10
0.0
 20
0.0
 30
0.0
1001
GRADIENTCOLOR1ACI
1070
     5
1001
GRADIENTCOLOR2ACI
1070
     2
1001
ACAD
1000
HATCH
1002
{
1070
    19
1000
ANSI37
1040
6.5
1040
0.0
1000
ASC_BOUNDS
1070
     2
1070
     1
1070
     1
1005
CC7
1070
     1
1070
     2
1005
C3B
1005
CC7
1000
ASC_SEEDPOINT
1011
77.8351832815142188
1021
0.0
1031
0.0
1021
92.143272568249472
1031
0.0
1000
R14_HATCH_DATA
1000
2B2C
1011
1.0
1021
0.0
1031
0.0
1021
0.0
1031
0.0
1011
0.0
1021
0.0
1031
0.0
1021
1.0
1031
0.0
1011
0.0
1021
0.0
1031
0.0
1021
0.0
1031
1.0
1040
0.0
1010
0.0
1020
0.0
1030
1.0
1000
ANSI37
1070
     0
1070
     1
1071
        2
1071
        7
1070
     1
1070
     1
1071
        3
1040
79.2759060000000204
1040
97.0083449999999914
1040
0.4142135623730951
1040
73.9259060000000261
1040
91.6583449999999971
1040
0.4142135623730951
1040
79.2759060000000204
1040
86.3083450000000028
1040
0.0
1071
        2
1005
CC7
1005
C3B
1071
        7
1070
     1
1070
     1
1071
        3
1040
79.2759060000000204
1040
97.0083449999999914
1040
0.0
1040
79.2759060000000204
1040
86.3083450000000028
1040
0.4142135623730951
1040
84.6259060000000147
1040
91.6583449999999971
1040
0.4142135623730951
1071
        1
1005
CC7
1070
     1
1070
     1
1040
0.0
1040
6.5
1070
     0
1070
     2
1040
0.7853981633974483
1040
0.0
1040
0.0
1040
-0.57452425971407
1040
0.57452425971407
1070
     0
1040
2.3561944901923439
1040
0.0
1040
0.0
1040
-0.57452425971407
1040
-0.57452425971407
1070
     0
1040
0.033473145927033
1071
        2
1040
77.8351832815142188
1040
92.143272568249472
1040
0.0
1040
81.520781021531306
1040
92.143272568249472
1040
0.0
1002
}
  0
LINE
  5
2DE1
  8
3
 10
225.1585570000000018
 20
82.7440939999999898
 30
0.0
 11
227.1726439999999911
 21
83.9525469999999956
 31
0.0
  0
LINE
  5
2DE2
  8
3
 10
225.1585570000000018
 20
82.5725959999999901
 30
0.0
 11
227.1726439999999911
 21
81.3641429999999986
 31
0.0
  0
LINE
  5
2DE3
  8
3
 10
227.275542999999999
 20
81.3641429999999986
 30
0.0
 11
229.2896310000000142
 21
82.5725959999999901
 31
0.0
  0
LINE
  5
2DE4
  8
3
 10
227.275542999999999
 20
83.9525469999999956
 30
0.0
 11
229.2896310000000142
 21
82.7440939999999898
 31
0.0
  0
LINE
  5
2DE5
  8
0
 10
229.724094000000008
 20
106.4583449999999942
 30
0.0
 11
229.724094000000008
 21
80.6583449999999971
 31
0.0
  0
LINE
  5
2DE6
  8
0
 10
199.724094000000008
 20
102.6583449999999971
 30
0.0
 11
229.724094000000008
 21
102.6583449999999971
 31
0.0
  0
LINE
  5
2DE7
  8
0
 10
199.724094000000008
 20
80.6583449999999971
 30
0.0
 11
199.724094000000008
 21
106.4583449999999942
 31
0.0
  0
LINE
  5
2DE8
  8
0
 10
229.724094000000008
 20
80.6583449999999971
 30
0.0
 11
199.724094000000008
 21
80.6583449999999971
 31
0.0
  0
ARC
  5
2DE9
  8
3
 10
229.2381810669309914
 20
82.6583449999999829
 30
0.0
 40
0.0999999330689841
 50
300.9640184329082899
 51
59.035981567095611
  0
ARC
  5
2DEA
  8
3
 10
227.2240934999998956
 20
81.4498969842081664
 30
0.0
 40
0.1000039842097412
 50
239.0376635472173064
 51
300.9623364527960803
  0
ARC
  5
2DEB
  8
3
 10
225.2100048733703943
 20
82.6583449999999544
 30
0.0
 40
0.0999988733703953
 50
120.9630064794548048
 51
239.0369935205320076
  0
ARC
  5
2DEC
  8
3
 10
227.2240935000000093
 20
83.8667930157676267
 30
0.0
 40
0.1000039842304938
 50
59.0376635543503028
 51
120.9623364456630981
  0
ARC
  5
2DED
  8
3
 10
227.2240934999998956
 20
86.8667930157918562
 30
0.0
 40
0.1000039842097388
 50
59.037663547188572
 51
120.9623364527805052
  0
ARC
  5
2DEE
  8
3
 10
225.2100048733703943
 20
85.6583449999999971
 30
0.0
 40
0.0999988733703636
 50
120.9630064794565953
 51
239.0369935205472984
  0
ARC
  5
2DEF
  8
3
 10
227.2240935000000093
 20
84.4498969842322396
 30
0.0
 40
0.1000039842303988
 50
239.0376635542988879
 51
300.9623364456896866
  0
ARC
  5
2DF0
  8
3
 10
229.2381810669311051
 20
85.6583449999999971
 30
0.0
 40
0.0999999330689524
 50
300.9640184328625878
 51
59.0359815671282107
  0
LINE
  5
2DF1
  8
3
 10
227.275542999999999
 20
86.9525469999999956
 30
0.0
 11
229.2896310000000142
 21
85.7440939999999756
 31
0.0
  0
LINE
  5
2DF2
  8
3
 10
227.275542999999999
 20
84.3641429999999986
 30
0.0
 11
229.2896310000000142
 21
85.5725960000000043
 31
0.0
  0
LINE
  5
2DF3
  8
3
 10
225.1585570000000018
 20
85.5725960000000043
 30
0.0
 11
227.1726439999999911
 21
84.3641429999999986
 31
0.0
  0
LINE
  5
2DF4
  8
3
 10
225.1585570000000018
 20
85.7440939999999756
 30
0.0
 11
227.1726439999999911
 21
86.9525469999999956
 31
0.0
  0
ARC
  5
2DF5
  8
3
 10
227.2240934999998956
 20
89.8667930157918278
 30
0.0
 40
0.1000039842097632
 50
59.037663547196388
 51
120.962336452771396
  0
ARC
  5
2DF6
  8
3
 10
225.2100048733703943
 20
88.6583450000000255
 30
0.0
 40
0.0999988733703246
 50
120.9630064794508968
 51
239.0369935205721106
  0
ARC
  5
2DF7
  8
3
 10
227.2240935000000093
 20
87.4498969842322538
 30
0.0
 40
0.1000039842304109
 50
239.0376635543028101
 51
300.9623364456858781
  0
ARC
  5
2DF8
  8
3
 10
229.2381810669311051
 20
88.6583449999999829
 30
0.0
 40
0.0999999330689402
 50
300.96401843286651
 51
59.0359815671356714
  0
LINE
  5
2DF9
  8
3
 10
227.275542999999999
 20
89.9525469999999956
 30
0.0
 11
229.2896310000000142
 21
88.7440939999999898
 31
0.0
  0
LINE
  5
2DFA
  8
3
 10
227.275542999999999
 20
87.3641429999999843
 30
0.0
 11
229.2896310000000142
 21
88.5725959999999901
 31
0.0
  0
LINE
  5
2DFB
  8
3
 10
225.1585570000000018
 20
88.5725959999999901
 30
0.0
 11
227.1726439999999911
 21
87.3641429999999843
 31
0.0
  0
LINE
  5
2DFC
  8
3
 10
225.1585570000000018
 20
88.7440939999999898
 30
0.0
 11
227.1726439999999911
 21
89.9525469999999956
 31
0.0
  0
ARC
  5
2DFD
  8
3
 10
227.2240935000000093
 20
92.8667930157676267
 30
0.0
 40
0.1000039842304938
 50
59.0376635543503028
 51
120.9623364456630981
  0
ARC
  5
2DFE
  8
3
 10
225.2100048733703943
 20
91.6583449999999829
 30
0.0
 40
0.0999988733703758
 50
120.9630064794527016
 51
239.0369935205434047
  0
ARC
  5
2DFF
  8
3
 10
227.2240934999998956
 20
90.4498969842081664
 30
0.0
 40
0.1000039842097412
 50
239.0376635472173064
 51
300.9623364527960803
  0
ARC
  5
2E00
  8
3
 10
229.2381810669311051
 20
91.6583449999999686
 30
0.0
 40
0.09999993306895
 50
300.9640184328927148
 51
59.0359815671204302
  0
LINE
  5
2E01
  8
3
 10
227.275542999999999
 20
92.9525469999999956
 30
0.0
 11
229.2896310000000142
 21
91.744094000000004
 31
0.0
  0
LINE
  5
2E02
  8
3
 10
227.275542999999999
 20
90.3641429999999986
 30
0.0
 11
229.2896310000000142
 21
91.5725959999999901
 31
0.0
  0
LINE
  5
2E03
  8
3
 10
225.1585570000000018
 20
91.5725959999999901
 30
0.0
 11
227.1726439999999911
 21
90.3641429999999986
 31
0.0
  0
LINE
  5
2E04
  8
3
 10
225.1585570000000018
 20
91.744094000000004
 30
0.0
 11
227.1726439999999911
 21
92.9525469999999956
 31
0.0
  0
ARC
  5
2E05
  8
3
 10
227.2240935000000093
 20
95.8667930157676267
 30
0.0
 40
0.1000039842304816
 50
59.0376635543464019
 51
120.962336445667006
  0
ARC
  5
2E06
  8
3
 10
225.210004873370508
 20
94.6583449999999971
 30
0.0
 40
0.0999988733703782
 50
120.9630064794700957
 51
239.0369935205337981
  0
ARC
  5
2E07
  8
3
 10
227.2240934999998956
 20
93.449896984208209
 30
0.0
 40
0.1000039842097778
 50
239.0376635472304088
 51
300.9623364527844842
  0
ARC
  5
2E08
  8
3
 10
229.2381810669309914
 20
94.6583450000000113
 30
0.0
 40
0.0999999330690012
 50
300.964018432892999
 51
59.0359815670938417
  0
LINE
  5
2E09
  8
3
 10
227.275542999999999
 20
95.9525469999999956
 30
0.0
 11
229.2896310000000142
 21
94.7440939999999756
 31
0.0
  0
LINE
  5
2E0A
  8
3
 10
227.275542999999999
 20
93.3641429999999843
 30
0.0
 11
229.2896310000000142
 21
94.5725959999999759
 31
0.0
  0
LINE
  5
2E0B
  8
3
 10
225.1585570000000018
 20
94.5725959999999759
 30
0.0
 11
227.1726439999999911
 21
93.3641429999999843
 31
0.0
  0
LINE
  5
2E0C
  8
3
 10
225.1585570000000018
 20
94.7440939999999756
 30
0.0
 11
227.1726439999999911
 21
95.9525469999999956
 31
0.0
  0
ARC
  5
2E0D
  8
3
 10
227.2240935000000093
 20
98.8667930157677546
 30
0.0
 40
0.1000039842303768
 50
59.0376635543198276
 51
120.9623364457085017
  0
ARC
  5
2E0E
  8
3
 10
225.210004873370508
 20
97.6583449999999971
 30
0.0
 40
0.0999988733703782
 50
120.9630064794700957
 51
239.0369935205337981
  0
ARC
  5
2E0F
  8
3
 10
227.2240934999998956
 20
96.4498969842081948
 30
0.0
 40
0.1000039842097656
 50
239.0376635472250939
 51
300.9623364527882927
  0
ARC
  5
2E10
  8
3
 10
229.2381810669311051
 20
97.6583449999999829
 30
0.0
 40
0.0999999330689622
 50
300.9640184328874284
 51
59.0359815671165222
  0
LINE
  5
2E11
  8
3
 10
227.275542999999999
 20
98.9525469999999956
 30
0.0
 11
229.2896310000000142
 21
97.7440939999999898
 31
0.0
  0
LINE
  5
2E12
  8
3
 10
227.275542999999999
 20
96.3641429999999986
 30
0.0
 11
229.2896310000000142
 21
97.5725959999999901
 31
0.0
  0
LINE
  5
2E13
  8
3
 10
225.1585570000000018
 20
97.5725959999999901
 30
0.0
 11
227.1726439999999911
 21
96.3641429999999986
 31
0.0
  0
LINE
  5
2E14
  8
3
 10
225.1585570000000018
 20
97.7440939999999898
 30
0.0
 11
227.1726439999999911
 21
98.9525469999999956
 31
0.0
  0
ARC
  5
2E15
  8
3
 10
227.2240935000000093
 20
101.8667930157675983
 30
0.0
 40
0.1000039842304816
 50
59.0376635543464019
 51
120.962336445667006
  0
ARC
  5
2E16
  8
3
 10
225.2100048733703943
 20
100.6583449999998976
 30
0.0
 40
0.0999988733704075
 50
120.9630064794508968
 51
239.0369935205281138
  0
ARC
  5
2E17
  8
3
 10
227.2240934999998956
 20
99.4498969842081948
 30
0.0
 40
0.1000039842097656
 50
239.0376635472250939
 51
300.9623364527882927
  0
ARC
  5
2E18
  8
3
 10
229.2381810669311051
 20
100.6583449999999971
 30
0.0
 40
0.0999999330689622
 50
300.9640184328874284
 51
59.0359815671165222
  0
LINE
  5
2E19
  8
3
 10
227.275542999999999
 20
101.9525469999999956
 30
0.0
 11
229.2896310000000142
 21
100.744094000000004
 31
0.0
  0
LINE
  5
2E1A
  8
3
 10
227.275542999999999
 20
99.3641429999999986
 30
0.0
 11
229.2896310000000142
 21
100.5725960000000043
 31
0.0
  0
LINE
  5
2E1B
  8
3
 10
225.1585570000000018
 20
100.5725960000000043
 30
0.0
 11
227.1726439999999911
 21
99.3641429999999986
 31
0.0
  0
LINE
  5
2E1C
  8
3
 10
225.1585570000000018
 20
100.744094000000004
 30
0.0
 11
227.1726439999999911
 21
101.9525469999999956
 31
0.0
  0
ARC
  5
2E1D
  8
3
 10
222.2240934999998956
 20
83.8667930157677262
 30
0.0
 40
0.1000039842304085
 50
59.0376635543215968
 51
120.9623364456649028
  0
ARC
  5
2E1E
  8
3
 10
220.210004873370309
 20
82.6583449999999829
 30
0.0
 40
0.0999988733702953
 50
120.9630064793750961
 51
239.0369935206194896
  0
ARC
  5
2E1F
  8
3
 10
222.2240934999998956
 20
81.4498969842081095
 30
0.0
 40
0.1000039842096779
 50
239.0376635472136968
 51
300.9623364527997182
  0
ARC
  5
2E20
  8
3
 10
224.2381810669309914
 20
82.6583449999999829
 30
0.0
 40
0.0999999330689695
 50
300.964018432894818
 51
59.0359815671090828
  0
LINE
  5
2E21
  8
3
 10
222.2755429999999137
 20
83.9525469999999956
 30
0.0
 11
224.2896310000000142
 21
82.7440939999999898
 31
0.0
  0
LINE
  5
2E22
  8
3
 10
222.2755429999999137
 20
81.3641429999999986
 30
0.0
 11
224.2896310000000142
 21
82.5725959999999901
 31
0.0
  0
LINE
  5
2E23
  8
3
 10
220.1585570000000018
 20
82.5725959999999901
 30
0.0
 11
222.1726439999999911
 21
81.3641429999999986
 31
0.0
  0
LINE
  5
2E24
  8
3
 10
220.1585570000000018
 20
82.7440939999999898
 30
0.0
 11
222.1726439999999911
 21
83.9525469999999956
 31
0.0
  0
ARC
  5
2E25
  8
3
 10
222.2240934999998956
 20
86.8667930157677404
 30
0.0
 40
0.1000039842303963
 50
59.0376635543177031
 51
120.9623364456687966
  0
ARC
  5
2E26
  8
3
 10
220.210004873370309
 20
85.6583449999999971
 30
0.0
 40
0.0999988733702953
 50
120.9630064793750961
 51
239.0369935206194896
  0
ARC
  5
2E27
  8
3
 10
222.2240934999998956
 20
84.4498969842079816
 30
0.0
 40
0.1000039842095755
 50
239.0376635471698137
 51
300.9623364528300726
  0
ARC
  5
2E28
  8
3
 10
224.2381810669309914
 20
85.6583449999999971
 30
0.0
 40
0.099999933068989
 50
300.9640184328982855
 51
59.0359815670977497
  0
LINE
  5
2E29
  8
3
 10
222.2755429999999137
 20
86.9525469999999956
 30
0.0
 11
224.2896310000000142
 21
85.7440939999999756
 31
0.0
  0
LINE
  5
2E2A
  8
3
 10
222.2755429999999137
 20
84.3641429999999986
 30
0.0
 11
224.2896310000000142
 21
85.5725960000000043
 31
0.0
  0
LINE
  5
2E2B
  8
3
 10
220.1585570000000018
 20
85.5725960000000043
 30
0.0
 11
222.1726439999999911
 21
84.3641429999999986
 31
0.0
  0
LINE
  5
2E2C
  8
3
 10
220.1585570000000018
 20
85.7440939999999756
 30
0.0
 11
222.1726439999999911
 21
86.9525469999999956
 31
0.0
  0
ARC
  5
2E2D
  8
3
 10
222.2240934999998956
 20
87.4498969842079816
 30
0.0
 40
0.1000039842095755
 50
239.0376635471698137
 51
300.9623364528300726
  0
ARC
  5
2E2E
  8
3
 10
224.2381810669309914
 20
88.6583449999999829
 30
0.0
 40
0.0999999330689768
 50
300.9640184329023214
 51
59.0359815671016577
  0
LINE
  5
2E2F
  8
3
 10
222.508324913796713
 20
89.8128778286065739
 30
0.0
 11
224.2896310000000142
 21
88.7440939999999898
 31
0.0
  0
LINE
  5
2E30
  8
3
 10
222.2755429999999137
 20
87.3641429999999843
 30
0.0
 11
224.2896310000000142
 21
88.5725959999999901
 31
0.0
  0
LINE
  5
2E31
  8
3
 10
221.6600056626226092
 20
87.671726206047552
 30
0.0
 11
222.1726439999999911
 21
87.3641429999999843
 31
0.0
  0
ARC
  5
2E32
  8
3
 10
224.2381810669309914
 20
91.6583449999999829
 30
0.0
 40
0.0999999330689768
 50
300.9640184329023214
 51
59.0359815671016577
  0
LINE
  5
2E33
  8
3
 10
222.6524790738035051
 20
92.7263853182878677
 30
0.0
 11
224.2896310000000142
 21
91.744094000000004
 31
0.0
  0
LINE
  5
2E34
  8
3
 10
222.6524790738035051
 20
90.590304681712098
 30
0.0
 11
224.2896310000000142
 21
91.5725959999999901
 31
0.0
  0
ARC
  5
2E35
  8
3
 10
222.2240934999998956
 20
95.8667930157919272
 30
0.0
 40
0.1000039842096511
 50
59.0376635471772602
 51
120.9623364527904954
  0
ARC
  5
2E36
  8
3
 10
224.2381810669311051
 20
94.6583449999999686
 30
0.0
 40
0.0999999330689622
 50
300.9640184328874284
 51
59.0359815671129908
  0
LINE
  5
2E37
  8
3
 10
222.2755429999999137
 20
95.9525469999999956
 30
0.0
 11
224.2896310000000142
 21
94.7440939999999756
 31
0.0
  0
LINE
  5
2E38
  8
3
 10
222.508324913796713
 20
93.5038121713934061
 30
0.0
 11
224.2896310000000142
 21
94.5725959999999759
 31
0.0
  0
LINE
  5
2E39
  8
3
 10
221.6600056626226092
 20
95.6449637939524422
 30
0.0
 11
222.1726439999999911
 21
95.9525469999999956
 31
0.0
  0
ARC
  5
2E3A
  8
3
 10
222.2240934999998956
 20
98.8667930157677546
 30
0.0
 40
0.1000039842303963
 50
59.0376635543177031
 51
120.9623364456687966
  0
ARC
  5
2E3B
  8
3
 10
220.210004873370309
 20
97.6583449999999829
 30
0.0
 40
0.09999887337031
 50
120.9630064793900033
 51
239.0369935206061029
  0
ARC
  5
2E3C
  8
3
 10
222.2240934999998956
 20
96.4498969842080953
 30
0.0
 40
0.100003984209673
 50
239.037663547203806
 51
300.9623364527960803
  0
ARC
  5
2E3D
  8
3
 10
224.2381810669311051
 20
97.6583449999999829
 30
0.0
 40
0.0999999330689622
 50
300.9640184328874284
 51
59.0359815671165222
  0
LINE
  5
2E3E
  8
3
 10
222.2755429999999137
 20
98.9525469999999956
 30
0.0
 11
224.2896310000000142
 21
97.7440939999999898
 31
0.0
  0
LINE
  5
2E3F
  8
3
 10
222.2755429999999137
 20
96.3641429999999986
 30
0.0
 11
224.2896310000000142
 21
97.5725959999999901
 31
0.0
  0
LINE
  5
2E40
  8
3
 10
220.1585570000000018
 20
97.5725959999999901
 30
0.0
 11
222.1726439999999911
 21
96.3641429999999986
 31
0.0
  0
LINE
  5
2E41
  8
3
 10
220.1585570000000018
 20
97.7440939999999898
 30
0.0
 11
222.1726439999999911
 21
98.9525469999999956
 31
0.0
  0
ARC
  5
2E42
  8
3
 10
222.2240934999998956
 20
101.8667930157676977
 30
0.0
 40
0.1000039842303963
 50
59.0376635543177031
 51
120.9623364456687966
  0
ARC
  5
2E43
  8
3
 10
220.210004873370309
 20
100.6583449999999971
 30
0.0
 40
0.0999988733703027
 50
120.9630064793825994
 51
239.0369935206134926
  0
ARC
  5
2E44
  8
3
 10
222.2240934999998956
 20
99.4498969842079816
 30
0.0
 40
0.1000039842095755
 50
239.0376635471698137
 51
300.9623364528300726
  0
ARC
  5
2E45
  8
3
 10
224.2381810669309914
 20
100.6583449999999971
 30
0.0
 40
0.0999999330689963
 50
300.9640184329044246
 51
59.0359815670917172
  0
LINE
  5
2E46
  8
3
 10
222.2755429999999137
 20
101.9525469999999956
 30
0.0
 11
224.2896310000000142
 21
100.744094000000004
 31
0.0
  0
LINE
  5
2E47
  8
3
 10
222.2755429999999137
 20
99.3641429999999986
 30
0.0
 11
224.2896310000000142
 21
100.5725960000000043
 31
0.0
  0
LINE
  5
2E48
  8
3
 10
220.1585570000000018
 20
100.5725960000000043
 30
0.0
 11
222.1726439999999911
 21
99.3641429999999986
 31
0.0
  0
LINE
  5
2E49
  8
3
 10
220.1585570000000018
 20
100.744094000000004
 30
0.0
 11
222.1726439999999911
 21
101.9525469999999956
 31
0.0
  0
ARC
  5
2E4A
  8
3
 10
217.2240934999998956
 20
83.8667930157919415
 30
0.0
 40
0.1000039842096511
 50
59.0376635471772602
 51
120.9623364527904954
  0
ARC
  5
2E4B
  8
3
 10
215.2100048733703943
 20
82.6583450000000255
 30
0.0
 40
0.0999988733702929
 50
120.9630064794051947
 51
239.0369935206061029
  0
ARC
  5
2E4C
  8
3
 10
217.2240935000000093
 20
81.4498969842321259
 30
0.0
 40
0.1000039842302866
 50
239.0376635542797885
 51
300.9623364457067964
  0
ARC
  5
2E4D
  8
3
 10
219.2381810669311051
 20
82.6583449999999829
 30
0.0
 40
0.0999999330689549
 50
300.964018432881403
 51
59.0359815671225618
  0
LINE
  5
2E4E
  8
3
 10
217.2755429999999137
 20
83.9525469999999956
 30
0.0
 11
219.2896310000000142
 21
82.7440939999999898
 31
0.0
  0
LINE
  5
2E4F
  8
3
 10
217.2755429999999137
 20
81.3641429999999986
 30
0.0
 11
219.2896310000000142
 21
82.5725959999999901
 31
0.0
  0
LINE
  5
2E50
  8
3
 10
215.1585570000000018
 20
82.5725959999999901
 30
0.0
 11
217.1726439999999911
 21
81.3641429999999986
 31
0.0
  0
LINE
  5
2E51
  8
3
 10
215.1585570000000018
 20
82.7440939999999898
 30
0.0
 11
217.1726439999999911
 21
83.9525469999999956
 31
0.0
  0
ARC
  5
2E52
  8
3
 10
217.2240934999998956
 20
101.8667930157676977
 30
0.0
 40
0.100003984230372
 50
59.0376635543085015
 51
120.9623364456765984
  0
ARC
  5
2E53
  8
3
 10
215.2100048733703943
 20
100.6583449999999971
 30
0.0
 40
0.0999988733703124
 50
120.9630064794073974
 51
239.0369935205964964
  0
ARC
  5
2E54
  8
3
 10
217.2240935000000093
 20
99.4498969842079816
 30
0.0
 40
0.1000039842095755
 50
239.0376635471698137
 51
300.9623364528300726
  0
ARC
  5
2E55
  8
3
 10
219.2381810669311051
 20
100.6583449999998976
 30
0.0
 40
0.0999999330689427
 50
300.9640184328853252
 51
59.0359815671278483
  0
LINE
  5
2E56
  8
3
 10
217.2755429999999137
 20
101.9525469999999956
 30
0.0
 11
219.2896310000000142
 21
100.744094000000004
 31
0.0
  0
LINE
  5
2E57
  8
3
 10
217.2755429999999137
 20
99.3641429999999986
 30
0.0
 11
219.2896310000000142
 21
100.5725960000000043
 31
0.0
  0
LINE
  5
2E58
  8
3
 10
215.1585570000000018
 20
100.5725960000000043
 30
0.0
 11
217.1726439999999911
 21
99.3641429999999986
 31
0.0
  0
LINE
  5
2E59
  8
3
 10
215.1585570000000018
 20
100.744094000000004
 30
0.0
 11
217.1726439999999911
 21
101.9525469999999956
 31
0.0
  0
ARC
  5
2E5A
  8
3
 10
212.2240935000000093
 20
83.8667930157678683
 30
0.0
 40
0.1000039842302793
 50
59.0376635542872208
 51
120.9623364457127934
  0
ARC
  5
2E5B
  8
3
 10
210.210004873370309
 20
82.6583449999999544
 30
0.0
 40
0.0999988733703149
 50
120.9630064793786062
 51
239.0369935206082062
  0
ARC
  5
2E5C
  8
3
 10
212.2240934999998956
 20
81.4498969842080953
 30
0.0
 40
0.1000039842096657
 50
239.037663547209803
 51
300.9623364528035836
  0
ARC
  5
2E5D
  8
3
 10
214.2381810669311051
 20
82.6583449999999971
 30
0.0
 40
0.0999999330689378
 50
300.9640184328491159
 51
59.0359815671469974
  0
LINE
  5
2E5E
  8
3
 10
212.2755429999999137
 20
83.9525469999999956
 30
0.0
 11
214.2896310000000142
 21
82.7440939999999898
 31
0.0
  0
LINE
  5
2E5F
  8
3
 10
212.2755429999999137
 20
81.3641429999999986
 30
0.0
 11
214.2896310000000142
 21
82.5725959999999901
 31
0.0
  0
LINE
  5
2E60
  8
3
 10
210.1585570000000018
 20
82.5725959999999901
 30
0.0
 11
212.1726439999999911
 21
81.3641429999999986
 31
0.0
  0
LINE
  5
2E61
  8
3
 10
210.1585570000000018
 20
82.7440939999999898
 30
0.0
 11
212.1726439999999911
 21
83.9525469999999956
 31
0.0
  0
ARC
  5
2E62
  8
3
 10
212.2240934999998956
 20
101.8667930157677972
 30
0.0
 40
0.1000039842302988
 50
59.0376635542836894
 51
120.9623364457028032
  0
ARC
  5
2E63
  8
3
 10
210.210004873370309
 20
100.6583449999998976
 30
0.0
 40
0.0999988733703295
 50
120.9630064793921065
 51
239.0369935205947058
  0
ARC
  5
2E64
  8
3
 10
212.2240934999998956
 20
99.4498969842079958
 30
0.0
 40
0.1000039842095804
 50
239.0376635471810971
 51
300.9623364528322895
  0
ARC
  5
2E65
  8
3
 10
214.2381810669311051
 20
100.6583449999999971
 30
0.0
 40
0.0999999330689622
 50
300.9640184328874284
 51
59.0359815671165222
  0
LINE
  5
2E66
  8
3
 10
212.2755429999999137
 20
101.9525469999999956
 30
0.0
 11
214.2896310000000142
 21
100.744094000000004
 31
0.0
  0
LINE
  5
2E67
  8
3
 10
212.2755429999999137
 20
99.3641429999999986
 30
0.0
 11
214.2896310000000142
 21
100.5725960000000043
 31
0.0
  0
LINE
  5
2E68
  8
3
 10
210.1585570000000018
 20
100.5725960000000043
 30
0.0
 11
212.1726439999999911
 21
99.3641429999999986
 31
0.0
  0
LINE
  5
2E69
  8
3
 10
210.1585570000000018
 20
100.744094000000004
 30
0.0
 11
212.1726439999999911
 21
101.9525469999999956
 31
0.0
  0
ARC
  5
2E6A
  8
3
 10
207.2240934999998956
 20
83.8667930157678256
 30
0.0
 40
0.1000039842303037
 50
59.0376635542950225
 51
120.9623364457049064
  0
ARC
  5
2E6B
  8
3
 10
205.210004873370309
 20
82.6583449999999829
 30
0.0
 40
0.0999988733703246
 50
120.9630064794035036
 51
239.0369935205926026
  0
ARC
  5
2E6C
  8
3
 10
207.2240934999998956
 20
81.4498969842080101
 30
0.0
 40
0.1000039842095926
 50
239.0376635471849909
 51
300.9623364528284242
  0
ARC
  5
2E6D
  8
3
 10
209.2381810669311051
 20
82.6583449999999829
 30
0.0
 40
0.0999999330689475
 50
300.9640184328738997
 51
59.0359815671299799
  0
LINE
  5
2E6E
  8
3
 10
207.2755429999999137
 20
83.9525469999999956
 30
0.0
 11
209.2896310000000142
 21
82.7440939999999898
 31
0.0
  0
LINE
  5
2E6F
  8
3
 10
207.2755429999999137
 20
81.3641429999999986
 30
0.0
 11
209.2896310000000142
 21
82.5725959999999901
 31
0.0
  0
LINE
  5
2E70
  8
3
 10
205.1585570000000018
 20
82.5725959999999901
 30
0.0
 11
207.1726439999999911
 21
81.3641429999999986
 31
0.0
  0
LINE
  5
2E71
  8
3
 10
205.1585570000000018
 20
82.7440939999999898
 30
0.0
 11
207.1726439999999911
 21
83.9525469999999956
 31
0.0
  0
ARC
  5
2E72
  8
3
 10
207.2240934999998956
 20
86.8667930157677404
 30
0.0
 40
0.1000039842303963
 50
59.0376635543177031
 51
120.9623364456687966
  0
ARC
  5
2E73
  8
3
 10
205.210004873370309
 20
85.6583449999999971
 30
0.0
 40
0.0999988733703319
 50
120.9630064794108932
 51
239.036993520585213
  0
ARC
  5
2E74
  8
3
 10
207.2240934999998956
 20
84.4498969842079532
 30
0.0
 40
0.100003984209556
 50
239.0376635471720022
 51
300.9623364528414982
  0
ARC
  5
2E75
  8
3
 10
209.2381810669311051
 20
85.6583450000000113
 30
0.0
 40
0.09999993306895
 50
300.9640184328451937
 51
59.0359815671430894
  0
LINE
  5
2E76
  8
3
 10
207.2755429999999137
 20
86.9525469999999956
 30
0.0
 11
209.2896310000000142
 21
85.7440939999999756
 31
0.0
  0
LINE
  5
2E77
  8
3
 10
207.2755429999999137
 20
84.3641429999999986
 30
0.0
 11
209.2896310000000142
 21
85.5725960000000043
 31
0.0
  0
LINE
  5
2E78
  8
3
 10
205.1585570000000018
 20
85.5725960000000043
 30
0.0
 11
207.1726439999999911
 21
84.3641429999999986
 31
0.0
  0
LINE
  5
2E79
  8
3
 10
205.1585570000000018
 20
85.7440939999999756
 30
0.0
 11
207.1726439999999911
 21
86.9525469999999956
 31
0.0
  0
ARC
  5
2E7A
  8
3
 10
205.210004873370309
 20
88.6583449999999829
 30
0.0
 40
0.0999988733703027
 50
120.9630064793825994
 51
239.0369935206134926
  0
ARC
  5
2E7B
  8
3
 10
207.2240934999998956
 20
87.4498969842079958
 30
0.0
 40
0.1000039842095804
 50
239.0376635471810971
 51
300.9623364528322895
  0
LINE
  5
2E7C
  8
3
 10
207.2755429999999137
 20
87.3641429999999843
 30
0.0
 11
207.7881821462136998
 21
87.6717265386335782
 31
0.0
  0
LINE
  5
2E7D
  8
3
 10
205.1585570000000018
 20
88.5725959999999901
 30
0.0
 11
207.1726439999999911
 21
87.3641429999999843
 31
0.0
  0
LINE
  5
2E7E
  8
3
 10
205.1585570000000018
 20
88.7440939999999898
 30
0.0
 11
206.9398629760638926
 21
89.8128782931771781
 31
0.0
  0
ARC
  5
2E7F
  8
3
 10
205.210004873370309
 20
91.6583449999999829
 30
0.0
 40
0.0999988733702953
 50
120.9630064793750961
 51
239.0369935206194896
  0
LINE
  5
2E80
  8
3
 10
205.1585570000000018
 20
91.5725959999999901
 30
0.0
 11
206.7957089976735858
 21
90.5903041511152765
 31
0.0
  0
LINE
  5
2E81
  8
3
 10
205.1585570000000018
 20
91.744094000000004
 30
0.0
 11
206.7957089976735858
 21
92.7263858488846751
 31
0.0
  0
ARC
  5
2E82
  8
3
 10
207.2240934999998956
 20
95.8667930157919557
 30
0.0
 40
0.1000039842096389
 50
59.0376635471719524
 51
120.962336452795796
  0
ARC
  5
2E83
  8
3
 10
205.2100048733703943
 20
94.6583449999999686
 30
0.0
 40
0.0999988733703465
 50
120.9630064794242941
 51
239.0369935205717127
  0
LINE
  5
2E84
  8
3
 10
207.2755429999999137
 20
95.9525469999999956
 30
0.0
 11
207.7881821462136998
 21
95.6449634613664159
 31
0.0
  0
LINE
  5
2E85
  8
3
 10
205.1585570000000018
 20
94.5725959999999759
 30
0.0
 11
206.9398629760638926
 21
93.5038117068228161
 31
0.0
  0
LINE
  5
2E86
  8
3
 10
205.1585570000000018
 20
94.7440939999999756
 30
0.0
 11
207.1726439999999911
 21
95.9525469999999956
 31
0.0
  0
ARC
  5
2E87
  8
3
 10
207.2240934999998956
 20
98.8667930157677546
 30
0.0
 40
0.1000039842304036
 50
59.0376635543102566
 51
120.962336445661407
  0
ARC
  5
2E88
  8
3
 10
205.210004873370309
 20
97.6583449999999829
 30
0.0
 40
0.0999988733703319
 50
120.9630064794108932
 51
239.036993520585213
  0
ARC
  5
2E89
  8
3
 10
207.2240934999998956
 20
96.4498969842080101
 30
0.0
 40
0.1000039842095804
 50
239.0376635471810971
 51
300.9623364528322895
  0
ARC
  5
2E8A
  8
3
 10
209.2381810669309914
 20
97.6583449999999829
 30
0.0
 40
0.0999999330689622
 50
300.9640184328874284
 51
59.0359815671165222
  0
LINE
  5
2E8B
  8
3
 10
207.2755429999999137
 20
98.9525469999999956
 30
0.0
 11
209.2896310000000142
 21
97.7440939999999898
 31
0.0
  0
LINE
  5
2E8C
  8
3
 10
207.2755429999999137
 20
96.3641429999999986
 30
0.0
 11
209.2896310000000142
 21
97.5725959999999901
 31
0.0
  0
LINE
  5
2E8D
  8
3
 10
205.1585570000000018
 20
97.5725959999999901
 30
0.0
 11
207.1726439999999911
 21
96.3641429999999986
 31
0.0
  0
LINE
  5
2E8E
  8
3
 10
205.1585570000000018
 20
97.7440939999999898
 30
0.0
 11
207.1726439999999911
 21
98.9525469999999956
 31
0.0
  0
ARC
  5
2E8F
  8
3
 10
207.2240934999998956
 20
101.8667930157677972
 30
0.0
 40
0.1000039842303037
 50
59.0376635542950225
 51
120.9623364457049064
  0
ARC
  5
2E90
  8
3
 10
205.210004873370309
 20
100.6583449999999971
 30
0.0
 40
0.0999988733703319
 50
120.9630064794108932
 51
239.036993520585213
  0
ARC
  5
2E91
  8
3
 10
207.2240934999998956
 20
99.4498969842079816
 30
0.0
 40
0.1000039842095682
 50
239.0376635471772886
 51
300.962336452837576
  0
ARC
  5
2E92
  8
3
 10
209.2381810669311051
 20
100.6583449999999971
 30
0.0
 40
0.0999999330689524
 50
300.9640184328625878
 51
59.0359815671335326
  0
LINE
  5
2E93
  8
3
 10
207.2755429999999137
 20
101.9525469999999956
 30
0.0
 11
209.2896310000000142
 21
100.744094000000004
 31
0.0
  0
LINE
  5
2E94
  8
3
 10
207.2755429999999137
 20
99.3641429999999986
 30
0.0
 11
209.2896310000000142
 21
100.5725960000000043
 31
0.0
  0
LINE
  5
2E95
  8
3
 10
205.1585570000000018
 20
100.5725960000000043
 30
0.0
 11
207.1726439999999911
 21
99.3641429999999986
 31
0.0
  0
LINE
  5
2E96
  8
3
 10
205.1585570000000018
 20
100.744094000000004
 30
0.0
 11
207.1726439999999911
 21
101.9525469999999956
 31
0.0
  0
ARC
  5
2E97
  8
3
 10
202.2240935000000093
 20
83.8667930157678683
 30
0.0
 40
0.100003984230272
 50
59.0376635542932604
 51
120.9623364457201973
  0
ARC
  5
2E98
  8
3
 10
200.210004873370309
 20
82.6583449999999544
 30
0.0
 40
0.0999988733703149
 50
120.9630064793786062
 51
239.0369935206082062
  0
ARC
  5
2E99
  8
3
 10
202.2240934999998956
 20
81.4498969842081237
 30
0.0
 40
0.10000398420969
 50
239.0376635472190117
 51
300.962336452795796
  0
ARC
  5
2E9A
  8
3
 10
204.2381810669311051
 20
82.6583449999999829
 30
0.0
 40
0.0999999330689475
 50
300.9640184328738997
 51
59.0359815671299799
  0
LINE
  5
2E9B
  8
3
 10
202.2755429999999137
 20
83.9525469999999956
 30
0.0
 11
204.2896310000000142
 21
82.7440939999999898
 31
0.0
  0
LINE
  5
2E9C
  8
3
 10
202.2755429999999137
 20
81.3641429999999986
 30
0.0
 11
204.2896310000000142
 21
82.5725959999999901
 31
0.0
  0
LINE
  5
2E9D
  8
3
 10
200.1585570000000018
 20
82.5725959999999901
 30
0.0
 11
202.1726439999999911
 21
81.3641429999999986
 31
0.0
  0
LINE
  5
2E9E
  8
3
 10
200.1585570000000018
 20
82.7440939999999898
 30
0.0
 11
202.1726439999999911
 21
83.9525469999999956
 31
0.0
  0
ARC
  5
2E9F
  8
3
 10
202.2240935000000093
 20
86.8667930157678541
 30
0.0
 40
0.100003984230272
 50
59.0376635542932604
 51
120.9623364457201973
  0
ARC
  5
2EA0
  8
3
 10
200.210004873370309
 20
85.6583449999999971
 30
0.0
 40
0.0999988733703027
 50
120.9630064793825994
 51
239.0369935206134926
  0
ARC
  5
2EA1
  8
3
 10
202.2240935000000093
 20
84.4498969842079248
 30
0.0
 40
0.1000039842095341
 50
239.0376635471453994
 51
300.9623364528397929
  0
ARC
  5
2EA2
  8
3
 10
204.2381810669311051
 20
85.6583449999999971
 30
0.0
 40
0.0999999330689475
 50
300.9640184328738997
 51
59.0359815671299799
  0
LINE
  5
2EA3
  8
3
 10
202.2755429999999137
 20
86.9525469999999956
 30
0.0
 11
204.2896310000000142
 21
85.7440939999999756
 31
0.0
  0
LINE
  5
2EA4
  8
3
 10
202.2755429999999137
 20
84.3641429999999986
 30
0.0
 11
204.2896310000000142
 21
85.5725960000000043
 31
0.0
  0
LINE
  5
2EA5
  8
3
 10
200.1585570000000018
 20
85.5725960000000043
 30
0.0
 11
202.1726439999999911
 21
84.3641429999999986
 31
0.0
  0
LINE
  5
2EA6
  8
3
 10
200.1585570000000018
 20
85.7440939999999756
 30
0.0
 11
202.1726439999999911
 21
86.9525469999999956
 31
0.0
  0
ARC
  5
2EA7
  8
3
 10
202.2240935000000093
 20
89.8667930157677546
 30
0.0
 40
0.1000039842303768
 50
59.0376635543198276
 51
120.9623364456800942
  0
ARC
  5
2EA8
  8
3
 10
200.210004873370309
 20
88.6583449999999829
 30
0.0
 40
0.0999988733703027
 50
120.9630064793825994
 51
239.0369935206134926
  0
ARC
  5
2EA9
  8
3
 10
202.2240934999998956
 20
87.4498969842079958
 30
0.0
 40
0.1000039842095804
 50
239.0376635471810971
 51
300.9623364528322895
  0
ARC
  5
2EAA
  8
3
 10
204.2381810669311051
 20
88.6583449999999829
 30
0.0
 40
0.0999999330689622
 50
300.9640184328874284
 51
59.0359815671165222
  0
LINE
  5
2EAB
  8
3
 10
202.2755429999999137
 20
89.9525469999999956
 30
0.0
 11
204.2896310000000142
 21
88.7440939999999898
 31
0.0
  0
LINE
  5
2EAC
  8
3
 10
202.2755429999999137
 20
87.3641429999999843
 30
0.0
 11
204.2896310000000142
 21
88.5725959999999901
 31
0.0
  0
LINE
  5
2EAD
  8
3
 10
200.1585570000000018
 20
88.5725959999999901
 30
0.0
 11
202.1726439999999911
 21
87.3641429999999843
 31
0.0
  0
LINE
  5
2EAE
  8
3
 10
200.1585570000000018
 20
88.7440939999999898
 30
0.0
 11
202.1726439999999911
 21
89.9525469999999956
 31
0.0
  0
ARC
  5
2EAF
  8
3
 10
202.2240935000000093
 20
92.8667930157678683
 30
0.0
 40
0.100003984230272
 50
59.0376635542932604
 51
120.9623364457201973
  0
ARC
  5
2EB0
  8
3
 10
200.210004873370309
 20
91.6583449999999829
 30
0.0
 40
0.0999988733703027
 50
120.9630064793825994
 51
239.0369935206134926
  0
ARC
  5
2EB1
  8
3
 10
202.2240934999998956
 20
90.4498969842079958
 30
0.0
 40
0.1000039842095804
 50
239.0376635471810971
 51
300.9623364528322895
  0
ARC
  5
2EB2
  8
3
 10
204.2381810669311051
 20
91.6583449999999829
 30
0.0
 40
0.0999999330689475
 50
300.9640184328738997
 51
59.0359815671299799
  0
LINE
  5
2EB3
  8
3
 10
202.2755429999999137
 20
92.9525469999999956
 30
0.0
 11
204.2896310000000142
 21
91.744094000000004
 31
0.0
  0
LINE
  5
2EB4
  8
3
 10
202.2755429999999137
 20
90.3641429999999986
 30
0.0
 11
204.2896310000000142
 21
91.5725959999999901
 31
0.0
  0
LINE
  5
2EB5
  8
3
 10
200.1585570000000018
 20
91.5725959999999901
 30
0.0
 11
202.1726439999999911
 21
90.3641429999999986
 31
0.0
  0
LINE
  5
2EB6
  8
3
 10
200.1585570000000018
 20
91.744094000000004
 30
0.0
 11
202.1726439999999911
 21
92.9525469999999956
 31
0.0
  0
ARC
  5
2EB7
  8
3
 10
202.2240934999998956
 20
95.8667930157677262
 30
0.0
 40
0.1000039842304085
 50
59.0376635543215968
 51
120.9623364456649028
  0
ARC
  5
2EB8
  8
3
 10
200.210004873370309
 20
94.6583449999999686
 30
0.0
 40
0.09999887337031
 50
120.9630064793900033
 51
239.0369935206061029
  0
ARC
  5
2EB9
  8
3
 10
202.2240934999998956
 20
93.4498969842079958
 30
0.0
 40
0.1000039842095804
 50
239.0376635471810971
 51
300.9623364528322895
  0
ARC
  5
2EBA
  8
3
 10
204.2381810669311051
 20
94.6583449999999971
 30
0.0
 40
0.0999999330689743
 50
300.9640184328835062
 51
59.0359815671126213
  0
LINE
  5
2EBB
  8
3
 10
202.2755429999999137
 20
95.9525469999999956
 30
0.0
 11
204.2896310000000142
 21
94.7440939999999756
 31
0.0
  0
LINE
  5
2EBC
  8
3
 10
202.2755429999999137
 20
93.3641429999999843
 30
0.0
 11
204.2896310000000142
 21
94.5725959999999759
 31
0.0
  0
LINE
  5
2EBD
  8
3
 10
200.1585570000000018
 20
94.5725959999999759
 30
0.0
 11
202.1726439999999911
 21
93.3641429999999843
 31
0.0
  0
LINE
  5
2EBE
  8
3
 10
200.1585570000000018
 20
94.7440939999999756
 30
0.0
 11
202.1726439999999911
 21
95.9525469999999956
 31
0.0
  0
ARC
  5
2EBF
  8
3
 10
202.2240935000000093
 20
98.8667930157677546
 30
0.0
 40
0.100003984230389
 50
59.0376635543237427
 51
120.9623364456762005
  0
ARC
  5
2EC0
  8
3
 10
200.210004873370309
 20
97.6583449999999829
 30
0.0
 40
0.0999988733703319
 50
120.9630064794108932
 51
239.036993520585213
  0
ARC
  5
2EC1
  8
3
 10
202.2240934999998956
 20
96.4498969842080101
 30
0.0
 40
0.1000039842095804
 50
239.0376635471810971
 51
300.9623364528322895
  0
ARC
  5
2EC2
  8
3
 10
204.2381810669311051
 20
97.6583449999999829
 30
0.0
 40
0.0999999330689549
 50
300.964018432881403
 51
59.0359815671225618
  0
LINE
  5
2EC3
  8
3
 10
202.2755429999999137
 20
98.9525469999999956
 30
0.0
 11
204.2896310000000142
 21
97.7440939999999898
 31
0.0
  0
LINE
  5
2EC4
  8
3
 10
202.2755429999999137
 20
96.3641429999999986
 30
0.0
 11
204.2896310000000142
 21
97.5725959999999901
 31
0.0
  0
LINE
  5
2EC5
  8
3
 10
200.1585570000000018
 20
97.5725959999999901
 30
0.0
 11
202.1726439999999911
 21
96.3641429999999986
 31
0.0
  0
LINE
  5
2EC6
  8
3
 10
200.1585570000000018
 20
97.7440939999999898
 30
0.0
 11
202.1726439999999911
 21
98.9525469999999956
 31
0.0
  0
ARC
  5
2EC7
  8
3
 10
202.2240934999998956
 20
101.8667930157676977
 30
0.0
 40
0.1000039842304207
 50
59.0376635543255119
 51
120.9623364456609949
  0
ARC
  5
2EC8
  8
3
 10
200.210004873370309
 20
100.6583449999998976
 30
0.0
 40
0.0999988733703295
 50
120.9630064793921065
 51
239.0369935205947058
  0
ARC
  5
2EC9
  8
3
 10
202.2240934999998956
 20
99.4498969842079958
 30
0.0
 40
0.1000039842095804
 50
239.0376635471810971
 51
300.9623364528322895
  0
ARC
  5
2ECA
  8
3
 10
204.2381810669311051
 20
100.6583449999999971
 30
0.0
 40
0.0999999330689475
 50
300.9640184328738997
 51
59.0359815671299799
  0
LINE
  5
2ECB
  8
3
 10
202.2755429999999137
 20
101.9525469999999956
 30
0.0
 11
204.2896310000000142
 21
100.744094000000004
 31
0.0
  0
LINE
  5
2ECC
  8
3
 10
202.2755429999999137
 20
99.3641429999999986
 30
0.0
 11
204.2896310000000142
 21
100.5725960000000043
 31
0.0
  0
LINE
  5
2ECD
  8
3
 10
200.1585570000000018
 20
100.5725960000000043
 30
0.0
 11
202.1726439999999911
 21
99.3641429999999986
 31
0.0
  0
LINE
  5
2ECE
  8
3
 10
200.1585570000000018
 20
100.744094000000004
 30
0.0
 11
202.1726439999999911
 21
101.9525469999999956
 31
0.0
  0
LINE
  5
2ECF
  8
3
 10
199.7755435762429954
 20
97.8641437078489247
 30
0.0
 11
201.7896310000000142
 21
99.0725959999999901
 31
0.0
  0
LINE
  5
2ED0
  8
3
 10
199.7755429999999137
 20
100.4525469999999956
 30
0.0
 11
201.7896310000000142
 21
99.244094000000004
 31
0.0
  0
ARC
  5
2ED1
  8
3
 10
201.7381810669311051
 20
99.1583449999999686
 30
0.0
 40
0.0999999330689134
 50
300.9640184328569035
 51
59.0359815671565684
  0
ARC
  5
2ED2
  8
3
 10
199.724094000000008
 20
97.949893000000003
 30
0.0
 40
0.1
 50
270.0
 51
300.9637570000003848
  0
ARC
  5
2ED3
  8
3
 10
199.7240934183348884
 20
100.3667927209415041
 30
0.0
 40
0.1000042790601845
 50
59.0377103356773176
 51
89.9996667447284011
  0
LINE
  5
2ED4
  8
3
 10
199.7755429999999137
 20
94.8641429999999843
 30
0.0
 11
201.7896310000000142
 21
96.0725959999999901
 31
0.0
  0
LINE
  5
2ED5
  8
3
 10
199.7755429999999137
 20
97.4525469999999956
 30
0.0
 11
201.7896310000000142
 21
96.2440939999999898
 31
0.0
  0
ARC
  5
2ED6
  8
3
 10
201.7381810669311051
 20
96.1583449999999829
 30
0.0
 40
0.0999999330689353
 50
300.9640184328778219
 51
59.0359815671374335
  0
ARC
  5
2ED7
  8
3
 10
199.7240934183348884
 20
94.9498972790584617
 30
0.0
 40
0.1000042790601446
 50
270.0003332552633992
 51
300.9622896643282957
  0
ARC
  5
2ED8
  8
3
 10
199.7240934183348884
 20
97.3667927209415183
 30
0.0
 40
0.1000042790601602
 50
59.0377103356681303
 51
89.9996667447284011
  0
LINE
  5
2ED9
  8
3
 10
199.7755429999999137
 20
91.8641429999999986
 30
0.0
 11
201.7896310000000142
 21
93.0725960000000043
 31
0.0
  0
LINE
  5
2EDA
  8
3
 10
199.7755429999999137
 20
94.4525469999999956
 30
0.0
 11
201.7896310000000142
 21
93.2440939999999756
 31
0.0
  0
ARC
  5
2EDB
  8
3
 10
201.7381810669311051
 20
93.1583449999999971
 30
0.0
 40
0.0999999330689597
 50
300.9640184328699775
 51
59.0359815671282107
  0
ARC
  5
2EDC
  8
3
 10
199.7240934183348884
 20
91.9498972790584475
 30
0.0
 40
0.1000042790601304
 50
270.0003332552715847
 51
300.9622896643397212
  0
ARC
  5
2EDD
  8
3
 10
199.7240934183348884
 20
94.3667927209415041
 30
0.0
 40
0.1000042790601602
 50
59.0377103356681303
 51
89.9996667447284011
  0
LINE
  5
2EDE
  8
3
 10
199.7755429999999137
 20
88.8641429999999986
 30
0.0
 11
201.7896310000000142
 21
90.0725959999999901
 31
0.0
  0
LINE
  5
2EDF
  8
3
 10
199.7755429999999137
 20
91.4525469999999956
 30
0.0
 11
201.7896310000000142
 21
90.2440939999999898
 31
0.0
  0
ARC
  5
2EE0
  8
3
 10
201.7381810669311051
 20
90.1583449999999829
 30
0.0
 40
0.0999999330689475
 50
300.9640184328738997
 51
59.0359815671335326
  0
ARC
  5
2EE1
  8
3
 10
199.7240934183348884
 20
88.949897279058419
 30
0.0
 40
0.1000042790601161
 50
270.0003332552633992
 51
300.962289664337618
  0
ARC
  5
2EE2
  8
3
 10
199.7240934183348884
 20
91.3667927209415467
 30
0.0
 40
0.100004279060148
 50
59.0377103356642223
 51
89.9996667447284011
  0
LINE
  5
2EE3
  8
3
 10
199.7755429999999137
 20
85.8641429999999843
 30
0.0
 11
201.7896310000000142
 21
87.0725959999999759
 31
0.0
  0
LINE
  5
2EE4
  8
3
 10
199.7755429999999137
 20
88.4525469999999956
 30
0.0
 11
201.7896310000000142
 21
87.2440939999999756
 31
0.0
  0
ARC
  5
2EE5
  8
3
 10
201.7381810669311051
 20
87.1583449999999686
 30
0.0
 40
0.0999999330689402
 50
300.96401843286651
 51
59.035981567139558
  0
ARC
  5
2EE6
  8
3
 10
199.7240934183348884
 20
85.9498972790584475
 30
0.0
 40
0.1000042790601446
 50
270.0003332552633992
 51
300.9622896643282957
  0
ARC
  5
2EE7
  8
3
 10
199.7240934183348884
 20
88.3667927209415751
 30
0.0
 40
0.1000042790601236
 50
59.0377103356564206
 51
89.9996667447284011
  0
LINE
  5
2EE8
  8
3
 10
199.7755429999999137
 20
82.8641429999999986
 30
0.0
 11
201.7896310000000142
 21
84.0725959999999901
 31
0.0
  0
LINE
  5
2EE9
  8
3
 10
199.7755429999999137
 20
85.4525469999999956
 30
0.0
 11
201.7896310000000142
 21
84.244094000000004
 31
0.0
  0
ARC
  5
2EEA
  8
3
 10
201.7381810669311051
 20
84.1583449999999829
 30
0.0
 40
0.0999999330689402
 50
300.96401843286651
 51
59.035981567139558
  0
ARC
  5
2EEB
  8
3
 10
199.7240934183348884
 20
82.9498972790584617
 30
0.0
 40
0.1000042790601446
 50
270.0003332552715847
 51
300.962289664335799
  0
ARC
  5
2EEC
  8
3
 10
199.7240934183348884
 20
85.3667927209415467
 30
0.0
 40
0.1000042790601358
 50
59.0377103356603072
 51
89.9996667447284011
  0
LINE
  5
2EED
  8
3
 10
201.0992129999999065
 20
80.6583449999999971
 30
0.0
 11
201.7896310000000142
 21
81.0725959999999901
 31
0.0
  0
LINE
  5
2EEE
  8
3
 10
199.7755429999999137
 20
82.4525469999999956
 30
0.0
 11
201.7896310000000142
 21
81.2440939999999898
 31
0.0
  0
ARC
  5
2EEF
  8
3
 10
201.7381810669311051
 20
81.1583449999999544
 30
0.0
 40
0.0999999330689134
 50
300.9640184328569035
 51
59.0359815671565684
  0
ARC
  5
2EF0
  8
3
 10
199.7240934183348884
 20
82.3667927209415325
 30
0.0
 40
0.100004279060148
 50
59.0377103356642223
 51
89.9996667447284011
  0
LINE
  5
2EF1
  8
3
 10
202.6585570000000018
 20
99.244094000000004
 30
0.0
 11
204.6726439999999911
 21
100.4525469999999956
 31
0.0
  0
LINE
  5
2EF2
  8
3
 10
202.6585570000000018
 20
99.0725959999999901
 30
0.0
 11
204.6726439999999911
 21
97.8641429999999986
 31
0.0
  0
LINE
  5
2EF3
  8
3
 10
204.7755429999999137
 20
97.8641429999999986
 30
0.0
 11
206.7896310000000142
 21
99.0725959999999901
 31
0.0
  0
LINE
  5
2EF4
  8
3
 10
204.7755429999999137
 20
100.4525469999999956
 30
0.0
 11
206.7896310000000142
 21
99.244094000000004
 31
0.0
  0
ARC
  5
2EF5
  8
3
 10
206.7381810669311051
 20
99.1583449999999544
 30
0.0
 40
0.099999933068911
 50
300.9640184328869736
 51
59.0359815671448587
  0
ARC
  5
2EF6
  8
3
 10
204.7240935000000093
 20
97.9498969842321543
 30
0.0
 40
0.1000039842302988
 50
239.0376635542837107
 51
300.9623364457028174
  0
ARC
  5
2EF7
  8
3
 10
202.7100048733703943
 20
99.1583449999999829
 30
0.0
 40
0.0999988733703538
 50
120.9630064794317974
 51
239.0369935205642946
  0
ARC
  5
2EF8
  8
3
 10
204.7240934999998956
 20
100.3667930157918988
 30
0.0
 40
0.1000039842096194
 50
59.0376635471754909
 51
120.9623364528110017
  0
LINE
  5
2EF9
  8
3
 10
202.6585570000000018
 20
96.2440939999999898
 30
0.0
 11
204.6726439999999911
 21
97.4525469999999956
 31
0.0
  0
LINE
  5
2EFA
  8
3
 10
202.6585570000000018
 20
96.0725959999999901
 30
0.0
 11
204.6726439999999911
 21
94.8641429999999843
 31
0.0
  0
LINE
  5
2EFB
  8
3
 10
204.7755429999999137
 20
94.8641429999999843
 30
0.0
 11
206.7896310000000142
 21
96.0725959999999901
 31
0.0
  0
LINE
  5
2EFC
  8
3
 10
204.7755429999999137
 20
97.4525469999999956
 30
0.0
 11
206.7896310000000142
 21
96.2440939999999898
 31
0.0
  0
ARC
  5
2EFD
  8
3
 10
206.7381810669309914
 20
96.1583449999999829
 30
0.0
 40
0.0999999330689622
 50
300.9640184328874284
 51
59.0359815671165222
  0
ARC
  5
2EFE
  8
3
 10
204.7240934999998956
 20
94.9498969842080243
 30
0.0
 40
0.1000039842096047
 50
239.0376635471889983
 51
300.962336452824502
  0
ARC
  5
2EFF
  8
3
 10
202.710004873370309
 20
96.1583449999999829
 30
0.0
 40
0.0999988733703149
 50
120.9630064793786062
 51
239.0369935206082062
  0
ARC
  5
2F00
  8
3
 10
204.7240935000000093
 20
97.3667930157678541
 30
0.0
 40
0.1000039842302842
 50
59.0376635542971613
 51
120.9623364457163035
  0
LINE
  5
2F01
  8
3
 10
202.6585570000000018
 20
93.2440939999999756
 30
0.0
 11
204.6726439999999911
 21
94.4525469999999956
 31
0.0
  0
LINE
  5
2F02
  8
3
 10
202.6585570000000018
 20
93.0725960000000043
 30
0.0
 11
204.6726439999999911
 21
91.8641429999999986
 31
0.0
  0
LINE
  5
2F03
  8
3
 10
204.7755429999999137
 20
91.8641429999999986
 30
0.0
 11
206.7896310000000142
 21
93.0725960000000043
 31
0.0
  0
LINE
  5
2F04
  8
3
 10
204.7755429999999137
 20
94.4525469999999956
 30
0.0
 11
206.7896310000000142
 21
93.2440939999999756
 31
0.0
  0
ARC
  5
2F05
  8
3
 10
206.7381810669309914
 20
93.1583449999999971
 30
0.0
 40
0.0999999330689743
 50
300.9640184328835062
 51
59.0359815671126213
  0
ARC
  5
2F06
  8
3
 10
204.724094000000008
 20
91.949893000000003
 30
0.0
 40
0.1
 50
239.0362429999995015
 51
300.9637570000003848
  0
ARC
  5
2F07
  8
3
 10
202.710004873370309
 20
93.1583449999999971
 30
0.0
 40
0.0999988733703027
 50
120.9630064793825994
 51
239.0369935206134926
  0
ARC
  5
2F08
  8
3
 10
204.7240934999998956
 20
94.3667930157678541
 30
0.0
 40
0.1000039842302988
 50
59.0376635542836894
 51
120.9623364457028032
  0
LINE
  5
2F09
  8
3
 10
202.6585570000000018
 20
90.2440939999999898
 30
0.0
 11
204.6726439999999911
 21
91.4525469999999956
 31
0.0
  0
LINE
  5
2F0A
  8
3
 10
202.6585570000000018
 20
90.0725959999999901
 30
0.0
 11
204.6726439999999911
 21
88.8641429999999986
 31
0.0
  0
LINE
  5
2F0B
  8
3
 10
204.7755429999999137
 20
88.8641429999999986
 30
0.0
 11
206.7896310000000142
 21
90.0725959999999901
 31
0.0
  0
LINE
  5
2F0C
  8
3
 10
204.7755429999999137
 20
91.4525469999999956
 30
0.0
 11
206.7896310000000142
 21
90.2440939999999898
 31
0.0
  0
ARC
  5
2F0D
  8
3
 10
206.7381810669309914
 20
90.1583449999999829
 30
0.0
 40
0.0999999330689695
 50
300.964018432894818
 51
59.0359815671090828
  0
ARC
  5
2F0E
  8
3
 10
204.7240935000000093
 20
88.9498969842321543
 30
0.0
 40
0.1000039842303037
 50
239.0376635542949941
 51
300.9623364457049775
  0
ARC
  5
2F0F
  8
3
 10
202.710004873370309
 20
90.1583449999999971
 30
0.0
 40
0.0999988733702905
 50
120.9630064793863937
 51
239.0369935206173864
  0
ARC
  5
2F10
  8
3
 10
204.7240935000000093
 20
91.3667930157677546
 30
0.0
 40
0.1000039842303768
 50
59.0376635543198276
 51
120.9623364456800942
  0
LINE
  5
2F11
  8
3
 10
202.6585570000000018
 20
87.2440939999999756
 30
0.0
 11
204.6726439999999911
 21
88.4525469999999956
 31
0.0
  0
LINE
  5
2F12
  8
3
 10
202.6585570000000018
 20
87.0725959999999759
 30
0.0
 11
204.6726439999999911
 21
85.8641429999999843
 31
0.0
  0
LINE
  5
2F13
  8
3
 10
204.7755429999999137
 20
85.8641429999999843
 30
0.0
 11
206.7896310000000142
 21
87.0725959999999759
 31
0.0
  0
LINE
  5
2F14
  8
3
 10
204.7755429999999137
 20
88.4525469999999956
 30
0.0
 11
206.7896310000000142
 21
87.2440939999999756
 31
0.0
  0
ARC
  5
2F15
  8
3
 10
206.7381810669311051
 20
87.1583449999999686
 30
0.0
 40
0.0999999330689353
 50
300.9640184328778219
 51
59.0359815671374335
  0
ARC
  5
2F16
  8
3
 10
204.7240935000000093
 20
85.9498969842321401
 30
0.0
 40
0.1000039842302915
 50
239.0376635542911004
 51
300.962336445708786
  0
ARC
  5
2F17
  8
3
 10
202.7100048733703943
 20
87.1583449999999686
 30
0.0
 40
0.0999988733703392
 50
120.9630064794169044
 51
239.0369935205777949
  0
ARC
  5
2F18
  8
3
 10
204.7240934999998956
 20
88.3667930157919557
 30
0.0
 40
0.1000039842096316
 50
59.0376635471793989
 51
120.962336452801793
  0
LINE
  5
2F19
  8
3
 10
202.6585570000000018
 20
84.244094000000004
 30
0.0
 11
204.6726439999999911
 21
85.4525469999999956
 31
0.0
  0
LINE
  5
2F1A
  8
3
 10
202.6585570000000018
 20
84.0725959999999901
 30
0.0
 11
204.6726439999999911
 21
82.8641429999999986
 31
0.0
  0
LINE
  5
2F1B
  8
3
 10
204.7755429999999137
 20
82.8641429999999986
 30
0.0
 11
206.7896310000000142
 21
84.0725959999999901
 31
0.0
  0
LINE
  5
2F1C
  8
3
 10
204.7755429999999137
 20
85.4525469999999956
 30
0.0
 11
206.7896310000000142
 21
84.244094000000004
 31
0.0
  0
ARC
  5
2F1D
  8
3
 10
206.7381810669309914
 20
84.1583449999999544
 30
0.0
 40
0.0999999330689743
 50
300.9640184329310273
 51
59.0359815670917172
  0
ARC
  5
2F1E
  8
3
 10
204.7240935000000093
 20
82.9498969842321259
 30
0.0
 40
0.1000039842302915
 50
239.0376635542911004
 51
300.962336445708786
  0
ARC
  5
2F1F
  8
3
 10
202.710004873370309
 20
84.1583449999999829
 30
0.0
 40
0.0999988733703246
 50
120.9630064794035036
 51
239.0369935205926026
  0
ARC
  5
2F20
  8
3
 10
204.7240934999998956
 20
85.3667930157919557
 30
0.0
 40
0.1000039842096194
 50
59.0376635471754909
 51
120.9623364528110017
  0
LINE
  5
2F21
  8
3
 10
202.6585570000000018
 20
81.2440939999999898
 30
0.0
 11
204.6726439999999911
 21
82.4525469999999956
 31
0.0
  0
LINE
  5
2F22
  8
3
 10
202.6585570000000018
 20
81.0725959999999901
 30
0.0
 11
203.3489749999999958
 21
80.6583449999999971
 31
0.0
  0
LINE
  5
2F23
  8
3
 10
206.0992129999999918
 20
80.6583449999999971
 30
0.0
 11
206.7896310000000142
 21
81.0725959999999901
 31
0.0
  0
LINE
  5
2F24
  8
3
 10
204.7755429999999137
 20
82.4525469999999956
 30
0.0
 11
206.7896310000000142
 21
81.2440939999999898
 31
0.0
  0
ARC
  5
2F25
  8
3
 10
206.7381810669311051
 20
81.1583449999999544
 30
0.0
 40
0.0999999330689232
 50
300.9640184328816872
 51
59.035981567139558
  0
ARC
  5
2F26
  8
3
 10
202.7100048733703943
 20
81.1583449999999971
 30
0.0
 40
0.099998873370327
 50
120.9630064794222051
 51
239.0369935205795002
  0
ARC
  5
2F27
  8
3
 10
204.7240934999998956
 20
82.3667930157919699
 30
0.0
 40
0.1000039842096194
 50
59.0376635471754909
 51
120.9623364528110017
  0
LINE
  5
2F28
  8
3
 10
207.6585570000000018
 20
99.244094000000004
 30
0.0
 11
209.6726439999999911
 21
100.4525469999999956
 31
0.0
  0
LINE
  5
2F29
  8
3
 10
207.6585570000000018
 20
99.0725959999999901
 30
0.0
 11
209.6726439999999911
 21
97.8641429999999986
 31
0.0
  0
LINE
  5
2F2A
  8
3
 10
209.7755429999999137
 20
100.4525469999999956
 30
0.0
 11
211.7896310000000142
 21
99.244094000000004
 31
0.0
  0
ARC
  5
2F2B
  8
3
 10
211.7381810334653096
 20
99.1583449810522097
 30
0.0
 40
0.0999999665346679
 50
334.97319928326732
 51
59.0359707107331104
  0
ARC
  5
2F2C
  8
3
 10
209.7240931982275072
 20
97.9498958946530962
 30
0.0
 40
0.1000028946562901
 50
239.0374906469021994
 51
240.1485893145026012
  0
ARC
  5
2F2D
  8
3
 10
207.710004873370309
 20
99.1583449999999686
 30
0.0
 40
0.0999988733703222
 50
120.9630064793860953
 51
239.0369935206022092
  0
ARC
  5
2F2E
  8
3
 10
209.7240934999998956
 20
100.3667930157676977
 30
0.0
 40
0.1000039842304036
 50
59.0376635543102566
 51
120.962336445661407
  0
LINE
  5
2F2F
  8
3
 10
207.6585570000000018
 20
96.2440939999999898
 30
0.0
 11
208.6055056472004878
 21
96.8122635644505038
 31
0.0
  0
LINE
  5
2F30
  8
3
 10
207.6585570000000018
 20
96.0725959999999901
 30
0.0
 11
207.9425309723511077
 21
95.9022115037941774
 31
0.0
  0
ARC
  5
2F31
  8
3
 10
207.710004873370309
 20
96.1583449999999829
 30
0.0
 40
0.0999988733703075
 50
120.9630064793712023
 51
239.0369935206157095
  0
LINE
  5
2F32
  8
3
 10
207.6585570000000018
 20
87.2440939999999756
 30
0.0
 11
207.9425309723511077
 21
87.4144784962057884
 31
0.0
  0
LINE
  5
2F33
  8
3
 10
207.6585570000000018
 20
87.0725959999999759
 30
0.0
 11
208.6055056472004878
 21
86.5044264355494619
 31
0.0
  0
ARC
  5
2F34
  8
3
 10
207.710004873370309
 20
87.1583449999999971
 30
0.0
 40
0.0999988733702832
 50
120.9630064793803967
 51
239.0369935206248044
  0
LINE
  5
2F35
  8
3
 10
207.6585570000000018
 20
84.244094000000004
 30
0.0
 11
209.6726439999999911
 21
85.4525469999999956
 31
0.0
  0
LINE
  5
2F36
  8
3
 10
207.6585570000000018
 20
84.0725959999999901
 30
0.0
 11
209.6726439999999911
 21
82.8641429999999986
 31
0.0
  0
LINE
  5
2F37
  8
3
 10
209.7755429999999137
 20
82.8641429999999986
 30
0.0
 11
211.7896310000000142
 21
84.0725959999999901
 31
0.0
  0
ARC
  5
2F38
  8
3
 10
211.7381810334653949
 20
84.1583450189477986
 30
0.0
 40
0.0999999665346124
 50
300.9640292892099183
 51
25.0268007167938187
  0
ARC
  5
2F39
  8
3
 10
209.7240935000000093
 20
82.9498969842321543
 30
0.0
 40
0.100003984230311
 50
239.0376635542876045
 51
300.9623364456974741
  0
ARC
  5
2F3A
  8
3
 10
207.710004873370309
 20
84.1583449999999829
 30
0.0
 40
0.0999988733703319
 50
120.9630064794108932
 51
239.036993520585213
  0
ARC
  5
2F3B
  8
3
 10
209.7240931982275072
 20
85.3667941053469264
 30
0.0
 40
0.1000028946562732
 50
119.851410685512505
 51
120.9625093531016944
  0
LINE
  5
2F3C
  8
3
 10
207.6585570000000018
 20
81.2440939999999898
 30
0.0
 11
209.6726439999999911
 21
82.4525469999999956
 31
0.0
  0
LINE
  5
2F3D
  8
3
 10
207.6585570000000018
 20
81.0725959999999901
 30
0.0
 11
208.3489749999999958
 21
80.6583449999999971
 31
0.0
  0
LINE
  5
2F3E
  8
3
 10
211.0992129999999918
 20
80.6583449999999971
 30
0.0
 11
211.7896310000000142
 21
81.0725959999999901
 31
0.0
  0
LINE
  5
2F3F
  8
3
 10
209.7755429999999137
 20
82.4525469999999956
 30
0.0
 11
211.7896310000000142
 21
81.2440939999999898
 31
0.0
  0
ARC
  5
2F40
  8
3
 10
211.7381810669311051
 20
81.1583449999999544
 30
0.0
 40
0.0999999330689134
 50
300.9640184328569035
 51
59.0359815671565684
  0
ARC
  5
2F41
  8
3
 10
207.7100048733703943
 20
81.1583449999999971
 30
0.0
 40
0.099998873370327
 50
120.9630064794222051
 51
239.0369935205795002
  0
ARC
  5
2F42
  8
3
 10
209.7240934999998956
 20
82.366793015791913
 30
0.0
 40
0.1000039842096632
 50
59.0376635471811468
 51
120.9623364527866016
  0
LINE
  5
2F43
  8
3
 10
213.0558550559657078
 20
99.4824729913871408
 30
0.0
 11
214.6726439999999911
 21
100.4525469999999956
 31
0.0
  0
LINE
  5
2F44
  8
3
 10
214.7755429999999137
 20
100.4525469999999956
 30
0.0
 11
216.3923326380337073
 21
99.4824730566316759
 31
0.0
  0
ARC
  5
2F45
  8
3
 10
214.7240934999998956
 20
100.3667930157676977
 30
0.0
 40
0.1000039842304085
 50
59.0376635543215968
 51
120.9623364456649028
  0
LINE
  5
2F46
  8
3
 10
213.0558550559655941
 20
83.8342170086128959
 30
0.0
 11
214.6726439999999911
 21
82.8641429999999986
 31
0.0
  0
LINE
  5
2F47
  8
3
 10
214.7755429999999137
 20
82.8641429999999986
 30
0.0
 11
216.3923326380337073
 21
83.834216943368304
 31
0.0
  0
ARC
  5
2F48
  8
3
 10
214.7240935000000093
 20
82.9498969842321259
 30
0.0
 40
0.1000039842302793
 50
239.0376635542872066
 51
300.9623364457127082
  0
LINE
  5
2F49
  8
3
 10
212.6585570000000018
 20
81.2440939999999898
 30
0.0
 11
214.6726439999999911
 21
82.4525469999999956
 31
0.0
  0
LINE
  5
2F4A
  8
3
 10
212.6585570000000018
 20
81.0725959999999901
 30
0.0
 11
213.3489749999999958
 21
80.6583449999999971
 31
0.0
  0
LINE
  5
2F4B
  8
3
 10
216.0992129999999918
 20
80.6583449999999971
 30
0.0
 11
216.7896310000000142
 21
81.0725959999999901
 31
0.0
  0
LINE
  5
2F4C
  8
3
 10
214.7755429999999137
 20
82.4525469999999956
 30
0.0
 11
216.7896310000000142
 21
81.2440939999999898
 31
0.0
  0
ARC
  5
2F4D
  8
3
 10
216.7381810669311051
 20
81.1583449999999829
 30
0.0
 40
0.0999999330689402
 50
300.96401843286651
 51
59.035981567139558
  0
ARC
  5
2F4E
  8
3
 10
212.7100048733703943
 20
81.1583449999999971
 30
0.0
 40
0.0999988733703343
 50
120.9630064794283015
 51
239.0369935205756065
  0
ARC
  5
2F4F
  8
3
 10
214.7240935000000093
 20
82.3667930157919699
 30
0.0
 40
0.1000039842096121
 50
59.0376635471829303
 51
120.9623364528170981
  0
LINE
  5
2F50
  8
3
 10
217.6585570000000018
 20
99.244094000000004
 30
0.0
 11
219.6726439999999911
 21
100.4525469999999956
 31
0.0
  0
LINE
  5
2F51
  8
3
 10
219.7755429999999137
 20
97.8641429999999986
 30
0.0
 11
221.7896310000000142
 21
99.0725959999999901
 31
0.0
  0
LINE
  5
2F52
  8
3
 10
219.7755429999999137
 20
100.4525469999999956
 30
0.0
 11
221.7896310000000142
 21
99.244094000000004
 31
0.0
  0
ARC
  5
2F53
  8
3
 10
221.7381810669311051
 20
99.1583449999999544
 30
0.0
 40
0.0999999330689183
 50
300.964018432892999
 51
59.0359815671374335
  0
ARC
  5
2F54
  8
3
 10
219.724094000000008
 20
97.949893000000003
 30
0.0
 40
0.1
 50
299.8524623228205996
 51
300.9637570000003848
  0
ARC
  5
2F55
  8
3
 10
217.7100054366808024
 20
99.158344681054075
 30
0.0
 40
0.0999994366813682
 50
120.9631892229200929
 51
205.0264273861575077
  0
ARC
  5
2F56
  8
3
 10
219.7240934999998956
 20
100.3667930157676977
 30
0.0
 40
0.1000039842303963
 50
59.0376635543177031
 51
120.9623364456687966
  0
LINE
  5
2F57
  8
3
 10
221.5056569891602862
 20
95.902211565297435
 30
0.0
 11
221.7896310000000142
 21
96.0725959999999901
 31
0.0
  0
LINE
  5
2F58
  8
3
 10
220.8426828332337095
 20
96.8122629940922366
 30
0.0
 11
221.7896310000000142
 21
96.2440939999999898
 31
0.0
  0
ARC
  5
2F59
  8
3
 10
221.7381810669311051
 20
96.1583449999999829
 30
0.0
 40
0.0999999330689549
 50
300.964018432881403
 51
59.0359815671225618
  0
LINE
  5
2F5A
  8
3
 10
220.8426828332335958
 20
86.5044270059077149
 30
0.0
 11
221.7896310000000142
 21
87.0725959999999759
 31
0.0
  0
LINE
  5
2F5B
  8
3
 10
221.5056569891602862
 20
87.4144784347025166
 30
0.0
 11
221.7896310000000142
 21
87.2440939999999756
 31
0.0
  0
ARC
  5
2F5C
  8
3
 10
221.7381810669309914
 20
87.1583449999999686
 30
0.0
 40
0.0999999330689622
 50
300.9640184328874284
 51
59.0359815671165222
  0
LINE
  5
2F5D
  8
3
 10
217.6585570000000018
 20
84.0725959999999901
 30
0.0
 11
219.6726439999999911
 21
82.8641429999999986
 31
0.0
  0
LINE
  5
2F5E
  8
3
 10
219.7755429999999137
 20
82.8641429999999986
 30
0.0
 11
221.7896310000000142
 21
84.0725959999999901
 31
0.0
  0
LINE
  5
2F5F
  8
3
 10
219.7755429999999137
 20
85.4525469999999956
 30
0.0
 11
221.7896310000000142
 21
84.244094000000004
 31
0.0
  0
ARC
  5
2F60
  8
3
 10
221.7381810669309914
 20
84.1583449999999971
 30
0.0
 40
0.0999999330689743
 50
300.9640184328835062
 51
59.0359815671126213
  0
ARC
  5
2F61
  8
3
 10
219.7240934999998956
 20
82.9498969842321259
 30
0.0
 40
0.1000039842302793
 50
239.0376635542872066
 51
300.9623364457127082
  0
ARC
  5
2F62
  8
3
 10
217.7100054366808024
 20
84.1583453189458908
 30
0.0
 40
0.0999994366813617
 50
154.9735726138497967
 51
239.0368107770684958
  0
ARC
  5
2F63
  8
3
 10
219.7240943017658026
 20
85.366795910529703
 30
0.0
 40
0.1000010894707161
 50
59.0372041832499406
 51
60.1479334918744684
  0
LINE
  5
2F64
  8
3
 10
217.6585570000000018
 20
81.2440939999999898
 30
0.0
 11
219.6726439999999911
 21
82.4525469999999956
 31
0.0
  0
LINE
  5
2F65
  8
3
 10
217.6585570000000018
 20
81.0725959999999901
 30
0.0
 11
218.3489749999999958
 21
80.6583449999999971
 31
0.0
  0
LINE
  5
2F66
  8
3
 10
221.0992129999999918
 20
80.6583449999999971
 30
0.0
 11
221.7896310000000142
 21
81.0725959999999901
 31
0.0
  0
LINE
  5
2F67
  8
3
 10
219.7755429999999137
 20
82.4525469999999956
 30
0.0
 11
221.7896310000000142
 21
81.2440939999999898
 31
0.0
  0
ARC
  5
2F68
  8
3
 10
221.7381810669311051
 20
81.1583449999999544
 30
0.0
 40
0.0999999330689305
 50
300.9640184328890768
 51
59.0359815671335326
  0
ARC
  5
2F69
  8
3
 10
217.710004873370309
 20
81.1583449999999829
 30
0.0
 40
0.0999988733703392
 50
120.9630064794169044
 51
239.0369935205777949
  0
ARC
  5
2F6A
  8
3
 10
219.7240934999998956
 20
82.366793015791913
 30
0.0
 40
0.1000039842096559
 50
59.037663547188572
 51
120.9623364527940055
  0
LINE
  5
2F6B
  8
3
 10
222.6585570000000018
 20
99.244094000000004
 30
0.0
 11
224.6726439999999911
 21
100.4525469999999956
 31
0.0
  0
LINE
  5
2F6C
  8
3
 10
222.6585570000000018
 20
99.0725959999999901
 30
0.0
 11
224.6726439999999911
 21
97.8641429999999986
 31
0.0
  0
LINE
  5
2F6D
  8
3
 10
224.7755429999999137
 20
97.8641429999999986
 30
0.0
 11
226.7896310000000142
 21
99.0725959999999901
 31
0.0
  0
LINE
  5
2F6E
  8
3
 10
224.7755429999999137
 20
100.4525469999999956
 30
0.0
 11
226.7896310000000142
 21
99.244094000000004
 31
0.0
  0
ARC
  5
2F6F
  8
3
 10
226.7381810669311051
 20
99.1583449999999829
 30
0.0
 40
0.0999999330689402
 50
300.96401843286651
 51
59.0359815671335326
  0
ARC
  5
2F70
  8
3
 10
224.7240935000000093
 20
97.949896984232339
 30
0.0
 40
0.1000039842304914
 50
239.0376635543215968
 51
300.962336445653591
  0
ARC
  5
2F71
  8
3
 10
222.7100048733703943
 20
99.1583449999999971
 30
0.0
 40
0.0999988733703563
 50
120.9630064794492057
 51
239.0369935205546881
  0
ARC
  5
2F72
  8
3
 10
224.7240935000000093
 20
100.3667930157675983
 30
0.0
 40
0.1000039842304938
 50
59.0376635543503028
 51
120.9623364456630981
  0
LINE
  5
2F73
  8
3
 10
222.6585570000000018
 20
96.2440939999999898
 30
0.0
 11
224.6726439999999911
 21
97.4525469999999956
 31
0.0
  0
LINE
  5
2F74
  8
3
 10
222.6585570000000018
 20
96.0725959999999901
 30
0.0
 11
224.6726439999999911
 21
94.8641429999999843
 31
0.0
  0
LINE
  5
2F75
  8
3
 10
224.7755429999999137
 20
94.8641429999999843
 30
0.0
 11
226.7896310000000142
 21
96.0725959999999901
 31
0.0
  0
LINE
  5
2F76
  8
3
 10
224.7755429999999137
 20
97.4525469999999956
 30
0.0
 11
226.7896310000000142
 21
96.2440939999999898
 31
0.0
  0
ARC
  5
2F77
  8
3
 10
226.7381810669309914
 20
96.1583450000000113
 30
0.0
 40
0.0999999330690377
 50
300.9640184329288104
 51
59.0359815670559414
  0
ARC
  5
2F78
  8
3
 10
224.7240935000000093
 20
94.9498969842322253
 30
0.0
 40
0.1000039842303866
 50
239.0376635542949941
 51
300.9623364456937225
  0
ARC
  5
2F79
  8
3
 10
222.710004873370309
 20
96.1583449999999829
 30
0.0
 40
0.0999988733703246
 50
120.9630064794035036
 51
239.0369935205926026
  0
ARC
  5
2F7A
  8
3
 10
224.7240934999998956
 20
97.3667930157918704
 30
0.0
 40
0.1000039842097388
 50
59.037663547188572
 51
120.9623364527805052
  0
LINE
  5
2F7B
  8
3
 10
222.6585570000000018
 20
93.2440939999999756
 30
0.0
 11
224.6726439999999911
 21
94.4525469999999956
 31
0.0
  0
LINE
  5
2F7C
  8
3
 10
222.6585570000000018
 20
93.0725960000000043
 30
0.0
 11
224.6726439999999911
 21
91.8641429999999986
 31
0.0
  0
LINE
  5
2F7D
  8
3
 10
224.7755429999999137
 20
91.8641429999999986
 30
0.0
 11
226.7896310000000142
 21
93.0725960000000043
 31
0.0
  0
LINE
  5
2F7E
  8
3
 10
224.7755429999999137
 20
94.4525469999999956
 30
0.0
 11
226.7896310000000142
 21
93.2440939999999756
 31
0.0
  0
ARC
  5
2F7F
  8
3
 10
226.7381810669311051
 20
93.1583449999999971
 30
0.0
 40
0.0999999330689402
 50
300.96401843286651
 51
59.0359815671335326
  0
ARC
  5
2F80
  8
3
 10
224.7240935000000093
 20
91.9498969842323248
 30
0.0
 40
0.1000039842304792
 50
239.0376635543177031
 51
300.9623364456575132
  0
ARC
  5
2F81
  8
3
 10
222.7100048733703943
 20
93.1583450000000113
 30
0.0
 40
0.0999988733703221
 50
120.9630064794336022
 51
239.0369935205777949
  0
ARC
  5
2F82
  8
3
 10
224.7240934999998956
 20
94.366793015791842
 30
0.0
 40
0.100003984209751
 50
59.03766354719248
 51
120.9623364527752045
  0
LINE
  5
2F83
  8
3
 10
222.6585570000000018
 20
90.2440939999999898
 30
0.0
 11
224.6726439999999911
 21
91.4525469999999956
 31
0.0
  0
LINE
  5
2F84
  8
3
 10
222.6585570000000018
 20
90.0725959999999901
 30
0.0
 11
224.6726439999999911
 21
88.8641429999999986
 31
0.0
  0
LINE
  5
2F85
  8
3
 10
224.7755429999999137
 20
88.8641429999999986
 30
0.0
 11
226.7896310000000142
 21
90.0725959999999901
 31
0.0
  0
LINE
  5
2F86
  8
3
 10
224.7755429999999137
 20
91.4525469999999956
 30
0.0
 11
226.7896310000000142
 21
90.2440939999999898
 31
0.0
  0
ARC
  5
2F87
  8
3
 10
226.7381810669309914
 20
90.1583449999999971
 30
0.0
 40
0.099999933068989
 50
300.9640184328982855
 51
59.0359815670977497
  0
ARC
  5
2F88
  8
3
 10
224.7240935000000093
 20
88.9498969842322253
 30
0.0
 40
0.1000039842303744
 50
239.0376635542911004
 51
300.9623364456974741
  0
ARC
  5
2F89
  8
3
 10
222.7100048733703943
 20
90.1583449999999971
 30
0.0
 40
0.099998873370327
 50
120.9630064794222051
 51
239.0369935205795002
  0
ARC
  5
2F8A
  8
3
 10
224.7240935000000093
 20
91.3667930157675983
 30
0.0
 40
0.100003984230506
 50
59.0376635543556105
 51
120.9623364456593038
  0
LINE
  5
2F8B
  8
3
 10
222.6585570000000018
 20
87.2440939999999756
 30
0.0
 11
224.6726439999999911
 21
88.4525469999999956
 31
0.0
  0
LINE
  5
2F8C
  8
3
 10
222.6585570000000018
 20
87.0725959999999759
 30
0.0
 11
224.6726439999999911
 21
85.8641429999999843
 31
0.0
  0
LINE
  5
2F8D
  8
3
 10
224.7755429999999137
 20
85.8641429999999843
 30
0.0
 11
226.7896310000000142
 21
87.0725959999999759
 31
0.0
  0
LINE
  5
2F8E
  8
3
 10
224.7755429999999137
 20
88.4525469999999956
 30
0.0
 11
226.7896310000000142
 21
87.2440939999999756
 31
0.0
  0
ARC
  5
2F8F
  8
3
 10
226.7381810669311051
 20
87.1583449999999971
 30
0.0
 40
0.0999999330689524
 50
300.9640184328625878
 51
59.0359815671282107
  0
ARC
  5
2F90
  8
3
 10
224.7240935000000093
 20
85.9498969842322538
 30
0.0
 40
0.1000039842303988
 50
239.0376635542988879
 51
300.9623364456896866
  0
ARC
  5
2F91
  8
3
 10
222.710004873370309
 20
87.1583449999999686
 30
0.0
 40
0.0999988733703319
 50
120.9630064794108932
 51
239.0369935205831098
  0
ARC
  5
2F92
  8
3
 10
224.7240934999998956
 20
88.366793015791842
 30
0.0
 40
0.100003984209751
 50
59.03766354719248
 51
120.9623364527752045
  0
LINE
  5
2F93
  8
3
 10
222.6585570000000018
 20
84.244094000000004
 30
0.0
 11
224.6726439999999911
 21
85.4525469999999956
 31
0.0
  0
LINE
  5
2F94
  8
3
 10
222.6585570000000018
 20
84.0725959999999901
 30
0.0
 11
224.6726439999999911
 21
82.8641429999999986
 31
0.0
  0
LINE
  5
2F95
  8
3
 10
224.7755429999999137
 20
82.8641429999999986
 30
0.0
 11
226.7896310000000142
 21
84.0725959999999901
 31
0.0
  0
LINE
  5
2F96
  8
3
 10
224.7755429999999137
 20
85.4525469999999956
 30
0.0
 11
226.7896310000000142
 21
84.244094000000004
 31
0.0
  0
ARC
  5
2F97
  8
3
 10
226.7381810669309914
 20
84.1583449999999971
 30
0.0
 40
0.0999999330690231
 50
300.9640184329139743
 51
59.0359815670707988
  0
ARC
  5
2F98
  8
3
 10
224.7240935000000093
 20
82.9498969842322538
 30
0.0
 40
0.1000039842304109
 50
239.0376635543028101
 51
300.9623364456858781
  0
ARC
  5
2F99
  8
3
 10
222.7100048733703943
 20
84.1583449999999971
 30
0.0
 40
0.0999988733703149
 50
120.9630064794260988
 51
239.036993520585213
  0
ARC
  5
2F9A
  8
3
 10
224.7240934999998956
 20
85.3667930157918562
 30
0.0
 40
0.1000039842097388
 50
59.037663547188572
 51
120.9623364527805052
  0
ARC
  5
2F9B
  8
3
 10
224.7240934999998956
 20
82.3667930157917851
 30
0.0
 40
0.1000039842097924
 50
59.03766354721553
 51
120.9623364527696054
  0
ARC
  5
2F9C
  8
3
 10
222.7100048733703943
 20
81.1583449999999829
 30
0.0
 40
0.0999988733703392
 50
120.9630064794169044
 51
239.0369935205756065
  0
ARC
  5
2F9D
  8
3
 10
226.7381810669311051
 20
81.1583449999999829
 30
0.0
 40
0.0999999330689402
 50
300.96401843286651
 51
59.0359815671335326
  0
LINE
  5
2F9E
  8
3
 10
224.7755429999999137
 20
82.4525469999999956
 30
0.0
 11
226.7896310000000142
 21
81.2440939999999898
 31
0.0
  0
LINE
  5
2F9F
  8
3
 10
226.0992129999999065
 20
80.6583449999999971
 30
0.0
 11
226.7896310000000142
 21
81.0725959999999901
 31
0.0
  0
LINE
  5
2FA0
  8
3
 10
222.6585570000000018
 20
81.0725959999999901
 30
0.0
 11
223.3489749999999958
 21
80.6583449999999971
 31
0.0
  0
LINE
  5
2FA1
  8
3
 10
222.6585570000000018
 20
81.2440939999999898
 30
0.0
 11
224.6726439999999911
 21
82.4525469999999956
 31
0.0
  0
ARC
  5
2FA2
  8
3
 10
229.7240955454911102
 20
82.3667856304897441
 30
0.0
 40
0.1000113695221685
 50
90.0008854005413923
 51
120.9611645840527956
  0
LINE
  5
2FA3
  8
3
 10
227.6585569999998881
 20
81.2440939999999898
 30
0.0
 11
229.6726439999999911
 21
82.4525469999999956
 31
0.0
  0
ARC
  5
2FA4
  8
3
 10
227.7100048733703943
 20
81.1583449999999971
 30
0.0
 40
0.0999988733703709
 50
120.9630064794639992
 51
239.0369935205399088
  0
LINE
  5
2FA5
  8
3
 10
227.6585569999998881
 20
81.0725959999999901
 30
0.0
 11
228.3489749999999958
 21
80.6583449999999971
 31
0.0
  0
LINE
  5
2FA6
  8
3
 10
199.7755429999999137
 20
100.8641429999999986
 30
0.0
 11
201.7896310000000142
 21
102.0725960000000043
 31
0.0
  0
ARC
  5
2FA7
  8
3
 10
199.7240934183348884
 20
100.9498972790584048
 30
0.0
 40
0.1000042790601161
 50
270.0003332552715847
 51
300.9622896643434729
  0
ARC
  5
2FA8
  8
3
 10
201.7381810669311051
 20
102.1583449999998976
 30
0.0
 40
0.0999999330689353
 50
300.9640184328778219
 51
59.0359815671374335
  0
LINE
  5
2FA9
  8
3
 10
201.0992129999999065
 20
102.6583449999999971
 30
0.0
 11
201.7896310000000142
 21
102.244094000000004
 31
0.0
  0
LINE
  5
2FAA
  8
3
 10
204.7755429999999137
 20
100.8641429999999986
 30
0.0
 11
206.7896310000000142
 21
102.0725960000000043
 31
0.0
  0
LINE
  5
2FAB
  8
3
 10
202.6585570000000018
 20
102.0725960000000043
 30
0.0
 11
204.6726439999999911
 21
100.8641429999999986
 31
0.0
  0
ARC
  5
2FAC
  8
3
 10
204.7240935000000093
 20
100.9498969842320975
 30
0.0
 40
0.100003984230311
 50
239.0376635542876045
 51
300.9623364456974741
  0
ARC
  5
2FAD
  8
3
 10
206.7381810669311051
 20
102.1583449999998976
 30
0.0
 40
0.0999999330689232
 50
300.9640184328816872
 51
59.035981567139558
  0
LINE
  5
2FAE
  8
3
 10
206.0992129999999918
 20
102.6583449999999971
 30
0.0
 11
206.7896310000000142
 21
102.244094000000004
 31
0.0
  0
LINE
  5
2FAF
  8
3
 10
202.6585570000000018
 20
102.244094000000004
 30
0.0
 11
203.3489749999999958
 21
102.6583449999999971
 31
0.0
  0
ARC
  5
2FB0
  8
3
 10
202.710004873370309
 20
102.1583449999999971
 30
0.0
 40
0.0999988733702953
 50
120.963006479422603
 51
239.0369935205964964
  0
LINE
  5
2FB1
  8
3
 10
227.6585569999998881
 20
84.0725959999999901
 30
0.0
 11
229.6726439999999911
 21
82.8641429999999986
 31
0.0
  0
ARC
  5
2FB2
  8
3
 10
229.7240955454911102
 20
82.9499043695102074
 30
0.0
 40
0.1000113695221408
 50
239.0388354159379958
 51
269.9991145994586077
  0
ARC
  5
2FB3
  8
3
 10
227.7100048733703943
 20
84.1583449999999686
 30
0.0
 40
0.0999988733703953
 50
120.9630064794548048
 51
239.0369935205337981
  0
LINE
  5
2FB4
  8
3
 10
227.6585569999998881
 20
84.244094000000004
 30
0.0
 11
229.6726439999999911
 21
85.4525469999999956
 31
0.0
  0
ARC
  5
2FB5
  8
3
 10
229.7240955454911102
 20
85.3667856304897583
 30
0.0
 40
0.1000113695221685
 50
90.0008854005413923
 51
120.9611645840527956
  0
ARC
  5
2FB6
  8
3
 10
229.7240955454911102
 20
85.9499043695101932
 30
0.0
 40
0.1000113695221408
 50
239.0388354159379958
 51
269.9991145994586077
  0
LINE
  5
2FB7
  8
3
 10
227.6585569999998881
 20
87.0725959999999759
 30
0.0
 11
229.6726439999999911
 21
85.8641429999999843
 31
0.0
  0
ARC
  5
2FB8
  8
3
 10
227.7100048733443884
 20
87.1583450000000113
 30
0.0
 40
0.0999988733569718
 50
120.9630064666835949
 51
239.036993533331696
  0
LINE
  5
2FB9
  8
3
 10
227.6585569999998881
 20
87.2440939999999756
 30
0.0
 11
229.6726439999999911
 21
88.4525469999999956
 31
0.0
  0
ARC
  5
2FBA
  8
3
 10
229.7240955454911102
 20
88.3667856304897725
 30
0.0
 40
0.1000113695221543
 50
90.0008854005413923
 51
120.9611645840580962
  0
ARC
  5
2FBB
  8
3
 10
229.7240955454911102
 20
88.9499043695101648
 30
0.0
 40
0.1000113695221165
 50
239.0388354159302082
 51
269.9991145994586077
  0
LINE
  5
2FBC
  8
3
 10
227.6585569999998881
 20
90.0725959999999901
 30
0.0
 11
229.6726439999999911
 21
88.8641429999999986
 31
0.0
  0
ARC
  5
2FBD
  8
3
 10
227.7100048733703943
 20
90.1583450000000255
 30
0.0
 40
0.0999988733703368
 50
120.963006479447003
 51
239.0369935205681884
  0
LINE
  5
2FBE
  8
3
 10
227.6585569999998881
 20
90.2440939999999898
 30
0.0
 11
229.6726439999999911
 21
91.4525469999999956
 31
0.0
  0
ARC
  5
2FBF
  8
3
 10
229.7240955454911102
 20
91.3667856304897725
 30
0.0
 40
0.1000113695221543
 50
90.0008854005413923
 51
120.9611645840580962
  0
ARC
  5
2FC0
  8
3
 10
229.7240955454911102
 20
91.949904369510179
 30
0.0
 40
0.1000113695221165
 50
239.0388354159302082
 51
269.9991145994586077
  0
LINE
  5
2FC1
  8
3
 10
227.6585569999998881
 20
93.0725960000000043
 30
0.0
 11
229.6726439999999911
 21
91.8641429999999986
 31
0.0
  0
ARC
  5
2FC2
  8
3
 10
227.7100048733703943
 20
93.1583450000000255
 30
0.0
 40
0.0999988733703319
 50
120.9630064794584001
 51
239.0369935205661136
  0
LINE
  5
2FC3
  8
3
 10
227.6585569999998881
 20
93.2440939999999756
 30
0.0
 11
229.6726439999999911
 21
94.4525469999999956
 31
0.0
  0
ARC
  5
2FC4
  8
3
 10
229.7240955454911102
 20
94.3667856304897583
 30
0.0
 40
0.1000113695221543
 50
90.0008854005413923
 51
120.9611645840580962
  0
ARC
  5
2FC5
  8
3
 10
229.7240955454911102
 20
94.949904369510179
 30
0.0
 40
0.1000113695221092
 50
239.0388354159375979
 51
269.9991145994666795
  0
LINE
  5
2FC6
  8
3
 10
227.6585569999998881
 20
96.0725959999999901
 30
0.0
 11
229.6726439999999911
 21
94.8641429999999843
 31
0.0
  0
ARC
  5
2FC7
  8
3
 10
227.7100048733703943
 20
96.1583449999999971
 30
0.0
 40
0.0999988733703709
 50
120.9630064794639992
 51
239.0369935205399088
  0
LINE
  5
2FC8
  8
3
 10
227.6585569999998881
 20
96.2440939999999898
 30
0.0
 11
229.6726439999999911
 21
97.4525469999999956
 31
0.0
  0
ARC
  5
2FC9
  8
3
 10
229.7240955454911102
 20
97.3667856304897867
 30
0.0
 40
0.1000113695221401
 50
90.0008854005413923
 51
120.9611645840620042
  0
ARC
  5
2FCA
  8
3
 10
229.7240955454911102
 20
97.9499043695101932
 30
0.0
 40
0.1000113695221287
 50
239.038835415934102
 51
269.9991145994586077
  0
LINE
  5
2FCB
  8
3
 10
227.6585569999998881
 20
99.0725959999999901
 30
0.0
 11
229.6726439999999911
 21
97.8641429999999986
 31
0.0
  0
ARC
  5
2FCC
  8
3
 10
227.7100048733703943
 20
99.1583449999999971
 30
0.0
 40
0.0999988733703709
 50
120.9630064794639992
 51
239.0369935205399088
  0
LINE
  5
2FCD
  8
3
 10
227.6585569999998881
 20
99.244094000000004
 30
0.0
 11
229.6726439999999911
 21
100.4525469999999956
 31
0.0
  0
ARC
  5
2FCE
  8
3
 10
229.7240955454911102
 20
100.366785630489801
 30
0.0
 40
0.1000113695221401
 50
90.0008854005413923
 51
120.9611645840620042
  0
ARC
  5
2FCF
  8
3
 10
229.7240955454911102
 20
100.9499043695101932
 30
0.0
 40
0.1000113695221287
 50
239.038835415934102
 51
269.9991145994586077
  0
LINE
  5
2FD0
  8
3
 10
227.6585569999998881
 20
102.0725960000000043
 30
0.0
 11
229.6726439999999911
 21
100.8641429999999986
 31
0.0
  0
ARC
  5
2FD1
  8
3
 10
227.7100048733703943
 20
102.1583449999999971
 30
0.0
 40
0.0999988733703685
 50
120.9630064794452977
 51
239.0369935205507943
  0
LINE
  5
2FD2
  8
3
 10
227.6585569999998881
 20
102.244094000000004
 30
0.0
 11
228.3489749999999958
 21
102.6583449999999971
 31
0.0
  0
ARC
  5
2FD3
  8
3
 10
226.7381810669309914
 20
102.1583449999999971
 30
0.0
 40
0.0999999330689768
 50
300.9640184329023214
 51
59.0359815670995189
  0
LINE
  5
2FD4
  8
3
 10
224.7755429999999137
 20
100.8641429999999986
 30
0.0
 11
226.7896310000000142
 21
102.0725960000000043
 31
0.0
  0
LINE
  5
2FD5
  8
3
 10
222.6585570000000018
 20
102.0725960000000043
 30
0.0
 11
224.6726439999999911
 21
100.8641429999999986
 31
0.0
  0
ARC
  5
2FD6
  8
3
 10
224.7240935000000093
 20
100.9498969842321969
 30
0.0
 40
0.1000039842303866
 50
239.0376635542949941
 51
300.9623364456937225
  0
ARC
  5
2FD7
  8
3
 10
222.710004873370309
 20
102.1583449999998976
 30
0.0
 40
0.0999988733703368
 50
120.9630064793994961
 51
239.0369935205872878
  0
LINE
  5
2FD8
  8
3
 10
222.6585570000000018
 20
102.244094000000004
 30
0.0
 11
223.3489749999999958
 21
102.6583449999999971
 31
0.0
  0
LINE
  5
2FD9
  8
3
 10
226.0992129999999065
 20
102.6583449999999971
 30
0.0
 11
226.7896310000000142
 21
102.244094000000004
 31
0.0
  0
LINE
  5
2FDA
  8
3
 10
221.0992129999999918
 20
102.6583449999999971
 30
0.0
 11
221.7896310000000142
 21
102.244094000000004
 31
0.0
  0
ARC
  5
2FDB
  8
3
 10
221.7381810669311051
 20
102.1583449999999971
 30
0.0
 40
0.0999999330689475
 50
300.9640184328738997
 51
59.0359815671335326
  0
LINE
  5
2FDC
  8
3
 10
217.6585570000000018
 20
102.244094000000004
 30
0.0
 11
218.3489749999999958
 21
102.6583449999999971
 31
0.0
  0
ARC
  5
2FDD
  8
3
 10
217.710004873370309
 20
102.1583449999999971
 30
0.0
 40
0.0999988733702929
 50
120.9630064794051947
 51
239.0369935206061029
  0
ARC
  5
2FDE
  8
3
 10
219.7240934999998956
 20
100.9498969842320975
 30
0.0
 40
0.1000039842303037
 50
239.0376635542949941
 51
300.9623364457049775
  0
LINE
  5
2FDF
  8
3
 10
217.6585570000000018
 20
102.0725960000000043
 30
0.0
 11
219.6726439999999911
 21
100.8641429999999986
 31
0.0
  0
LINE
  5
2FE0
  8
3
 10
219.7755429999999137
 20
100.8641429999999986
 30
0.0
 11
221.7896310000000142
 21
102.0725960000000043
 31
0.0
  0
LINE
  5
2FE1
  8
3
 10
216.0992129999999918
 20
102.6583449999999971
 30
0.0
 11
216.7896310000000142
 21
102.244094000000004
 31
0.0
  0
ARC
  5
2FE2
  8
3
 10
216.7381810669311051
 20
102.1583449999999971
 30
0.0
 40
0.0999999330689329
 50
300.9640184328604278
 51
59.0359815671469974
  0
LINE
  5
2FE3
  8
3
 10
212.6585570000000018
 20
102.244094000000004
 30
0.0
 11
213.3489749999999958
 21
102.6583449999999971
 31
0.0
  0
ARC
  5
2FE4
  8
3
 10
212.7100048733703943
 20
102.1583449999999971
 30
0.0
 40
0.0999988733703343
 50
120.9630064794283015
 51
239.0369935205756065
  0
ARC
  5
2FE5
  8
3
 10
214.7240935000000093
 20
100.9498969842320975
 30
0.0
 40
0.1000039842302793
 50
239.0376635542872066
 51
300.9623364457127082
  0
LINE
  5
2FE6
  8
3
 10
212.6585570000000018
 20
102.0725960000000043
 30
0.0
 11
214.6726439999999911
 21
100.8641429999999986
 31
0.0
  0
LINE
  5
2FE7
  8
3
 10
214.7755429999999137
 20
100.8641429999999986
 30
0.0
 11
216.7896310000000142
 21
102.0725960000000043
 31
0.0
  0
LINE
  5
2FE8
  8
3
 10
211.0992129999999918
 20
102.6583449999999971
 30
0.0
 11
211.7896310000000142
 21
102.244094000000004
 31
0.0
  0
ARC
  5
2FE9
  8
3
 10
211.7381810669311051
 20
102.1583449999999971
 30
0.0
 40
0.0999999330689402
 50
300.96401843286651
 51
59.035981567139558
  0
LINE
  5
2FEA
  8
3
 10
207.6585570000000018
 20
102.244094000000004
 30
0.0
 11
208.3489749999999958
 21
102.6583449999999971
 31
0.0
  0
ARC
  5
2FEB
  8
3
 10
207.710004873370309
 20
102.1583449999999971
 30
0.0
 40
0.09999887337031
 50
120.9630064793900033
 51
239.0369935206039997
  0
ARC
  5
2FEC
  8
3
 10
209.7240934999998956
 20
100.9498969842320975
 30
0.0
 40
0.1000039842302915
 50
239.0376635542911004
 51
300.962336445708786
  0
LINE
  5
2FED
  8
3
 10
207.6585570000000018
 20
102.0725960000000043
 30
0.0
 11
209.6726439999999911
 21
100.8641429999999986
 31
0.0
  0
LINE
  5
2FEE
  8
3
 10
209.7755429999999137
 20
100.8641429999999986
 30
0.0
 11
211.7896310000000142
 21
102.0725960000000043
 31
0.0
  0
INSERT
  5
2FEF
  8
3
  6
CONTINUOUS
  2
*X1
 10
0.0
 20
0.0
 30
0.0
1001
GRADIENTCOLOR1ACI
1070
     5
1001
GRADIENTCOLOR2ACI
1070
     2
1001
ACAD
1000
HATCH
1002
{
1070
    19
1000
ANSI37
1040
6.5
1040
0.0
1000
ASC_BOUNDS
1070
     2
1070
     1
1070
     1
1005
3040
1070
     1
1070
     2
1005
2FF0
1005
3040
1000
ASC_SEEDPOINT
1011
213.2833712815142064
1021
0.0
1031
0.0
1021
92.143272568249472
1031
0.0
1000
R14_HATCH_DATA
1000
2FEF
1011
1.0
1021
0.0
1031
0.0
1021
0.0
1031
0.0
1011
0.0
1021
0.0
1031
0.0
1021
1.0
1031
0.0
1011
0.0
1021
0.0
1031
0.0
1021
0.0
1031
1.0
1040
0.0
1010
0.0
1020
0.0
1030
1.0
1000
ANSI37
1070
     0
1070
     1
1071
        2
1071
        7
1070
     1
1070
     1
1071
        3
1040
214.724094000000008
1040
97.0083449999999914
1040
0.4142135623730951
1040
209.3740940000000137
1040
91.6583449999999971
1040
0.4142135623730951
1040
214.724094000000008
1040
86.3083450000000028
1040
0.0
1071
        2
1005
3040
1005
2FF0
1071
        7
1070
     1
1070
     1
1071
        3
1040
214.724094000000008
1040
97.0083449999999914
1040
0.0
1040
214.724094000000008
1040
86.3083450000000028
1040
0.4142135623730951
1040
220.0740940000000023
1040
91.6583449999999971
1040
0.4142135623730951
1071
        1
1005
3040
1070
     1
1070
     1
1040
0.0
1040
6.5
1070
     0
1070
     2
1040
0.7853981633974483
1040
135.4481879999999023
1040
0.0
1040
-0.57452425971407
1040
0.57452425971407
1070
     0
1040
2.3561944901923439
1040
135.4481879999999023
1040
0.0
1040
-0.57452425971407
1040
-0.57452425971407
1070
     0
1040
0.033473145927033
1071
        2
1040
213.2833712815142064
1040
92.143272568249472
1040
0.0
1040
216.9689690215313078
1040
92.143272568249472
1040
0.0
1002
}
  0
LINE
  5
2FF0
  8
1
 10
214.724094000000008
 20
75.6583449999999971
 30
0.0
 11
214.724094000000008
 21
111.6583449999999971
 31
0.0
1001
ACAD
1000
ASC_BOUNDS
1002
{
1070
    19
1005
2FEF
1002
}
  0
ARC
  5
2FF1
  8
0
 10
197.724094000000008
 20
87.2957999999999998
 30
0.0
 40
1.5
 50
180.0
 51
0.000000000000007
  0
ARC
  5
2FF2
  8
0
 10
197.724094000000008
 20
87.5756200000000007
 30
0.0
 40
1.5
 50
180.0
 51
0.000000000000007
  0
ARC
  5
2FF3
  8
0
 10
197.724094000000008
 20
87.9928939999999926
 30
0.0
 40
1.5
 50
180.0
 51
0.000000000000007
  0
ARC
  5
2FF4
  8
0
 10
197.724094000000008
 20
88.547623999999999
 30
0.0
 40
1.5
 50
180.0
 51
0.000000000000007
  0
ARC
  5
2FF5
  8
0
 10
197.724094000000008
 20
89.3379909999999882
 30
0.0
 40
1.5
 50
180.0
 51
0.000000000000007
  0
ARC
  5
2FF6
  8
0
 10
197.724094000000008
 20
90.2658129999999943
 30
0.0
 40
1.5
 50
180.0
 51
0.000000000000007
  0
ARC
  5
2FF7
  8
0
 10
197.724094000000008
 20
91.2869089999999943
 30
0.0
 40
1.5
 50
180.0
 51
0.000000000000007
  0
ARC
  5
2FF8
  8
0
 10
197.724094000000008
 20
87.4823459999999926
 30
0.0
 40
1.5
 50
180.0
 51
0.000000000000007
  0
ARC
  5
2FF9
  8
0
 10
197.724094000000008
 20
87.8063479999999856
 30
0.0
 40
1.5
 50
180.0
 51
0.000000000000007
  0
ARC
  5
2FFA
  8
0
 10
197.724094000000008
 20
88.1303489999999954
 30
0.0
 40
1.5
 50
180.0
 51
0.000000000000007
  0
ARC
  5
2FFB
  8
0
 10
197.724094000000008
 20
88.8716249999999945
 30
0.0
 40
1.5
 50
180.0
 51
0.000000000000007
  0
ARC
  5
2FFC
  8
0
 10
197.724094000000008
 20
89.7994479999999982
 30
0.0
 40
1.5
 50
180.0
 51
0.000000000000007
  0
ARC
  5
2FFD
  8
0
 10
197.724094000000008
 20
90.8794529999999838
 30
0.0
 40
1.5
 50
180.0
 51
0.000000000000007
  0
ARC
  5
2FFE
  8
0
 10
197.724094000000008
 20
90.8091560000000015
 30
0.0
 40
2.9258310000000001
 50
61.5814110000005286
 51
118.4185889999994004
  0
ARC
  5
2FFF
  8
0
 10
196.4390939236631084
 20
93.1961720247589938
 30
0.0
 40
0.2149999436702364
 50
119.9774640327847948
 51
298.2877442022769969
  0
ARC
  5
3000
  8
0
 10
199.0090940763367939
 20
93.196172024759008
 30
0.0
 40
0.2149999436702346
 50
241.7122557977288011
 51
60.0225359649591113
  0
ARC
  5
3001
  8
0
 10
197.724094000000008
 20
90.8084359999999862
 30
0.0
 40
2.4965509999999989
 50
61.712347999998542
 51
118.2876520000015006
  0
ARC
  5
3002
  8
0
 10
197.724094000000008
 20
93.7082540000000108
 30
0.0
 40
2.4965509999999989
 50
241.7123479999985136
 51
298.2876520000015148
  0
ARC
  5
3003
  8
0
 10
199.0090940763367939
 20
91.3205179752410459
 30
0.0
 40
0.21499994367023
 50
299.9774640313090117
 51
118.2877442022789012
  0
ARC
  5
3004
  8
0
 10
196.4390939236631084
 20
91.3205179752410459
 30
0.0
 40
0.2149999436702255
 50
61.7122557977251134
 51
240.0225359670234013
  0
ARC
  5
3005
  8
0
 10
197.724094000000008
 20
93.7075339999999954
 30
0.0
 40
2.9258310000000001
 50
241.5814110000005996
 51
298.4185889999993719
  0
ARC
  5
3006
  8
0
 10
199.0090939999998909
 20
92.2583449999999914
 30
0.0
 40
0.215
 50
270.0
 51
90.0
  0
ARC
  5
3007
  8
0
 10
196.4390939999998977
 20
92.2583449999999914
 30
0.0
 40
0.215
 50
90.0
 51
270.0
  0
LINE
  5
3008
  8
0
 10
196.4390939999998977
 20
92.043344999999988
 30
0.0
 11
199.0090939999998909
 21
92.043344999999988
 31
0.0
  0
LINE
  5
3009
  8
0
 10
196.4390939999998977
 20
92.4733449999999948
 30
0.0
 11
199.0090939999998909
 21
92.4733449999999948
 31
0.0
  0
ARC
  5
300A
  8
0
 10
197.724094000000008
 20
93.6372379999999964
 30
0.0
 40
1.5
 50
0.000000000000007
 51
180.0
  0
ARC
  5
300B
  8
0
 10
197.724094000000008
 20
94.7172419999999988
 30
0.0
 40
1.5
 50
0.000000000000007
 51
180.0
  0
ARC
  5
300C
  8
0
 10
197.724094000000008
 20
95.6450650000000024
 30
0.0
 40
1.5
 50
0.000000000000007
 51
180.0
  0
ARC
  5
300D
  8
0
 10
197.724094000000008
 20
96.3863410000000016
 30
0.0
 40
1.5
 50
0.000000000000007
 51
180.0
  0
ARC
  5
300E
  8
0
 10
197.724094000000008
 20
96.7103420000000114
 30
0.0
 40
1.5
 50
0.000000000000007
 51
180.0
  0
ARC
  5
300F
  8
0
 10
197.724094000000008
 20
97.0343439999999902
 30
0.0
 40
1.5
 50
0.000000000000007
 51
180.0
  0
ARC
  5
3010
  8
0
 10
197.724094000000008
 20
93.2297810000000027
 30
0.0
 40
1.5
 50
0.000000000000007
 51
180.0
  0
ARC
  5
3011
  8
0
 10
197.724094000000008
 20
94.2508770000000027
 30
0.0
 40
1.5
 50
0.000000000000007
 51
180.0
  0
ARC
  5
3012
  8
0
 10
197.724094000000008
 20
95.1786989999999946
 30
0.0
 40
1.5
 50
0.000000000000007
 51
180.0
  0
ARC
  5
3013
  8
0
 10
197.724094000000008
 20
95.969065999999998
 30
0.0
 40
1.5
 50
0.000000000000007
 51
180.0
  0
ARC
  5
3014
  8
0
 10
197.724094000000008
 20
96.5237959999999902
 30
0.0
 40
1.5
 50
0.000000000000007
 51
180.0
  0
ARC
  5
3015
  8
0
 10
197.724094000000008
 20
96.9410699999999963
 30
0.0
 40
1.5
 50
0.000000000000007
 51
180.0
  0
ARC
  5
3016
  8
0
 10
197.724094000000008
 20
97.2208899999999971
 30
0.0
 40
1.5
 50
0.000000000000007
 51
180.0
  0
LINE
  5
3017
  8
0
 10
194.2240939999998943
 20
89.6583449999999971
 30
0.0
 11
195.224094000000008
 21
88.6583449999999971
 31
0.0
  0
LINE
  5
3018
  8
0
 10
194.2240939999998943
 20
94.8583450000000141
 30
0.0
 11
195.224094000000008
 21
95.8583449999999999
 31
0.0
  0
LINE
  5
3019
  8
0
 10
195.224094000000008
 20
88.6583449999999971
 30
0.0
 11
195.224094000000008
 21
95.8583449999999999
 31
0.0
  0
ARC
  5
301A
  8
0
 10
197.6624699999998995
 20
98.1583450000000113
 30
0.0
 40
1.0
 50
90.0
 51
145.9285469999992131
  0
ARC
  5
301B
  8
0
 10
197.3970142909251138
 20
98.6583478477259632
 30
0.0
 40
0.9999971522742852
 50
89.9999593728854279
 51
145.9286580364052099
  0
ARC
  5
301C
  8
0
 10
199.224094000000008
 20
99.1583449999999971
 30
0.0
 40
0.5
 50
0.000000000000007
 51
90.0
  0
ARC
  5
301D
  8
0
 10
198.7240939999998943
 20
98.6583449999999971
 30
0.0
 40
0.5
 50
0.000000000000007
 51
90.0
  0
LINE
  5
301E
  8
0
 10
196.4552359999998998
 20
98.1583450000000113
 30
0.0
 11
195.9868840000000034
 21
98.3583449999999999
 31
0.0
  0
LINE
  5
301F
  8
0
 10
195.9868840000000034
 20
98.3583449999999999
 30
0.0
 11
196.5686759999998969
 21
99.2185709999999972
 31
0.0
  0
LINE
  5
3020
  8
0
 10
196.4552359999998998
 20
98.1583450000000113
 30
0.0
 11
196.8341304358773982
 21
98.7185713529228934
 31
0.0
  0
LINE
  5
3021
  8
0
 10
197.6624699999998995
 20
99.1583449999999971
 30
0.0
 11
198.7240939999998943
 21
99.1583449999999971
 31
0.0
  0
LINE
  5
3022
  8
0
 10
197.3970149999998966
 20
99.6583449999999971
 30
0.0
 11
199.224094000000008
 21
99.6583449999999971
 31
0.0
  0
ARC
  5
3023
  8
0
 10
197.724094000000008
 20
97.3583450000000141
 30
0.0
 40
1.5
 50
0.000000000000007
 51
180.0
  0
LINE
  5
3024
  8
0
 10
198.4120069999999032
 20
83.5846189999999893
 30
0.0
 11
196.401875999999902
 21
85.6583449999999971
 31
0.0
  0
LINE
  5
3025
  8
0
 10
198.9120069999999032
 20
83.7996159999999861
 30
0.0
 11
196.7458319999998935
 21
86.0212410000000034
 31
0.0
  0
ARC
  5
3026
  8
0
 10
197.724094000000008
 20
87.1583449999999971
 30
0.0
 40
1.5
 50
180.0
 51
0.000000000000007
  0
LINE
  5
3027
  8
0
 10
196.224094000000008
 20
87.1583449999999971
 30
0.0
 11
196.224094000000008
 21
97.3583450000000141
 31
0.0
  0
LINE
  5
3028
  8
0
 10
195.224094000000008
 20
95.8583449999999999
 30
0.0
 11
196.024093999999991
 21
95.8583449999999999
 31
0.0
  0
LINE
  5
3029
  8
0
 10
195.224094000000008
 20
88.6583449999999971
 30
0.0
 11
196.024093999999991
 21
88.6583449999999971
 31
0.0
  0
LINE
  5
302A
  8
0
 10
196.401875999999902
 20
85.6583449999999971
 30
0.0
 11
196.7458319999998935
 21
86.0212410000000034
 31
0.0
  0
ARC
  5
302B
  8
0
 10
198.2240960088350903
 20
81.7989788159907789
 30
0.0
 40
0.4999979911649143
 50
339.065217055117273
 51
0.0000210859885536
  0
ARC
  5
302C
  8
0
 10
198.7160845525613979
 20
81.1259766524325556
 30
0.0
 40
0.1999803729817507
 50
159.0638836091789017
 51
186.1959932794875954
  0
ARC
  5
302D
  8
0
 10
199.224094000000008
 20
81.1583449999999971
 30
0.0
 40
0.5
 50
270.0
 51
0.000000000000007
  0
ARC
  5
302E
  8
0
 10
199.0143529999998862
 20
81.1583449999999971
 30
0.0
 40
0.5
 50
186.1945270000001074
 51
270.0
  0
LINE
  5
302F
  8
0
 10
198.6910880000000077
 20
81.6203270000000032
 30
0.0
 11
198.5293069999999034
 21
81.1974349999999987
 31
0.0
  0
LINE
  5
3030
  8
0
 10
199.224094000000008
 20
81.6142290000000088
 30
0.0
 11
199.3361809999998968
 21
81.3212350000000015
 31
0.0
  0
LINE
  5
3031
  8
0
 10
199.224094000000008
 20
81.6142290000000088
 30
0.0
 11
199.1120059999998944
 21
81.3212350000000015
 31
0.0
  0
ARC
  5
3032
  8
0
 10
199.2240935000000093
 20
81.2783546990483643
 30
0.0
 40
0.1200096990495203
 50
159.0651008507400093
 51
20.9348991492647691
  0
LINE
  5
3033
  8
0
 10
199.0143529999998862
 20
80.6583449999999971
 30
0.0
 11
199.224094000000008
 21
80.6583449999999971
 31
0.0
  0
ARC
  5
3034
  8
0
 10
197.7240991554932918
 20
82.8588280614321064
 30
0.0
 40
0.999994844507187
 50
359.9999391841059833
 51
46.5349960744135274
  0
ARC
  5
3035
  8
0
 10
198.2240991554932918
 20
83.0738250614321032
 30
0.0
 40
0.9999948445072581
 50
359.9999391841067791
 51
46.5349960744126605
  0
LINE
  5
3036
  8
0
 10
198.7240939999998943
 20
82.8588270000000051
 30
0.0
 11
198.7240939999998943
 21
81.7989790000000028
 31
0.0
  0
LINE
  5
3037
  8
0
 10
199.224094000000008
 20
98.6583449999999971
 30
0.0
 11
199.224094000000008
 21
81.6142290000000088
 31
0.0
  0
LINE
  5
3038
  8
0
 10
194.2240939999998943
 20
89.6583449999999971
 30
0.0
 11
194.2240939999998943
 21
94.8583450000000141
 31
0.0
  0
LINE
  5
3039
  8
0
 10
229.524093999999991
 20
106.6583449999999971
 30
0.0
 11
199.9240939999999114
 21
106.6583449999999971
 31
0.0
  0
LINE
  5
303A
  8
0
 10
212.724094000000008
 20
102.6583449999999971
 30
0.0
 11
212.724094000000008
 21
106.6583449999999971
 31
0.0
  0
LINE
  5
303B
  8
0
 10
216.724094000000008
 20
102.6583449999999971
 30
0.0
 11
216.724094000000008
 21
106.6583449999999971
 31
0.0
  0
LINE
  5
303C
  8
0
 10
196.024093999999991
 20
88.6583449999999971
 30
0.0
 11
196.224094000000008
 21
88.8583449999999857
 31
0.0
  0
LINE
  5
303D
  8
0
 10
196.024093999999991
 20
95.8583449999999999
 30
0.0
 11
196.224094000000008
 21
95.6583449999999971
 31
0.0
  0
LINE
  5
303E
  8
0
 10
229.524093999999991
 20
106.6583449999999971
 30
0.0
 11
229.724094000000008
 21
106.4583449999999942
 31
0.0
  0
LINE
  5
303F
  8
0
 10
199.9240939999999114
 20
106.6583449999999971
 30
0.0
 11
199.724094000000008
 21
106.4583449999999942
 31
0.0
  0
CIRCLE
  5
3040
  8
0
 10
214.724094000000008
 20
91.6583449999999971
 30
0.0
 40
5.3499999999999988
1001
ACAD
1000
ASC_BOUNDS
1002
{
1070
    19
1005
2FEF
1005
2FEF
1002
}
  0
CIRCLE
  5
3041
  8
0
 10
214.724094000000008
 20
91.6583449999999971
 30
0.0
 40
6.0
  0
CIRCLE
  5
3042
  8
0
 10
214.724094000000008
 20
91.6583449999999971
 30
0.0
 40
7.0
  0
CIRCLE
  5
3043
  8
0
 10
214.7240939999998943
 20
91.6583449999999971
 30
0.0
 40
8.0
  0
ARC
  5
3044
  8
0
 10
231.724094000000008
 20
87.2957999999999998
 30
0.0
 40
1.5
 50
180.0
 51
0.000000000000007
  0
ARC
  5
3045
  8
0
 10
231.724094000000008
 20
87.5756200000000007
 30
0.0
 40
1.5
 50
180.0
 51
0.000000000000007
  0
ARC
  5
3046
  8
0
 10
231.724094000000008
 20
87.9928939999999926
 30
0.0
 40
1.5
 50
180.0
 51
0.000000000000007
  0
ARC
  5
3047
  8
0
 10
231.724094000000008
 20
88.547623999999999
 30
0.0
 40
1.5
 50
180.0
 51
0.000000000000007
  0
ARC
  5
3048
  8
0
 10
231.724094000000008
 20
89.3379909999999882
 30
0.0
 40
1.5
 50
180.0
 51
0.000000000000007
  0
ARC
  5
3049
  8
0
 10
231.724094000000008
 20
90.2658129999999943
 30
0.0
 40
1.5
 50
180.0
 51
0.000000000000007
  0
ARC
  5
304A
  8
0
 10
231.724094000000008
 20
91.2869089999999943
 30
0.0
 40
1.5
 50
180.0
 51
0.000000000000007
  0
ARC
  5
304B
  8
0
 10
231.724094000000008
 20
87.4823459999999926
 30
0.0
 40
1.5
 50
180.0
 51
0.000000000000007
  0
ARC
  5
304C
  8
0
 10
231.724094000000008
 20
87.8063479999999856
 30
0.0
 40
1.5
 50
180.0
 51
0.000000000000007
  0
ARC
  5
304D
  8
0
 10
231.724094000000008
 20
88.1303489999999954
 30
0.0
 40
1.5
 50
180.0
 51
0.000000000000007
  0
ARC
  5
304E
  8
0
 10
231.724094000000008
 20
88.8716249999999945
 30
0.0
 40
1.5
 50
180.0
 51
0.000000000000007
  0
ARC
  5
304F
  8
0
 10
231.724094000000008
 20
89.7994479999999982
 30
0.0
 40
1.5
 50
180.0
 51
0.000000000000007
  0
ARC
  5
3050
  8
0
 10
231.724094000000008
 20
90.8794529999999838
 30
0.0
 40
1.5
 50
180.0
 51
0.000000000000007
  0
ARC
  5
3051
  8
0
 10
231.724094000000008
 20
90.8091560000000015
 30
0.0
 40
2.9258310000000001
 50
61.581411000000557
 51
118.4185889999994004
  0
ARC
  5
3052
  8
0
 10
233.0090940763367939
 20
93.1961720247589938
 30
0.0
 40
0.2149999436702364
 50
241.7122557977230883
 51
60.0225359672151697
  0
ARC
  5
3053
  8
0
 10
230.4390939236631937
 20
93.196172024759008
 30
0.0
 40
0.2149999436702346
 50
119.9774640350407964
 51
298.2877442022713126
  0
ARC
  5
3054
  8
0
 10
231.724094000000008
 20
90.8084359999999862
 30
0.0
 40
2.4965509999999989
 50
61.7123479999984568
 51
118.2876520000015006
  0
ARC
  5
3055
  8
0
 10
231.724094000000008
 20
93.7082540000000108
 30
0.0
 40
2.4965509999999989
 50
241.7123479999985136
 51
298.2876520000015148
  0
ARC
  5
3056
  8
0
 10
230.4390939236631084
 20
91.3205179752410459
 30
0.0
 40
0.21499994367023
 50
61.7122557977212196
 51
240.022535968690903
  0
ARC
  5
3057
  8
0
 10
233.0090940763367939
 20
91.3205179752410459
 30
0.0
 40
0.2149999436702255
 50
299.9774640329766271
 51
118.2877442022749932
  0
ARC
  5
3058
  8
0
 10
231.724094000000008
 20
93.7075339999999954
 30
0.0
 40
2.9258310000000001
 50
241.5814110000005996
 51
298.4185889999993719
  0
ARC
  5
3059
  8
0
 10
230.4390940000000114
 20
92.2583449999999914
 30
0.0
 40
0.215
 50
90.0
 51
270.0
  0
ARC
  5
305A
  8
0
 10
233.0090940000000046
 20
92.2583449999999914
 30
0.0
 40
0.215
 50
270.0
 51
90.0
  0
LINE
  5
305B
  8
0
 10
233.0090940000000046
 20
92.043344999999988
 30
0.0
 11
230.4390940000000114
 21
92.043344999999988
 31
0.0
  0
LINE
  5
305C
  8
0
 10
233.0090940000000046
 20
92.4733449999999948
 30
0.0
 11
230.4390940000000114
 21
92.4733449999999948
 31
0.0
  0
ARC
  5
305D
  8
0
 10
231.724094000000008
 20
93.6372379999999964
 30
0.0
 40
1.5
 50
0.000000000000007
 51
180.0
  0
ARC
  5
305E
  8
0
 10
231.724094000000008
 20
94.7172419999999988
 30
0.0
 40
1.5
 50
0.000000000000007
 51
180.0
  0
ARC
  5
305F
  8
0
 10
231.724094000000008
 20
95.6450650000000024
 30
0.0
 40
1.5
 50
0.000000000000007
 51
180.0
  0
ARC
  5
3060
  8
0
 10
231.724094000000008
 20
96.3863410000000016
 30
0.0
 40
1.5
 50
0.000000000000007
 51
180.0
  0
ARC
  5
3061
  8
0
 10
231.724094000000008
 20
96.7103420000000114
 30
0.0
 40
1.5
 50
0.000000000000007
 51
180.0
  0
ARC
  5
3062
  8
0
 10
231.724094000000008
 20
97.0343439999999902
 30
0.0
 40
1.5
 50
0.000000000000007
 51
180.0
  0
ARC
  5
3063
  8
0
 10
231.724094000000008
 20
93.2297810000000027
 30
0.0
 40
1.5
 50
0.000000000000007
 51
180.0
  0
ARC
  5
3064
  8
0
 10
231.724094000000008
 20
94.2508770000000027
 30
0.0
 40
1.5
 50
0.000000000000007
 51
180.0
  0
ARC
  5
3065
  8
0
 10
231.724094000000008
 20
95.1786989999999946
 30
0.0
 40
1.5
 50
0.000000000000007
 51
180.0
  0
ARC
  5
3066
  8
0
 10
231.724094000000008
 20
95.969065999999998
 30
0.0
 40
1.5
 50
0.000000000000007
 51
180.0
  0
ARC
  5
3067
  8
0
 10
231.724094000000008
 20
96.5237959999999902
 30
0.0
 40
1.5
 50
0.000000000000007
 51
180.0
  0
ARC
  5
3068
  8
0
 10
231.724094000000008
 20
96.9410699999999963
 30
0.0
 40
1.5
 50
0.000000000000007
 51
180.0
  0
ARC
  5
3069
  8
0
 10
231.724094000000008
 20
97.2208899999999971
 30
0.0
 40
1.5
 50
0.000000000000007
 51
180.0
  0
LINE
  5
306A
  8
0
 10
235.224094000000008
 20
89.6583449999999971
 30
0.0
 11
234.224094000000008
 21
88.6583449999999971
 31
0.0
  0
LINE
  5
306B
  8
0
 10
235.224094000000008
 20
94.8583450000000141
 30
0.0
 11
234.224094000000008
 21
95.8583449999999999
 31
0.0
  0
LINE
  5
306C
  8
0
 10
234.224094000000008
 20
88.6583449999999971
 30
0.0
 11
234.224094000000008
 21
95.8583449999999999
 31
0.0
  0
ARC
  5
306D
  8
0
 10
231.7857180000000028
 20
98.1583450000000113
 30
0.0
 40
1.0
 50
34.071453000000929
 51
90.0
  0
ARC
  5
306E
  8
0
 10
232.0511737090749023
 20
98.6583478477259632
 30
0.0
 40
0.9999971522742852
 50
34.0713419635946408
 51
90.0000406271145579
  0
ARC
  5
306F
  8
0
 10
230.224094000000008
 20
99.1583449999999971
 30
0.0
 40
0.5
 50
90.0
 51
180.0
  0
ARC
  5
3070
  8
0
 10
230.724094000000008
 20
98.6583449999999971
 30
0.0
 40
0.5
 50
90.0
 51
180.0
  0
LINE
  5
3071
  8
0
 10
232.9929520000000025
 20
98.1583450000000113
 30
0.0
 11
233.4613040000000126
 21
98.3583449999999999
 31
0.0
  0
LINE
  5
3072
  8
0
 10
233.4613040000000126
 20
98.3583449999999999
 30
0.0
 11
232.8795120000000054
 21
99.2185709999999972
 31
0.0
  0
LINE
  5
3073
  8
0
 10
232.9929520000000025
 20
98.1583450000000113
 30
0.0
 11
232.6140575641225041
 21
98.7185713529228934
 31
0.0
  0
LINE
  5
3074
  8
0
 10
231.7857180000000028
 20
99.1583449999999971
 30
0.0
 11
230.724094000000008
 21
99.1583449999999971
 31
0.0
  0
LINE
  5
3075
  8
0
 10
232.0511730000000057
 20
99.6583449999999971
 30
0.0
 11
230.224094000000008
 21
99.6583449999999971
 31
0.0
  0
ARC
  5
3076
  8
0
 10
231.724094000000008
 20
97.3583450000000141
 30
0.0
 40
1.5
 50
0.000000000000007
 51
180.0
  0
LINE
  5
3077
  8
0
 10
231.0361809999999991
 20
83.5846189999999893
 30
0.0
 11
233.0463120000000004
 21
85.6583449999999971
 31
0.0
  0
LINE
  5
3078
  8
0
 10
230.5361809999999991
 20
83.7996159999999861
 30
0.0
 11
232.7023560000000089
 21
86.0212410000000034
 31
0.0
  0
ARC
  5
3079
  8
0
 10
231.724094000000008
 20
87.1583449999999971
 30
0.0
 40
1.5
 50
180.0
 51
0.000000000000007
  0
LINE
  5
307A
  8
0
 10
233.224094000000008
 20
87.1583449999999971
 30
0.0
 11
233.224094000000008
 21
97.3583450000000141
 31
0.0
  0
LINE
  5
307B
  8
0
 10
234.224094000000008
 20
95.8583449999999999
 30
0.0
 11
233.4240939999999966
 21
95.8583449999999999
 31
0.0
  0
LINE
  5
307C
  8
0
 10
234.224094000000008
 20
88.6583449999999971
 30
0.0
 11
233.4240939999999966
 21
88.6583449999999971
 31
0.0
  0
LINE
  5
307D
  8
0
 10
233.0463120000000004
 20
85.6583449999999971
 30
0.0
 11
232.7023560000000089
 21
86.0212410000000034
 31
0.0
  0
ARC
  5
307E
  8
0
 10
231.2240919911648973
 20
81.7989788159907789
 30
0.0
 40
0.4999979911649143
 50
179.9999789140113933
 51
200.9347829448826985
  0
ARC
  5
307F
  8
0
 10
230.7321034474385044
 20
81.1259766524325556
 30
0.0
 40
0.1999803729817507
 50
353.8040067205124046
 51
20.9361163908211196
  0
ARC
  5
3080
  8
0
 10
230.224094000000008
 20
81.1583449999999971
 30
0.0
 40
0.5
 50
180.0
 51
270.0
  0
ARC
  5
3081
  8
0
 10
230.4338349999999878
 20
81.1583449999999971
 30
0.0
 40
0.5
 50
270.0
 51
353.8054729999997789
  0
LINE
  5
3082
  8
0
 10
230.7571000000000083
 20
81.6203270000000032
 30
0.0
 11
230.9188809999999989
 21
81.1974349999999987
 31
0.0
  0
LINE
  5
3083
  8
0
 10
230.224094000000008
 20
81.6142290000000088
 30
0.0
 11
230.1120070000000055
 21
81.3212350000000015
 31
0.0
  0
LINE
  5
3084
  8
0
 10
230.224094000000008
 20
81.6142290000000088
 30
0.0
 11
230.336182000000008
 21
81.3212350000000015
 31
0.0
  0
ARC
  5
3085
  8
0
 10
230.2240945000000067
 20
81.2783546990483643
 30
0.0
 40
0.1200096990495203
 50
159.065100850735206
 51
20.9348991492599907
  0
LINE
  5
3086
  8
0
 10
230.4338349999999878
 20
80.6583449999999971
 30
0.0
 11
230.224094000000008
 21
80.6583449999999971
 31
0.0
  0
ARC
  5
3087
  8
0
 10
231.7240888445066105
 20
82.8588280614321064
 30
0.0
 40
0.999994844507187
 50
133.4650039255865863
 51
180.0000608158939031
  0
ARC
  5
3088
  8
0
 10
231.2240888445066958
 20
83.0738250614321032
 30
0.0
 40
0.9999948445072581
 50
133.4650039255870979
 51
180.0000608158931072
  0
LINE
  5
3089
  8
0
 10
230.724094000000008
 20
82.8588270000000051
 30
0.0
 11
230.724094000000008
 21
81.7989790000000028
 31
0.0
  0
LINE
  5
308A
  8
0
 10
230.224094000000008
 20
98.6583449999999971
 30
0.0
 11
230.224094000000008
 21
81.6142290000000088
 31
0.0
  0
LINE
  5
308B
  8
0
 10
235.224094000000008
 20
89.6583449999999971
 30
0.0
 11
235.224094000000008
 21
94.8583450000000141
 31
0.0
  0
LINE
  5
308C
  8
0
 10
233.4240939999999966
 20
88.6583449999999971
 30
0.0
 11
233.224094000000008
 21
88.8583449999999857
 31
0.0
  0
LINE
  5
308D
  8
0
 10
233.4240939999999966
 20
95.8583449999999999
 30
0.0
 11
233.224094000000008
 21
95.6583449999999971
 31
0.0
  0
LINE
  5
3A6F
  8
1
 10
147.0
 20
75.6583449999999971
 30
0.0
 11
147.0
 21
111.6583449999999971
 31
0.0
  0
LINE
  5
3A70
  8
0
 10
156.6999999999999886
 20
99.6583449999999971
 30
0.0
 11
137.3000000000000114
 21
99.6583449999999971
 31
0.0
  0
LINE
  5
3A71
  8
0
 10
157.0
 20
102.6583449999999971
 30
0.0
 11
155.7389159999999038
 21
99.6583449999999971
 31
0.0
  0
LINE
  5
3A72
  8
0
 10
137.0
 20
102.6583449999999971
 30
0.0
 11
138.261084000000011
 21
99.6583449999999971
 31
0.0
  0
ARC
  5
3A73
  8
0
 10
133.0
 20
92.2583449999999914
 30
0.0
 40
3.6000000000000001
 50
90.0
 51
270.0
  0
LINE
  5
3A74
  8
0
 10
157.1999999999999886
 20
88.6583449999999971
 30
0.0
 11
161.0
 21
88.6583449999999971
 31
0.0
  0
ARC
  5
3A75
  8
0
 10
161.0
 20
92.2583449999999914
 30
0.0
 40
3.6000000000000001
 50
270.0
 51
90.0
  0
LINE
  5
3A76
  8
0
 10
157.1999999999999886
 20
95.8583449999999999
 30
0.0
 11
161.0
 21
95.8583449999999999
 31
0.0
  0
ARC
  5
3A77
  8
0
 10
133.0
 20
92.2583449999999914
 30
0.0
 40
2.6000000000000001
 50
90.0
 51
270.0
  0
LINE
  5
3A78
  8
0
 10
157.1999999999999886
 20
89.6583449999999971
 30
0.0
 11
161.0
 21
89.6583449999999971
 31
0.0
  0
ARC
  5
3A79
  8
0
 10
161.0
 20
92.2583449999999914
 30
0.0
 40
2.6000000000000001
 50
270.0
 51
90.0
  0
LINE
  5
3A7A
  8
0
 10
157.1999999999999886
 20
94.8583450000000141
 30
0.0
 11
161.0
 21
94.8583450000000141
 31
0.0
  0
LINE
  5
3A7B
  8
0
 10
136.8000000000000114
 20
94.8583450000000141
 30
0.0
 11
133.0
 21
94.8583450000000141
 31
0.0
  0
LINE
  5
3A7C
  8
0
 10
136.8000000000000114
 20
89.6583449999999971
 30
0.0
 11
133.0
 21
89.6583449999999971
 31
0.0
  0
LINE
  5
3A7D
  8
0
 10
136.8000000000000114
 20
95.8583449999999999
 30
0.0
 11
133.0
 21
95.8583449999999999
 31
0.0
  0
LINE
  5
3A7E
  8
0
 10
136.8000000000000114
 20
88.6583449999999971
 30
0.0
 11
133.0
 21
88.6583449999999971
 31
0.0
  0
LINE
  5
3A7F
  8
0
 10
137.0
 20
85.9583449999999942
 30
0.0
 11
157.0
 21
85.9583449999999942
 31
0.0
  0
LINE
  5
3A80
  8
0
 10
157.1999999999999886
 20
88.5306862192680768
 30
0.0
 11
157.1999999999999886
 21
95.9860037807320197
 31
0.0
  0
LINE
  5
3A81
  8
0
 10
136.8000000000000114
 20
88.5306862192680342
 30
0.0
 11
136.8000000000000114
 21
95.9860037807320197
 31
0.0
  0
LINE
  5
3A82
  8
0
 10
157.0
 20
98.1583450000000113
 30
0.0
 11
137.0
 21
98.1583450000000113
 31
0.0
  0
LINE
  5
3A83
  8
0
 10
157.1999999999999886
 20
98.3583449999999999
 30
0.0
 11
157.1999999999999886
 21
99.1583449999999971
 31
0.0
  0
LINE
  5
3A84
  8
0
 10
136.8000000000000114
 20
98.3583449999999999
 30
0.0
 11
136.8000000000000114
 21
99.1583449999999971
 31
0.0
  0
ARC
  5
3A85
  8
0
 10
137.0
 20
98.3583449999999999
 30
0.0
 40
0.2
 50
180.0
 51
270.0
  0
ARC
  5
3A86
  8
0
 10
157.0000000000142109
 20
85.7583450000142875
 30
0.0
 40
0.1999999999857209
 50
359.9999999959044885
 51
90.00000000407762
  0
ARC
  5
3A87
  8
0
 10
137.0
 20
85.7583449999999914
 30
0.0
 40
0.2
 50
90.0
 51
180.0
  0
ARC
  5
3A88
  8
0
 10
137.0
 20
85.4583449999999942
 30
0.0
 40
0.2
 50
90.0
 51
180.0
  0
LINE
  5
3A89
  8
0
 10
137.0
 20
85.6583449999999971
 30
0.0
 11
157.0
 21
85.6583449999999971
 31
0.0
  0
ARC
  5
3A8A
  8
0
 10
157.0
 20
85.4583449999999942
 30
0.0
 40
0.2
 50
0.0
 51
90.0
  0
LINE
  5
3A8B
  8
0
 10
157.0
 20
98.3583449999999999
 30
0.0
 11
137.0
 21
98.3583449999999999
 31
0.0
  0
ARC
  5
3A8C
  8
0
 10
137.0
 20
98.5583450000000028
 30
0.0
 40
0.2
 50
180.0
 51
270.0
  0
LINE
  5
3A8D
  8
0
 10
121.5000051462523061
 20
80.6583449999999971
 30
0.0
 11
172.4999948537476087
 21
80.6583450000000113
 31
0.0
  0
LINE
  5
3A8E
  8
0
 10
172.4999948537476087
 20
102.6583449999999971
 30
0.0
 11
157.0
 21
102.6583449999999971
 31
0.0
  0
ARC
  5
3A8F
  8
0
 10
137.3000000000000114
 20
81.1583449999999971
 30
0.0
 40
0.5
 50
180.0
 51
270.0
  0
LINE
  5
3A90
  8
0
 10
136.8000000000000114
 20
81.1583449999999971
 30
0.0
 11
136.8000000000000114
 21
85.7583449999999914
 31
0.0
  0
ARC
  5
3A91
  8
0
 10
156.6999999999999886
 20
81.1583449999999971
 30
0.0
 40
0.5
 50
270.0
 51
0.0
  0
LINE
  5
3A92
  8
0
 10
157.1999999999999886
 20
81.1583449999999971
 30
0.0
 11
157.1999999999999886
 21
85.7583449999999914
 31
0.0
  0
ARC
  5
3A93
  8
0
 10
137.3000000000000114
 20
99.1583449999999971
 30
0.0
 40
0.5
 50
90.0
 51
180.0
  0
ARC
  5
3A94
  8
0
 10
156.6999999999999886
 20
99.1583449999999971
 30
0.0
 40
0.5
 50
0.0
 51
90.0
  0
LINE
  5
3A95
  8
0
 10
128.0800000000000125
 20
106.6583449999999971
 30
0.0
 11
165.9199999999999875
 21
106.6583449999999971
 31
0.0
  0
LINE
  5
3A96
  8
0
 10
137.0
 20
102.6583449999999971
 30
0.0
 11
121.5000051462523061
 21
102.6583449999999971
 31
0.0
  0
LINE
  5
3A97
  8
0
 10
135.860935000000012
 20
106.6583449999999971
 30
0.0
 11
138.8034639999999911
 21
99.6583449999999971
 31
0.0
  0
LINE
  5
3A98
  8
0
 10
158.139064999999988
 20
106.6583449999999971
 30
0.0
 11
155.1965360000000089
 21
99.6583449999999971
 31
0.0
  0
LINE
  5
3A99
  8
0
 10
165.9199999999999875
 20
106.6583449999999971
 30
0.0
 11
164.238554999999991
 21
102.6583449999999971
 31
0.0
  0
LINE
  5
3A9A
  8
0
 10
128.0800000000000125
 20
106.6583449999999971
 30
0.0
 11
129.761445000000009
 21
102.6583449999999971
 31
0.0
  0
LINE
  5
3AA2
  8
0
 10
145.8382809999999949
 20
98.1583450000000113
 30
0.0
 11
145.8347500000000139
 21
96.074483999999984
 31
0.0
  0
ARC
  5
3AA3
  8
0
 10
145.6182440005271133
 20
96.074851311050864
 30
0.0
 40
0.2165063110513096
 50
179.9029601533447078
 51
359.9027955214049257
  0
ARC
  5
3AA4
  8
0
 10
146.8284394831428017
 20
96.074851307319733
 30
0.0
 40
0.2165063482591726
 50
175.0000209628344976
 51
355.0001233333628079
  0
LINE
  5
3AA5
  8
0
 10
147.2280550000000119
 20
98.1583450000000113
 30
0.0
 11
147.0441219999999021
 21
96.0559820000000144
 31
0.0
  0
LINE
  5
3AA6
  8
0
 10
146.7933879999999931
 20
98.1583450000000113
 30
0.0
 11
146.6127569999999878
 21
96.093720999999988
 31
0.0
  0
LINE
  5
3AAB
  8
0
 10
146.6958919999999864
 20
85.9583449999999942
 30
0.0
 11
146.7834939999999051
 21
86.2908489999999944
 31
0.0
  0
LINE
  5
3AAC
  8
0
 10
146.0195899999999938
 20
85.9583449999999942
 30
0.0
 11
146.2334940000000074
 21
86.7702419999999961
 31
0.0
  0
ARC
  5
3AAD
  8
0
 10
146.4499999999999886
 20
88.4418389999999874
 30
0.0
 40
0.216506
 50
0.0
 51
180.0
  0
LINE
  5
3AAE
  8
0
 10
146.2334940000000074
 20
85.9583449999999942
 30
0.0
 11
146.2334940000000074
 21
88.4418389999999874
 31
0.0
  0
LINE
  5
3AAF
  8
0
 10
146.666505999999913
 20
85.9583449999999942
 30
0.0
 11
146.666505999999913
 21
88.4418389999999874
 31
0.0
  0
LINE
  5
3AB0
  8
0
 10
145.7980520558195963
 20
88.5198890537825349
 30
0.0
 11
144.5137131575255864
 21
86.1144475025248823
 31
0.0
  0
LINE
  5
3AB1
  8
0
 10
145.6916234161695911
 20
87.4012069888161562
 30
0.0
 11
144.921234783479008
 21
85.9583449999999942
 31
0.0
  0
ARC
  5
3AB2
  8
0
 10
146.0000000564706113
 20
88.4418391454691033
 30
0.0
 40
0.2165058501626941
 50
354.9998891474435823
 51
175.0002320843231871
  0
LINE
  5
3AB3
  8
0
 10
145.5653890000000104
 20
85.9583449999999942
 30
0.0
 11
145.7843180000000132
 21
88.4607079999999684
 31
0.0
  0
LINE
  5
3AB4
  8
0
 10
146.0000560000000007
 20
85.9583449999999942
 30
0.0
 11
146.2156819999999868
 21
88.4229689999999948
 31
0.0
  0
LINE
  5
3AB5
  8
0
 10
146.7834939999999051
 20
85.9583449999999942
 30
0.0
 11
146.7834939999999051
 21
88.4418389999999874
 31
0.0
  0
LINE
  5
3AB6
  8
0
 10
144.5000560000000007
 20
85.9583449999999942
 30
0.0
 11
144.7156819999999868
 21
88.4229689999999948
 31
0.0
  0
ARC
  5
3AB8
  8
0
 10
144.5000000564706113
 20
88.4418391454691033
 30
0.0
 40
0.2165058501626938
 50
354.9998891474443781
 51
175.0002320843223913
  0
ARC
  5
3AD7
  8
0
 10
127.7150000000000034
 20
92.2583449999999914
 30
0.0
 40
0.215
 50
90.0
 51
270.0
  0
LINE
  5
3AD8
  8
0
 10
129.4064260000000104
 20
92.043344999999988
 30
0.0
 11
127.7150000000000034
 21
92.043344999999988
 31
0.0
  0
LINE
  5
3AD9
  8
0
 10
129.4064260000000104
 20
92.4733449999999948
 30
0.0
 11
127.7150000000000034
 21
92.4733449999999948
 31
0.0
  0
ARC
  5
3AE6
  8
0
 10
132.7941999999999894
 20
95.9501120000000043
 30
0.0
 40
0.215
 50
197.9999999999996874
 51
211.6526940000005084
  0
LINE
  5
3AF6
  8
0
 10
129.4442471821292884
 20
92.8210366546428958
 30
0.0
 11
128.6956632584482065
 21
92.4733449999999948
 31
0.0
  0
LINE
  5
3AF7
  8
0
 10
129.5720025964517959
 20
93.3578147818797959
 30
0.0
 11
127.6302224248375978
 21
92.4559247630061947
 31
0.0
  0
ARC
  5
3AF9
  8
0
 10
132.7942024183606122
 20
88.5665786233366674
 30
0.0
 40
0.2149975469800963
 50
341.9997961276271781
 51
25.2715463563377796
  0
LINE
  5
3AFA
  8
0
 10
129.5720025964517959
 20
91.1588752181201869
 30
0.0
 11
127.6302224248380952
 21
92.0607652369936034
 31
0.0
  0
LINE
  5
3AFB
  8
0
 10
129.4442471821292884
 20
91.6956533453570728
 30
0.0
 11
128.6956632584482065
 21
92.043344999999988
 31
0.0
  0
LINE
  5
3AFC
  8
0
 10
130.3815145417802057
 20
89.7553961601289529
 30
0.0
 11
128.0124614495746869
 21
90.0426386738501066
 31
0.0
  0
LINE
  5
3AFD
  8
0
 10
130.0223151593363866
 20
90.2351314695780076
 30
0.0
 11
129.0311277545856115
 21
90.3553115553815758
 31
0.0
  0
LINE
  5
3AFE
  8
0
 10
131.3414816135073977
 20
88.7002991591105854
 30
0.0
 11
128.9996076221731869
 21
88.2414031971049724
 31
0.0
  0
LINE
  5
3AFF
  8
0
 10
131.2350330778307068
 20
89.1206879499628002
 30
0.0
 11
129.8718024677552023
 21
88.8535594863440252
 31
0.0
  0
LINE
  5
3B00
  8
0
 10
132.4035430776407907
 20
88.0600140372121984
 30
0.0
 11
130.5065849127807951
 21
86.8407454609942135
 31
0.0
  0
LINE
  5
3B01
  8
0
 10
132.5731074418804951
 20
88.6837453379647798
 30
0.0
 11
131.2370394343182056
 21
87.8249876450320528
 31
0.0
  0
LINE
  5
3B02
  8
0
 10
133.7273549637289136
 20
87.8096193167630048
 30
0.0
 11
132.1960553342642015
 21
86.0797810429385635
 31
0.0
  0
LINE
  5
3B03
  8
0
 10
133.8216715599598956
 20
88.5646142670814243
 30
0.0
 11
132.5545229923569082
 21
87.1331743299708705
 31
0.0
  0
LINE
  5
3B04
  8
0
 10
135.2137842890006993
 20
87.6545062238197659
 30
0.0
 11
133.9757640977624078
 21
85.8759994532637165
 31
0.0
  0
LINE
  5
3B05
  8
0
 10
135.3086104758176873
 20
88.5430558020638188
 30
0.0
 11
134.070589341025908
 21
86.7645472441304122
 31
0.0
  0
LINE
  5
3B06
  8
0
 10
136.8086104758174031
 20
88.5430558020632503
 30
0.0
 11
135.5705893410259932
 21
86.7645472441303838
 31
0.0
  0
LINE
  5
3B07
  8
0
 10
136.713784289000813
 20
87.6545062238197374
 30
0.0
 11
135.4757640977622088
 21
85.8759994532633755
 31
0.0
  0
ARC
  5
3B08
  8
0
 10
136.7843730341454034
 20
85.9772150906225363
 30
0.0
 40
0.2165060879216873
 50
175.0000261094315022
 51
274.1447870731541911
  0
ARC
  5
3B09
  8
0
 10
135.2843734539642071
 20
85.9772154379706706
 30
0.0
 40
0.2165064758701099
 50
175.0001273640071133
 51
354.9998259319992258
  0
ARC
  5
3B0A
  8
0
 10
133.7843734539642071
 20
85.9772154379705995
 30
0.0
 40
0.2165064758701164
 50
175.0001273639875023
 51
354.9998259320195757
  0
ARC
  5
3B0B
  8
0
 10
132.7941977200019892
 20
88.5665792245498835
 30
0.0
 40
0.2149974165581047
 50
148.3471597774540101
 51
162.0000224204285928
  0
ARC
  5
3B0C
  8
0
 10
132.0309280878817049
 20
86.2174687704724363
 30
0.0
 40
0.2149998088634753
 50
162.0001023310032906
 51
341.9999507547461803
  0
LINE
  5
3B0D
  8
0
 10
132.5897229999999922
 20
88.6330169999999953
 30
0.0
 11
131.8264509999999063
 21
86.2839069999999992
 31
0.0
  0
LINE
  5
3B0E
  8
0
 10
132.9986769999999865
 20
88.5001399999999876
 30
0.0
 11
132.2354049999999859
 21
86.1510299999999916
 31
0.0
  0
ARC
  5
3B0F
  8
0
 10
130.3850416586093104
 20
87.018093218306575
 30
0.0
 40
0.2149999759495533
 50
144.0000110063064938
 51
323.999867184841321
  0
LINE
  5
3B10
  8
0
 10
131.5367898131713957
 20
88.9691177428526458
 30
0.0
 11
130.2111030000000085
 21
87.1444669999999917
 31
0.0
  0
LINE
  5
3B11
  8
0
 10
131.955105242946388
 20
88.813320334387015
 30
0.0
 11
130.5589799999999059
 21
86.8917189999999948
 31
0.0
  0
ARC
  5
3B12
  8
0
 10
128.9520563077971076
 20
88.4510792236274739
 30
0.0
 40
0.2150003804581865
 50
126.0000839732561957
 51
305.9998811955775864
  0
LINE
  5
3B13
  8
0
 10
130.3997393621324932
 20
89.7686372631045657
 30
0.0
 11
128.8256819999998868
 21
88.625017999999983
 31
0.0
  0
LINE
  5
3B14
  8
0
 10
130.7216630164047046
 20
89.4710200119187391
 30
0.0
 11
129.0784299999999121
 21
88.2771399999999744
 31
0.0
  0
ARC
  5
3B15
  8
0
 10
128.0320219651648017
 20
90.2567469886812859
 30
0.0
 40
0.2149999633720771
 50
108.0000904205852947
 51
288.0001099426921201
  0
LINE
  5
3B16
  8
0
 10
129.6267245021336123
 20
91.000961838233323
 30
0.0
 11
127.9655829999999952
 21
90.4612239999999872
 31
0.0
  0
LINE
  5
3B17
  8
0
 10
129.8017544091698028
 20
90.6057031329472267
 30
0.0
 11
128.0984609999999861
 21
90.0522699999999929
 31
0.0
  0
LINE
  5
3B18
  8
0
 10
133.5686908086543099
 20
85.996084741239315
 30
0.0
 11
133.7843180000000132
 21
88.4607079999999684
 31
0.0
  0
LINE
  5
3B19
  8
0
 10
134.0000560000000007
 20
85.9583449999999942
 30
0.0
 11
134.2156819999999868
 21
88.4229689999999948
 31
0.0
  0
ARC
  5
3B1A
  8
0
 10
134.0000000564706113
 20
88.4418391454691033
 30
0.0
 40
0.2165058501626658
 50
354.9998891474435823
 51
175.0002320843240113
  0
LINE
  5
3B1B
  8
0
 10
135.0686908086543951
 20
85.996084741239315
 30
0.0
 11
135.2843180000000132
 21
88.4607079999999684
 31
0.0
  0
LINE
  5
3B1C
  8
0
 10
135.5000560000000007
 20
85.9583449999999942
 30
0.0
 11
135.7156819999999868
 21
88.4229689999999948
 31
0.0
  0
ARC
  5
3B1D
  8
0
 10
135.5000000564706113
 20
88.4418391454691033
 30
0.0
 40
0.2165058501626941
 50
354.9998891474435823
 51
175.0002320843231871
  0
LINE
  5
3B1E
  8
0
 10
136.5686908086543099
 20
85.996084741239315
 30
0.0
 11
136.7843180000000132
 21
88.4607079999999684
 31
0.0
  0
LINE
  5
3B1F
  8
0
 10
137.0000560000000007
 20
85.9583449999999942
 30
0.0
 11
137.2156819999999868
 21
88.4229689999999948
 31
0.0
  0
ARC
  5
3B20
  8
0
 10
137.0000000564704976
 20
88.4418391454690749
 30
0.0
 40
0.2165058501627209
 50
354.9998891474493234
 51
175.0002320843182986
  0
LINE
  5
3B21
  8
0
 10
138.2980520558195963
 20
88.5198890537825349
 30
0.0
 11
137.0137131575255864
 21
86.1144475025249676
 31
0.0
  0
LINE
  5
3B22
  8
0
 10
138.1916234161695911
 20
87.4012069888161562
 30
0.0
 11
137.4212347834788943
 21
85.9583449999999942
 31
0.0
  0
ARC
  5
3B23
  8
0
 10
138.5000000564706113
 20
88.4418391454691033
 30
0.0
 40
0.2165058501626941
 50
354.9998891474435823
 51
175.0002320843231871
  0
LINE
  5
3B24
  8
0
 10
138.0653890000000104
 20
85.9583449999999942
 30
0.0
 11
138.2843180000000132
 21
88.4607079999999684
 31
0.0
  0
LINE
  5
3B25
  8
0
 10
138.5000560000000007
 20
85.9583449999999942
 30
0.0
 11
138.7156819999999868
 21
88.4229689999999948
 31
0.0
  0
LINE
  5
3B26
  8
0
 10
140.0000560000000007
 20
85.9583449999999942
 30
0.0
 11
140.2156819999999868
 21
88.4229689999999948
 31
0.0
  0
ARC
  5
3B27
  8
0
 10
140.0000000564704976
 20
88.4418391454691033
 30
0.0
 40
0.2165058501626658
 50
354.9998891474435823
 51
175.0002320843240113
  0
LINE
  5
3B28
  8
0
 10
139.7980520558197952
 20
88.5198890537831318
 30
0.0
 11
138.5137131575255864
 21
86.1144475025250955
 31
0.0
  0
LINE
  5
3B29
  8
0
 10
139.6916234161695911
 20
87.4012069888161136
 30
0.0
 11
138.921234783479008
 21
85.9583449999999942
 31
0.0
  0
LINE
  5
3B2A
  8
0
 10
139.5653890000000104
 20
85.9583449999999942
 30
0.0
 11
139.7843180000000132
 21
88.4607079999999684
 31
0.0
  0
LINE
  5
3B2B
  8
0
 10
141.5000560000000007
 20
85.9583449999999942
 30
0.0
 11
141.7156819999999868
 21
88.4229689999999948
 31
0.0
  0
ARC
  5
3B2C
  8
0
 10
141.5000000564706113
 20
88.4418391454691033
 30
0.0
 40
0.2165058501626938
 50
354.9998891474443781
 51
175.0002320843223913
  0
LINE
  5
3B2D
  8
0
 10
141.2980520558195963
 20
88.5198890537825349
 30
0.0
 11
140.0137131575255864
 21
86.1144475025250529
 31
0.0
  0
LINE
  5
3B2E
  8
0
 10
141.1916234161695911
 20
87.4012069888162273
 30
0.0
 11
140.421234783479008
 21
85.9583449999999942
 31
0.0
  0
LINE
  5
3B2F
  8
0
 10
141.0653890000000104
 20
85.9583449999999942
 30
0.0
 11
141.2843180000000132
 21
88.4607079999999684
 31
0.0
  0
LINE
  5
3B30
  8
0
 10
143.0000560000000007
 20
85.9583449999999942
 30
0.0
 11
143.2156819999999868
 21
88.4229689999999948
 31
0.0
  0
ARC
  5
3B31
  8
0
 10
143.0000000564706113
 20
88.4418391454690749
 30
0.0
 40
0.2165058501626639
 50
354.9998891474485276
 51
175.0002320843182986
  0
LINE
  5
3B32
  8
0
 10
142.7980520558199089
 20
88.5198890537833876
 30
0.0
 11
141.5137131575255864
 21
86.114447502524996
 31
0.0
  0
LINE
  5
3B33
  8
0
 10
142.6916234161695911
 20
87.4012069888162273
 30
0.0
 11
141.921234783479008
 21
85.9583449999999942
 31
0.0
  0
LINE
  5
3B34
  8
0
 10
142.5653890000000104
 20
85.9583449999999942
 30
0.0
 11
142.7843179999998995
 21
88.4607079999999684
 31
0.0
  0
LINE
  5
3B35
  8
0
 10
144.2980520558195963
 20
88.5198890537825349
 30
0.0
 11
143.0137131575255864
 21
86.1144475025250529
 31
0.0
  0
LINE
  5
3B36
  8
0
 10
144.1916234161695911
 20
87.4012069888161562
 30
0.0
 11
143.421234783479008
 21
85.9583449999999942
 31
0.0
  0
LINE
  5
3B38
  8
0
 10
144.0653890000000104
 20
85.9583449999999942
 30
0.0
 11
144.2843180000000132
 21
88.4607079999999684
 31
0.0
  0
ARC
  5
3B5E
  8
0
 10
166.2849999999999966
 20
92.2583449999999914
 30
0.0
 40
0.215
 50
270.0
 51
90.0
  0
LINE
  5
3B5F
  8
0
 10
164.5935739999999896
 20
92.043344999999988
 30
0.0
 11
166.2849999999999966
 21
92.043344999999988
 31
0.0
  0
LINE
  5
3B60
  8
0
 10
164.5935739999999896
 20
92.4733449999999948
 30
0.0
 11
166.2849999999999966
 21
92.4733449999999948
 31
0.0
  0
LINE
  5
3B7D
  8
0
 10
164.5557528178705979
 20
92.8210366546428958
 30
0.0
 11
165.3043367415517935
 21
92.4733449999999948
 31
0.0
  0
LINE
  5
3B7E
  8
0
 10
164.4279974035482041
 20
93.3578147818797817
 30
0.0
 11
166.3697775751606969
 21
92.4559247630069052
 31
0.0
  0
ARC
  5
3B80
  8
0
 10
161.2057975816393878
 20
88.5665786233366674
 30
0.0
 40
0.214997546980118
 50
154.728453643665091
 51
198.0002038723700082
  0
LINE
  5
3B81
  8
0
 10
164.4279974035482041
 20
91.1588752181202011
 30
0.0
 11
166.3697775751606969
 21
92.0607652369930634
 31
0.0
  0
LINE
  5
3B82
  8
0
 10
164.5557528178705979
 20
91.695653345357087
 30
0.0
 11
165.3043367415517935
 21
92.043344999999988
 31
0.0
  0
LINE
  5
3B83
  8
0
 10
163.6184854582197943
 20
89.7553961601289529
 30
0.0
 11
165.9875385504250005
 21
90.0426386738500639
 31
0.0
  0
LINE
  5
3B84
  8
0
 10
163.9776848406634997
 20
90.2351314695780076
 30
0.0
 11
164.9688722454143885
 21
90.3553115553815758
 31
0.0
  0
LINE
  5
3B85
  8
0
 10
162.6585183864926876
 20
88.7002991591105854
 30
0.0
 11
165.0003923778292858
 21
88.2414031971044466
 31
0.0
  0
LINE
  5
3B86
  8
0
 10
162.7649669221692932
 20
89.1206879499628002
 30
0.0
 11
164.1281975322447124
 21
88.8535594863440537
 31
0.0
  0
LINE
  5
3B87
  8
0
 10
161.5964569223590956
 20
88.0600140372122127
 30
0.0
 11
163.4934150872174996
 21
86.8407454609953646
 31
0.0
  0
LINE
  5
3B88
  8
0
 10
161.4268925581195049
 20
88.6837453379647798
 30
0.0
 11
162.7629605656817944
 21
87.824987645032067
 31
0.0
  0
LINE
  5
3B89
  8
0
 10
160.2726450362710011
 20
87.8096193167630474
 30
0.0
 11
161.8081570307699906
 21
86.0750225292424744
 31
0.0
  0
LINE
  5
3B8A
  8
0
 10
160.1783284400399907
 20
88.5646142670814953
 30
0.0
 11
161.4454770076430918
 21
87.133174329970899
 31
0.0
  0
LINE
  5
3B8B
  8
0
 10
158.786215710999187
 20
87.6545062238198085
 30
0.0
 11
160.0242359022379048
 21
85.8759994532632192
 31
0.0
  0
LINE
  5
3B8C
  8
0
 10
158.691389524182199
 20
88.5430558020639609
 30
0.0
 11
159.9294106589740068
 21
86.7645472441303269
 31
0.0
  0
LINE
  5
3B8D
  8
0
 10
157.1913895241820001
 20
88.5430558020640746
 30
0.0
 11
158.4294106589738931
 21
86.7645472441304833
 31
0.0
  0
LINE
  5
3B8E
  8
0
 10
157.2862157109993007
 20
87.6545062238197659
 30
0.0
 11
158.5242359022377912
 21
85.8759994532631765
 31
0.0
  0
ARC
  5
3B8F
  8
0
 10
157.2156269658646863
 20
85.9772150906163262
 30
0.0
 40
0.216506087912218
 50
265.8552129240080717
 51
4.9999738924353023
  0
ARC
  5
3B90
  8
0
 10
158.7156265460357929
 20
85.9772154379706137
 30
0.0
 40
0.2165064758700895
 50
185.0001740679869897
 51
4.9998726360092478
  0
ARC
  5
3B91
  8
0
 10
160.2156265460357929
 20
85.9772154379706421
 30
0.0
 40
0.2165064758700919
 50
185.0001740679942941
 51
4.9998726359995143
  0
ARC
  5
3B92
  8
0
 10
161.2058022799982098
 20
88.5665792245498267
 30
0.0
 40
0.2149974165579719
 50
17.9999775795963401
 51
31.6528402225796803
  0
ARC
  5
3B93
  8
0
 10
161.9690719121182951
 20
86.2174687704725642
 30
0.0
 40
0.2149998088634585
 50
198.000049245294889
 51
17.9998976689562298
  0
LINE
  5
3B94
  8
0
 10
161.4102770000000078
 20
88.6330169999999953
 30
0.0
 11
162.1735490000000084
 21
86.2839069999999992
 31
0.0
  0
LINE
  5
3B95
  8
0
 10
161.0013230000000135
 20
88.5001399999999876
 30
0.0
 11
161.7645950000000141
 21
86.1510299999999916
 31
0.0
  0
ARC
  5
3B96
  8
0
 10
163.6149583413906043
 20
87.0180932183066034
 30
0.0
 40
0.2149999759495747
 50
216.000132815174311
 51
35.9999889936722397
  0
LINE
  5
3B97
  8
0
 10
162.4632101868286043
 20
88.9691177428526174
 30
0.0
 11
163.7888969999999915
 21
87.1444669999999917
 31
0.0
  0
LINE
  5
3B98
  8
0
 10
162.0448947570534983
 20
88.8133203343869866
 30
0.0
 11
163.4410200000000088
 21
86.8917189999999948
 31
0.0
  0
ARC
  5
3B99
  8
0
 10
165.0479436922028924
 20
88.4510792236274739
 30
0.0
 40
0.2150003804581282
 50
234.0001188044141998
 51
53.9999160267478118
  0
LINE
  5
3B9A
  8
0
 10
163.6002606378675068
 20
89.7686372631045799
 30
0.0
 11
165.1743179999999995
 21
88.625017999999983
 31
0.0
  0
LINE
  5
3B9B
  8
0
 10
163.2783369835952101
 20
89.4710200119187391
 30
0.0
 11
164.9215700000000027
 21
88.2771399999999744
 31
0.0
  0
ARC
  5
3B9C
  8
0
 10
165.9679780348351983
 20
90.2567469886812574
 30
0.0
 40
0.2149999633720673
 50
251.9998900573112053
 51
71.9999095793974107
  0
LINE
  5
3B9D
  8
0
 10
164.3732754978663024
 20
91.0009618382332945
 30
0.0
 11
166.0344169999999906
 21
90.4612239999999872
 31
0.0
  0
LINE
  5
3B9E
  8
0
 10
164.198245590830112
 20
90.6057031329472267
 30
0.0
 11
165.9015390000000139
 21
90.0522699999999929
 31
0.0
  0
LINE
  5
3B9F
  8
0
 10
160.4313091913456049
 20
85.996084741239315
 30
0.0
 11
160.2156819999999016
 21
88.4607079999999684
 31
0.0
  0
LINE
  5
3BA0
  8
0
 10
159.999943999999914
 20
85.9583449999999942
 30
0.0
 11
159.7843180000000132
 21
88.4229689999999948
 31
0.0
  0
ARC
  5
3BA1
  8
0
 10
159.9999999435293887
 20
88.4418391454690607
 30
0.0
 40
0.2165058501626665
 50
4.9997679156897759
 51
185.0001108525441964
  0
LINE
  5
3BA2
  8
0
 10
158.9313091913456049
 20
85.996084741239315
 30
0.0
 11
158.7156819999999016
 21
88.4607079999999684
 31
0.0
  0
LINE
  5
3BA3
  8
0
 10
158.499943999999914
 20
85.9583449999999942
 30
0.0
 11
158.2843180000000132
 21
88.4229689999999948
 31
0.0
  0
ARC
  5
3BA4
  8
0
 10
158.4999999435295024
 20
88.4418391454690607
 30
0.0
 40
0.2165058501626665
 50
4.9997679156897759
 51
185.0001108525441964
  0
LINE
  5
3BA5
  8
0
 10
157.4313091913456049
 20
85.996084741239315
 30
0.0
 11
157.2156819999999016
 21
88.4607079999999684
 31
0.0
  0
LINE
  5
3BA6
  8
0
 10
156.999943999999914
 20
85.9583449999999942
 30
0.0
 11
156.7843180000000132
 21
88.4229689999999948
 31
0.0
  0
ARC
  5
3BA7
  8
0
 10
156.9999999435293887
 20
88.4418391454690038
 30
0.0
 40
0.2165058501626708
 50
4.999767915702896
 51
185.000110852531094
  0
LINE
  5
3BA8
  8
0
 10
155.7019479441802901
 20
88.5198890537828191
 30
0.0
 11
156.9862868424744136
 21
86.114447502524925
 31
0.0
  0
LINE
  5
3BA9
  8
0
 10
155.8080209999999965
 20
87.4052699999999732
 30
0.0
 11
156.5805790000000002
 21
85.9583449999999942
 31
0.0
  0
ARC
  5
3BAA
  8
0
 10
155.4999999435293887
 20
88.4418391454690749
 30
0.0
 40
0.2165058501626923
 50
4.999767915681665
 51
185.0001108525522966
  0
LINE
  5
3BAB
  8
0
 10
155.9346109999999044
 20
85.9583449999999942
 30
0.0
 11
155.7156819999999016
 21
88.4607079999999684
 31
0.0
  0
LINE
  5
3BAC
  8
0
 10
155.4999439999999993
 20
85.9583449999999942
 30
0.0
 11
155.2843180000000132
 21
88.4229689999999948
 31
0.0
  0
LINE
  5
3BAD
  8
0
 10
153.999943999999914
 20
85.9583449999999942
 30
0.0
 11
153.7843180000000132
 21
88.4229689999999948
 31
0.0
  0
ARC
  5
3BAE
  8
0
 10
153.9999999435295024
 20
88.4418391454690322
 30
0.0
 40
0.2165058501626409
 50
4.9997679156988397
 51
185.0001108525335098
  0
LINE
  5
3BAF
  8
0
 10
154.2019479441802901
 20
88.5198890537828618
 30
0.0
 11
155.4862868424742999
 21
86.1144475025250387
 31
0.0
  0
LINE
  5
3BB0
  8
0
 10
154.3083765838302952
 20
87.4012069888162273
 30
0.0
 11
155.078765216520992
 21
85.9583449999999942
 31
0.0
  0
LINE
  5
3BB1
  8
0
 10
154.4346109999999044
 20
85.9583449999999942
 30
0.0
 11
154.2156819999999868
 21
88.4607079999999684
 31
0.0
  0
LINE
  5
3BB2
  8
0
 10
152.4999439999999993
 20
85.9583449999999942
 30
0.0
 11
152.2843180000000132
 21
88.4229689999999948
 31
0.0
  0
ARC
  5
3BB3
  8
0
 10
152.4999999435293887
 20
88.441839145469217
 30
0.0
 40
0.2165058501627372
 50
4.9997679156448811
 51
185.0001108525875111
  0
LINE
  5
3BB4
  8
0
 10
152.701947944180489
 20
88.5198890537823502
 30
0.0
 11
153.9862868424742999
 21
86.1144475025250671
 31
0.0
  0
LINE
  5
3BB5
  8
0
 10
152.8083765838302952
 20
87.4012069888162273
 30
0.0
 11
153.578765216520992
 21
85.9583449999999942
 31
0.0
  0
LINE
  5
3BB6
  8
0
 10
152.9346109999999044
 20
85.9583449999999942
 30
0.0
 11
152.7156819999999868
 21
88.4607079999999684
 31
0.0
  0
LINE
  5
3BB7
  8
0
 10
150.999943999999914
 20
85.9583449999999942
 30
0.0
 11
150.7843180000000132
 21
88.4229689999999948
 31
0.0
  0
ARC
  5
3BB8
  8
0
 10
150.9999999435295024
 20
88.4418391454690607
 30
0.0
 40
0.2165058501626948
 50
4.9997679156897759
 51
185.0001108525432869
  0
LINE
  5
3BB9
  8
0
 10
151.2019479441804037
 20
88.5198890537824923
 30
0.0
 11
152.4862868424744136
 21
86.1144475025249676
 31
0.0
  0
LINE
  5
3BBA
  8
0
 10
151.3083765838302952
 20
87.4012069888162699
 30
0.0
 11
152.078765216520992
 21
85.9583449999999942
 31
0.0
  0
LINE
  5
3BBB
  8
0
 10
151.4346109999999044
 20
85.9583449999999942
 30
0.0
 11
151.2156819999999868
 21
88.4607079999999684
 31
0.0
  0
LINE
  5
3BBC
  8
0
 10
149.7019479441804037
 20
88.519889053782606
 30
0.0
 11
150.9862868424742999
 21
86.114447502524996
 31
0.0
  0
LINE
  5
3BBD
  8
0
 10
149.8083765838302952
 20
87.4012069888161562
 30
0.0
 11
150.578765216520992
 21
85.9583449999999942
 31
0.0
  0
ARC
  5
3BBE
  8
0
 10
149.4999999435295024
 20
88.4418391454690038
 30
0.0
 40
0.2165058501626708
 50
4.999767915702896
 51
185.0001108525295024
  0
LINE
  5
3BBF
  8
0
 10
149.9346109999999044
 20
85.9583449999999942
 30
0.0
 11
149.7156819999999868
 21
88.4607079999999684
 31
0.0
  0
LINE
  5
3BC0
  8
0
 10
149.499943999999914
 20
85.9583449999999942
 30
0.0
 11
149.2843180000000132
 21
88.4229689999999948
 31
0.0
  0
ARC
  5
3BC1
  8
0
 10
147.0
 20
88.4418389999999874
 30
0.0
 40
0.216506
 50
0.0
 51
180.0
  0
LINE
  5
3BC2
  8
0
 10
147.2165060000000096
 20
85.9583449999999942
 30
0.0
 11
147.2165060000000096
 21
88.4418389999999874
 31
0.0
  0
LINE
  5
3BC3
  8
0
 10
147.9999439999999993
 20
85.9583449999999942
 30
0.0
 11
147.7843179999998995
 21
88.4229689999999948
 31
0.0
  0
LINE
  5
3BC4
  8
0
 10
148.4346109999999044
 20
85.9583449999999942
 30
0.0
 11
148.2156819999999868
 21
88.4607079999999684
 31
0.0
  0
ARC
  5
3BC5
  8
0
 10
147.9999999435293887
 20
88.4418391454690607
 30
0.0
 40
0.2165058501627231
 50
4.9997679156889641
 51
185.0001108525441964
  0
LINE
  5
3BC6
  8
0
 10
148.3083765838302952
 20
87.4012069888162983
 30
0.0
 11
149.0787652165209067
 21
85.9583449999999942
 31
0.0
  0
LINE
  5
3BC7
  8
0
 10
148.2019479441804037
 20
88.519889053782606
 30
0.0
 11
149.4862868424742999
 21
86.1144475025249818
 31
0.0
  0
LINE
  5
3BC8
  8
0
 10
147.3334940000000017
 20
85.9583449999999942
 30
0.0
 11
147.3334940000000017
 21
88.4418389999999874
 31
0.0
  0
LINE
  5
3BC9
  8
0
 10
147.7665059999999926
 20
85.9583449999999942
 30
0.0
 11
147.7665059999999926
 21
88.4418389999999874
 31
0.0
  0
ARC
  5
3BCA
  8
0
 10
147.5500000000000114
 20
88.4418389999999874
 30
0.0
 40
0.216506
 50
0.0
 51
180.0
  0
LINE
  5
3BCB
  8
0
 10
147.9804100000000062
 20
85.9583449999999942
 30
0.0
 11
147.7665059999999926
 21
86.7702419999999961
 31
0.0
  0
LINE
  5
3BCC
  8
0
 10
147.3041079999998999
 20
85.9583449999999942
 30
0.0
 11
147.2165060000000096
 21
86.2908489999999944
 31
0.0
  0
LINE
  5
3BCD
  8
0
 10
121.0000051462523061
 20
102.1583449999999971
 30
0.0
 11
121.0000051462523061
 21
81.1583449999999971
 31
0.0
  0
ARC
  5
3BCE
  8
0
 10
121.5000051462523061
 20
81.1583449999999971
 30
0.0
 40
0.5
 50
180.0
 51
270.0
  0
ARC
  5
3BCF
  8
0
 10
121.5000051462523061
 20
102.1583449999999971
 30
0.0
 40
0.5
 50
90.0
 51
180.0
  0
LINE
  5
3BD0
  8
1
 10
111.0000051462523061
 20
91.6583450000000255
 30
0.0
 11
123.0000051462523061
 21
91.6583450000000255
 31
0.0
  0
LINE
  5
3BD1
  8
5
 10
117.5000051462523061
 20
81.1583449999999971
 30
0.0
 11
117.5000051462523061
 21
83.6583450000000823
 31
0.0
  0
LINE
  5
3BD2
  8
5
 10
117.5000051462523061
 20
99.6583450000000823
 30
0.0
 11
117.5000051462523061
 21
102.1583449999999971
 31
0.0
  0
LINE
  5
3BD3
  8
0
 10
119.4898347730473063
 20
83.6583450000000823
 30
0.0
 11
121.000005146252505
 21
83.6583450000000823
 31
0.0
  0
LINE
  5
3BD4
  8
0
 10
121.0000051462523061
 20
99.6583450000000823
 30
0.0
 11
119.4898347730472068
 21
99.6583450000000823
 31
0.0
  0
LINE
  5
3BD5
  8
0
 10
119.4898347730472068
 20
99.6583449991026527
 30
0.0
 11
118.4898347725985985
 21
98.6583450004488043
 31
0.0
  0
LINE
  5
3BD6
  8
0
 10
118.489834772598698
 20
84.6583449995513035
 30
0.0
 11
119.4898347730473063
 21
83.6583450008974552
 31
0.0
  0
LINE
  5
3BD7
  8
0
 10
117.7000051462523942
 20
84.6583450000000255
 30
0.0
 11
118.4898347725985985
 21
84.6583450000000255
 31
0.0
  0
LINE
  5
3BD8
  8
0
 10
118.4898347725985985
 20
98.6583450000000823
 30
0.0
 11
117.7000051462522947
 21
98.6583450000000823
 31
0.0
  0
LINE
  5
3BD9
  8
0
 10
119.4898347730472068
 20
99.6583450000000823
 30
0.0
 11
119.4898347730473063
 21
83.6583450000000255
 31
0.0
  0
LINE
  5
3BDA
  8
0
 10
118.4898347725985985
 20
98.6583450004488043
 30
0.0
 11
118.4898347725985985
 21
84.6583449995513035
 31
0.0
  0
LINE
  5
3BDB
  8
0
 10
117.7000051462522947
 20
98.6583450000000255
 30
0.0
 11
117.7000051462523942
 21
84.6583450000000255
 31
0.0
  0
LINE
  5
3BDC
  8
0
 10
116.0000051462524056
 20
86.8583449999999857
 30
0.0
 11
116.0000051462523061
 21
96.4583450000000084
 31
0.0
  0
LINE
  5
3BDD
  8
5
 10
115.9898347730473063
 20
83.6583450000000823
 30
0.0
 11
117.5000051462524056
 21
83.6583450000000823
 31
0.0
  0
LINE
  5
3BDE
  8
5
 10
117.5000051462523061
 20
99.6583450000000823
 30
0.0
 11
115.9898347730472068
 21
99.6583450000000823
 31
0.0
  0
LINE
  5
3BDF
  8
5
 10
115.9898347730472068
 20
99.6583449991026527
 30
0.0
 11
114.9898347725985985
 21
98.6583450004488043
 31
0.0
  0
LINE
  5
3BE0
  8
5
 10
114.989834772598698
 20
84.6583449995513035
 30
0.0
 11
115.9898347730473063
 21
83.6583450008974552
 31
0.0
  0
ARC
  5
3BE1
  8
0
 10
119.6000051462523004
 20
91.6583450000000255
 30
0.0
 40
6.0
 50
108.4614582967682992
 51
126.8698976458455974
  0
ARC
  5
3BE2
  8
0
 10
119.6000051462523004
 20
91.6583450000000255
 30
0.0
 40
6.0
 50
233.1301023541583959
 51
251.5385417032316013
  0
LINE
  5
3BE3
  8
5
 10
114.2000051453548934
 20
84.6583449991025816
 30
0.0
 11
114.9898347717010978
 21
84.6583449991025816
 31
0.0
  0
LINE
  5
3BE4
  8
5
 10
114.9898347717010978
 20
98.6583449991026242
 30
0.0
 11
114.200005145354794
 21
98.6583449991026242
 31
0.0
  0
LINE
  5
3BE5
  8
5
 10
112.5000051453550043
 20
86.858344999102556
 30
0.0
 11
112.5000051453548053
 21
96.4583449991025645
 31
0.0
  0
ARC
  5
3BE6
  8
5
 10
116.1000051453548991
 20
91.6583449991025958
 30
0.0
 40
6.0
 50
108.4614582967682992
 51
126.8698976458455974
  0
ARC
  5
3BE7
  8
5
 10
116.1000051453548991
 20
91.6583449991025958
 30
0.0
 40
6.0
 50
233.1301023541583959
 51
251.5385417032316013
  0
LINE
  5
3BE8
  8
5
 10
114.200005145354794
 20
98.6583449991026242
 30
0.0
 11
114.200005145354794
 21
97.3495663091554491
 31
0.0
  0
LINE
  5
3BE9
  8
5
 10
114.2000051453548934
 20
85.9671236890496857
 30
0.0
 11
114.2000051453548934
 21
84.6583449991025816
 31
0.0
  0
ARC
  5
3BEA
  8
5
 10
118.0000051462523061
 20
102.1583449999999971
 30
0.0
 40
0.5
 50
90.0
 51
180.0
  0
ARC
  5
3BEB
  8
5
 10
118.0000051462523061
 20
81.1583449999999971
 30
0.0
 40
0.5
 50
180.0
 51
270.0
  0
LINE
  5
3BEC
  8
5
 10
121.0000051462523061
 20
102.6583449999999971
 30
0.0
 11
118.0000051462523061
 21
102.6583449999999971
 31
0.0
  0
LINE
  5
3BED
  8
5
 10
121.0000051462523061
 20
80.6583449999999971
 30
0.0
 11
118.0000051462523061
 21
80.6583449999999971
 31
0.0
  0
LINE
  5
3BEE
  8
0
 10
172.9999948537476087
 20
102.1583449999999971
 30
0.0
 11
172.9999948537476087
 21
81.1583449999999971
 31
0.0
  0
ARC
  5
3BEF
  8
0
 10
172.4999948537476087
 20
81.1583449999999971
 30
0.0
 40
0.5
 50
270.0
 51
0.0
  0
ARC
  5
3BF0
  8
0
 10
172.4999948537476087
 20
102.1583449999999971
 30
0.0
 40
0.5
 50
0.0
 51
90.0
  0
LINE
  5
3BF1
  8
1
 10
182.9999948537476087
 20
91.6583450000000255
 30
0.0
 11
170.9999948537476087
 21
91.6583450000000255
 31
0.0
  0
LINE
  5
3BF2
  8
5
 10
176.4999948537476087
 20
81.1583449999999971
 30
0.0
 11
176.4999948537476087
 21
83.6583450000000823
 31
0.0
  0
LINE
  5
3BF3
  8
5
 10
176.4999948537476087
 20
99.6583450000000823
 30
0.0
 11
176.4999948537476087
 21
102.1583449999999971
 31
0.0
  0
LINE
  5
3BF4
  8
0
 10
174.5101652269526085
 20
83.6583450000000823
 30
0.0
 11
172.999994853747495
 21
83.6583450000000823
 31
0.0
  0
LINE
  5
3BF5
  8
0
 10
172.9999948537476087
 20
99.6583450000000823
 30
0.0
 11
174.5101652269528074
 21
99.6583450000000823
 31
0.0
  0
LINE
  5
3BF6
  8
0
 10
174.5101652269528074
 20
99.6583449991026527
 30
0.0
 11
175.5101652274013873
 21
98.6583450004488043
 31
0.0
  0
LINE
  5
3BF7
  8
0
 10
175.510165227401302
 20
84.6583449995513035
 30
0.0
 11
174.5101652269526085
 21
83.6583450008974552
 31
0.0
  0
LINE
  5
3BF8
  8
0
 10
176.2999948537475916
 20
84.6583450000000255
 30
0.0
 11
175.5101652274013873
 21
84.6583450000000255
 31
0.0
  0
LINE
  5
3BF9
  8
0
 10
175.5101652274013873
 20
98.6583450000000823
 30
0.0
 11
176.2999948537477053
 21
98.6583450000000823
 31
0.0
  0
LINE
  5
3BFA
  8
0
 10
174.5101652269528074
 20
99.6583450000000823
 30
0.0
 11
174.5101652269526085
 21
83.6583450000000255
 31
0.0
  0
LINE
  5
3BFB
  8
0
 10
175.5101652274013873
 20
98.6583450004488043
 30
0.0
 11
175.5101652274013873
 21
84.6583449995513035
 31
0.0
  0
LINE
  5
3BFC
  8
0
 10
176.2999948537477053
 20
98.6583450000000255
 30
0.0
 11
176.2999948537475916
 21
84.6583450000000255
 31
0.0
  0
LINE
  5
3BFD
  8
0
 10
177.9999948537476087
 20
86.8583449999999857
 30
0.0
 11
177.9999948537476939
 21
96.4583450000000084
 31
0.0
  0
LINE
  5
3BFE
  8
5
 10
178.0101652269526085
 20
83.6583450000000823
 30
0.0
 11
176.499994853747495
 21
83.6583450000000823
 31
0.0
  0
LINE
  5
3BFF
  8
5
 10
176.4999948537476087
 20
99.6583450000000823
 30
0.0
 11
178.0101652269528074
 21
99.6583450000000823
 31
0.0
  0
LINE
  5
3C00
  8
5
 10
178.0101652269528074
 20
99.6583449991026527
 30
0.0
 11
179.0101652274013873
 21
98.6583450004488043
 31
0.0
  0
LINE
  5
3C01
  8
5
 10
179.0101652274011883
 20
84.6583449995513035
 30
0.0
 11
178.0101652269526085
 21
83.6583450008974552
 31
0.0
  0
ARC
  5
3C02
  8
0
 10
174.3999948537475859
 20
91.6583450000000255
 30
0.0
 40
6.0
 50
53.1301023541543387
 51
71.5385417032316298
  0
ARC
  5
3C03
  8
0
 10
174.3999948537475859
 20
91.6583450000000255
 30
0.0
 40
6.0
 50
288.4614582967683987
 51
306.8698976458414904
  0
LINE
  5
3C04
  8
5
 10
179.7999948546450071
 20
84.6583449991025816
 30
0.0
 11
179.0101652282988027
 21
84.6583449991025816
 31
0.0
  0
LINE
  5
3C05
  8
5
 10
179.0101652282988027
 20
98.6583449991026242
 30
0.0
 11
179.7999948546450923
 21
98.6583449991026242
 31
0.0
  0
LINE
  5
3C06
  8
5
 10
181.4999948546449957
 20
86.858344999102556
 30
0.0
 11
181.4999948546451094
 21
96.4583449991025645
 31
0.0
  0
ARC
  5
3C07
  8
5
 10
177.8999948546450867
 20
91.6583449991025958
 30
0.0
 40
6.0
 50
53.1301023541543387
 51
71.5385417032316298
  0
ARC
  5
3C08
  8
5
 10
177.8999948546450867
 20
91.6583449991025958
 30
0.0
 40
6.0
 50
288.4614582967683987
 51
306.8698976458414904
  0
LINE
  5
3C09
  8
5
 10
179.7999948546450923
 20
98.6583449991026242
 30
0.0
 11
179.7999948546450923
 21
97.3495663091554491
 31
0.0
  0
LINE
  5
3C0A
  8
5
 10
179.7999948546450071
 20
85.9671236890496857
 30
0.0
 11
179.7999948546450071
 21
84.6583449991025816
 31
0.0
  0
ARC
  5
3C0B
  8
5
 10
175.9999948537476087
 20
102.1583449999999971
 30
0.0
 40
0.5
 50
0.0
 51
90.0
  0
ARC
  5
3C0C
  8
5
 10
175.9999948537476087
 20
81.1583449999999971
 30
0.0
 40
0.5
 50
270.0
 51
0.0
  0
LINE
  5
3C0D
  8
5
 10
172.9999948537476087
 20
102.6583449999999971
 30
0.0
 11
175.9999948537476087
 21
102.6583449999999971
 31
0.0
  0
LINE
  5
3C0E
  8
5
 10
172.9999948537476087
 20
80.6583449999999971
 30
0.0
 11
175.9999948537476087
 21
80.6583449999999971
 31
0.0
  0
ARC
  5
3C0F
  8
0
 10
157.0
 20
98.3583449999999999
 30
0.0
 40
0.2
 50
270.0
 51
0.0
  0
ARC
  5
3C10
  8
0
 10
157.0
 20
98.5583450000000028
 30
0.0
 40
0.2
 50
270.0
 51
0.0
  0
LINE
  5
3C1C
  8
0
 10
144.5350513583182988
 20
98.1583450000000113
 30
0.0
 11
144.7156819999999868
 21
96.093720999999988
 31
0.0
  0
ARC
  5
3C1D
  8
0
 10
144.5000000564706113
 20
96.0748508545308795
 30
0.0
 40
0.2165058501626938
 50
184.9997679156776087
 51
5.0001108525547497
  0
ARC
  5
3C1E
  8
0
 10
132.7942024183606122
 20
95.9501113766633154
 30
0.0
 40
0.2149975469800963
 50
334.728453643662192
 51
18.0002038723728113
  0
LINE
  5
3C1F
  8
0
 10
130.3815145417802057
 20
94.7612938398710298
 30
0.0
 11
128.0124614495746869
 21
94.4740513261498762
 31
0.0
  0
LINE
  5
3C20
  8
0
 10
130.0223151593363866
 20
94.2815585304219752
 30
0.0
 11
129.0311277545856115
 21
94.1613784446183928
 31
0.0
  0
LINE
  5
3C21
  8
0
 10
131.3414816135073977
 20
95.8163908408893832
 30
0.0
 11
128.9996076221731869
 21
96.2752868028950104
 31
0.0
  0
LINE
  5
3C22
  8
0
 10
131.2350330778307068
 20
95.3960020500371826
 30
0.0
 11
129.8718024677552023
 21
95.6631305136559433
 31
0.0
  0
LINE
  5
3C23
  8
0
 10
132.4035430776407907
 20
96.4566759627877843
 30
0.0
 11
130.5065849127807951
 21
97.6759445390057834
 31
0.0
  0
LINE
  5
3C24
  8
0
 10
132.5731074418804951
 20
95.832944662035203
 30
0.0
 11
131.2370394343182056
 21
96.6917023549679158
 31
0.0
  0
LINE
  5
3C25
  8
0
 10
133.7273549637289136
 20
96.7070706832369638
 30
0.0
 11
132.1960553342642015
 21
98.4369089570614193
 31
0.0
  0
LINE
  5
3C26
  8
0
 10
133.8216715599598956
 20
95.9520757329185443
 30
0.0
 11
132.5545229923569082
 21
97.3835156700291122
 31
0.0
  0
LINE
  5
3C27
  8
0
 10
135.2137842890006993
 20
96.8621837761802169
 30
0.0
 11
133.9757640977624078
 21
98.6406905467362805
 31
0.0
  0
LINE
  5
3C28
  8
0
 10
135.3086104758176873
 20
95.973634197936164
 30
0.0
 11
134.070589341025908
 21
97.7521427558695706
 31
0.0
  0
LINE
  5
3C29
  8
0
 10
136.8086104758174031
 20
95.9736341979367324
 30
0.0
 11
135.5705893410259932
 21
97.7521427558695848
 31
0.0
  0
LINE
  5
3C2A
  8
0
 10
136.713784289000813
 20
96.8621837761802453
 30
0.0
 11
135.4757640977622088
 21
98.6406905467366357
 31
0.0
  0
ARC
  5
3C2B
  8
0
 10
136.7843730341454034
 20
98.5394749093774465
 30
0.0
 40
0.2165060879216873
 50
85.8552129268457946
 51
184.9999738905684978
  0
ARC
  5
3C2C
  8
0
 10
135.2843734539642071
 20
98.5394745620293122
 30
0.0
 40
0.2165064758701099
 50
5.0001740680007867
 51
184.9998726359928014
  0
ARC
  5
3C2D
  8
0
 10
133.7843734539642071
 20
98.5394745620293833
 30
0.0
 40
0.2165064758701164
 50
5.0001740679811784
 51
184.9998726360124977
  0
ARC
  5
3C2E
  8
0
 10
132.7941977200019892
 20
95.950110775450085
 30
0.0
 40
0.2149974165581047
 50
197.9999775795706114
 51
211.6528402225459899
  0
ARC
  5
3C2F
  8
0
 10
132.0309280878817049
 20
98.2992212295275465
 30
0.0
 40
0.2149998088634753
 50
18.0000492452542389
 51
197.9998976689965957
  0
LINE
  5
3C30
  8
0
 10
132.5897229999999922
 20
95.8836729999999875
 30
0.0
 11
131.8264509999999063
 21
98.2327829999999835
 31
0.0
  0
LINE
  5
3C31
  8
0
 10
132.9986769999999865
 20
96.0165499999999952
 30
0.0
 11
132.2354049999999859
 21
98.3656599999999912
 31
0.0
  0
ARC
  5
3C32
  8
0
 10
130.3850416586093104
 20
97.4985967816934078
 30
0.0
 40
0.2149999759495533
 50
36.0001328151587074
 51
215.9999889936933926
  0
LINE
  5
3C33
  8
0
 10
131.5367898131713957
 20
95.5475722571473369
 30
0.0
 11
130.2111030000000085
 21
97.3722229999999911
 31
0.0
  0
LINE
  5
3C34
  8
0
 10
131.955105242946388
 20
95.7033696656129678
 30
0.0
 11
130.5589799999999059
 21
97.624970999999988
 31
0.0
  0
ARC
  5
3C35
  8
0
 10
128.9520563077971076
 20
96.0656107763725231
 30
0.0
 40
0.2150003804581865
 50
54.0001188044223923
 51
233.9999160267437048
  0
LINE
  5
3C36
  8
0
 10
130.3997393621324932
 20
94.7480527368954171
 30
0.0
 11
128.8256819999998868
 21
95.8916719999999998
 31
0.0
  0
LINE
  5
3C37
  8
0
 10
130.7216630164047046
 20
95.0456699880812437
 30
0.0
 11
129.0784299999999121
 21
96.2395499999999942
 31
0.0
  0
ARC
  5
3C38
  8
0
 10
128.0320219651648017
 20
94.2599430113186969
 30
0.0
 40
0.2149999633720771
 50
71.9998900573078515
 51
251.9999095794146058
  0
LINE
  5
3C39
  8
0
 10
129.6267245021336123
 20
93.5157281617666598
 30
0.0
 11
127.9655829999999952
 21
94.0554659999999956
 31
0.0
  0
LINE
  5
3C3A
  8
0
 10
129.8017544091698028
 20
93.9109868670527561
 30
0.0
 11
128.0984609999999861
 21
94.4644199999999898
 31
0.0
  0
LINE
  5
3C3B
  8
0
 10
133.5686908086543099
 20
98.5206052587606678
 30
0.0
 11
133.7843180000000132
 21
96.0559820000000144
 31
0.0
  0
LINE
  5
3C3C
  8
0
 10
134.0000560000000007
 20
98.5583450000000028
 30
0.0
 11
134.2156819999999868
 21
96.093720999999988
 31
0.0
  0
ARC
  5
3C3D
  8
0
 10
134.0000000564706113
 20
96.0748508545308795
 30
0.0
 40
0.2165058501626658
 50
184.9997679156759887
 51
5.0001108525563733
  0
LINE
  5
3C3E
  8
0
 10
135.0686908086543951
 20
98.5206052587606678
 30
0.0
 11
135.2843180000000132
 21
96.0559820000000144
 31
0.0
  0
LINE
  5
3C3F
  8
0
 10
135.5000560000000007
 20
98.5583450000000028
 30
0.0
 11
135.7156819999999868
 21
96.093720999999988
 31
0.0
  0
ARC
  5
3C40
  8
0
 10
135.5000000564706113
 20
96.0748508545308795
 30
0.0
 40
0.2165058501626941
 50
184.9997679156759887
 51
5.0001108525563733
  0
LINE
  5
3C41
  8
0
 10
136.5686908086543099
 20
98.5206052587606678
 30
0.0
 11
136.7843180000000132
 21
96.0559820000000144
 31
0.0
  0
LINE
  5
3C42
  8
0
 10
137.0350513583182988
 20
98.1583450000000113
 30
0.0
 11
137.2156819999999868
 21
96.093720999999988
 31
0.0
  0
ARC
  5
3C43
  8
0
 10
137.0000000564704976
 20
96.0748508545308937
 30
0.0
 40
0.2165058501627209
 50
184.9997679156815877
 51
5.0001108525506952
  0
LINE
  5
3C44
  8
0
 10
138.2980520558195963
 20
95.9968009462174336
 30
0.0
 11
137.1439374995138962
 21
98.1583450000000113
 31
0.0
  0
LINE
  5
3C45
  8
0
 10
138.1916234161695911
 20
97.1154830111838265
 30
0.0
 11
137.6348071524683974
 21
98.1583450000000113
 31
0.0
  0
ARC
  5
3C46
  8
0
 10
138.5000000564706113
 20
96.0748508545308795
 30
0.0
 40
0.2165058501626941
 50
184.9997679156759887
 51
5.0001108525563733
  0
LINE
  5
3C47
  8
0
 10
138.1003845621945061
 20
98.1583450000000113
 30
0.0
 11
138.2843180000000132
 21
96.0559820000000144
 31
0.0
  0
LINE
  5
3C48
  8
0
 10
138.5350513583182988
 20
98.1583450000000113
 30
0.0
 11
138.7156819999999868
 21
96.093720999999988
 31
0.0
  0
LINE
  5
3C49
  8
0
 10
140.0350513583182988
 20
98.1583450000000113
 30
0.0
 11
140.2156819999999868
 21
96.093720999999988
 31
0.0
  0
ARC
  5
3C4A
  8
0
 10
140.0000000564704976
 20
96.0748508545308795
 30
0.0
 40
0.2165058501626658
 50
184.9997679156759887
 51
5.0001108525563733
  0
LINE
  5
3C4B
  8
0
 10
139.7980520558197952
 20
95.996800946216851
 30
0.0
 11
138.6439374995136973
 21
98.1583450000000113
 31
0.0
  0
LINE
  5
3C4C
  8
0
 10
139.6916234161695911
 20
97.1154830111838692
 30
0.0
 11
139.1348071524683974
 21
98.1583450000000113
 31
0.0
  0
LINE
  5
3C4D
  8
0
 10
139.6003845621945914
 20
98.1583450000000113
 30
0.0
 11
139.7843180000000132
 21
96.0559820000000144
 31
0.0
  0
LINE
  5
3C4E
  8
0
 10
141.5350513583182988
 20
98.1583450000000113
 30
0.0
 11
141.7156819999999868
 21
96.093720999999988
 31
0.0
  0
ARC
  5
3C4F
  8
0
 10
141.5000000564706113
 20
96.0748508545308795
 30
0.0
 40
0.2165058501626938
 50
184.9997679156776087
 51
5.0001108525547497
  0
LINE
  5
3C50
  8
0
 10
141.2980520558195963
 20
95.9968009462174336
 30
0.0
 11
140.143937499513811
 21
98.1583450000000113
 31
0.0
  0
LINE
  5
3C51
  8
0
 10
141.1916234161695911
 20
97.1154830111837555
 30
0.0
 11
140.6348071524683974
 21
98.1583450000000113
 31
0.0
  0
LINE
  5
3C52
  8
0
 10
141.1003845621945914
 20
98.1583450000000113
 30
0.0
 11
141.2843180000000132
 21
96.0559820000000144
 31
0.0
  0
LINE
  5
3C53
  8
0
 10
143.0350513583182988
 20
98.1583450000000113
 30
0.0
 11
143.2156819999999868
 21
96.093720999999988
 31
0.0
  0
ARC
  5
3C54
  8
0
 10
143.0000000564706113
 20
96.0748508545308937
 30
0.0
 40
0.2165058501626639
 50
184.9997679156807919
 51
5.0001108525515061
  0
LINE
  5
3C55
  8
0
 10
142.7980520558199089
 20
95.9968009462165952
 30
0.0
 11
141.643937499513811
 21
98.1583450000000113
 31
0.0
  0
LINE
  5
3C56
  8
0
 10
142.6916234161695911
 20
97.1154830111837555
 30
0.0
 11
142.1348071524683974
 21
98.1583450000000113
 31
0.0
  0
LINE
  5
3C57
  8
0
 10
142.600384562194705
 20
98.1583450000000113
 30
0.0
 11
142.7843179999998995
 21
96.0559820000000144
 31
0.0
  0
LINE
  5
3C58
  8
0
 10
144.2980520558195963
 20
95.9968009462174336
 30
0.0
 11
143.143937499513811
 21
98.1583450000000113
 31
0.0
  0
LINE
  5
3C59
  8
0
 10
144.1916234161695911
 20
97.1154830111838265
 30
0.0
 11
143.6348071524683974
 21
98.1583450000000113
 31
0.0
  0
LINE
  5
3C5A
  8
0
 10
144.1003845621945061
 20
98.1583450000000113
 30
0.0
 11
144.2843180000000132
 21
96.0559820000000144
 31
0.0
  0
ARC
  5
3C5B
  8
0
 10
161.2057975816393878
 20
95.9501113766633154
 30
0.0
 40
0.214997546980118
 50
161.9997961276299918
 51
205.271546356334909
  0
LINE
  5
3C5C
  8
0
 10
163.6184854582197943
 20
94.7612938398710298
 30
0.0
 11
165.9875385504250005
 21
94.4740513261499189
 31
0.0
  0
LINE
  5
3C5D
  8
0
 10
163.9776848406634997
 20
94.2815585304219752
 30
0.0
 11
164.9688722454143885
 21
94.161378444618407
 31
0.0
  0
LINE
  5
3C5E
  8
0
 10
162.6585183864926876
 20
95.8163908408893832
 30
0.0
 11
165.0003923778292858
 21
96.2752868028955362
 31
0.0
  0
LINE
  5
3C5F
  8
0
 10
162.7649669221692932
 20
95.3960020500371826
 30
0.0
 11
164.1281975322447124
 21
95.6631305136559291
 31
0.0
  0
LINE
  5
3C60
  8
0
 10
161.5964569223590956
 20
96.4566759627877701
 30
0.0
 11
163.4934150872174996
 21
97.6759445390046466
 31
0.0
  0
LINE
  5
3C61
  8
0
 10
161.4268925581195049
 20
95.832944662035203
 30
0.0
 11
162.7629605656817944
 21
96.6917023549679158
 31
0.0
  0
LINE
  5
3C62
  8
0
 10
160.2726450362710011
 20
96.7070706832369353
 30
0.0
 11
161.8081570307699906
 21
98.4416674707575083
 31
0.0
  0
LINE
  5
3C63
  8
0
 10
160.1783284400399907
 20
95.9520757329184875
 30
0.0
 11
161.4454770076430918
 21
97.3835156700290838
 31
0.0
  0
LINE
  5
3C64
  8
0
 10
158.786215710999187
 20
96.8621837761801743
 30
0.0
 11
160.0242359022379048
 21
98.6406905467367636
 31
0.0
  0
LINE
  5
3C65
  8
0
 10
158.691389524182199
 20
95.9736341979360219
 30
0.0
 11
159.9294106589740068
 21
97.7521427558696558
 31
0.0
  0
LINE
  5
3C66
  8
0
 10
157.1913895241820001
 20
95.9736341979359082
 30
0.0
 11
158.4294106589738931
 21
97.7521427558694995
 31
0.0
  0
LINE
  5
3C67
  8
0
 10
157.2862157109993007
 20
96.8621837761802169
 30
0.0
 11
158.5242359022377912
 21
98.6406905467368063
 31
0.0
  0
ARC
  5
3C68
  8
0
 10
157.2156269658646863
 20
98.5394749093836566
 30
0.0
 40
0.216506087912218
 50
355.0000261075638832
 51
94.1447870759918715
  0
ARC
  5
3C69
  8
0
 10
158.7156265460357929
 20
98.5394745620293833
 30
0.0
 40
0.2165064758700895
 50
355.000127363990714
 51
174.9998259320130103
  0
ARC
  5
3C6A
  8
0
 10
160.2156265460357929
 20
98.5394745620293406
 30
0.0
 40
0.2165064758700919
 50
355.0001273640012869
 51
174.9998259320057059
  0
ARC
  5
3C6B
  8
0
 10
161.2058022799982098
 20
95.9501107754501561
 30
0.0
 40
0.2149974165579719
 50
328.3471597774203019
 51
342.0000224204036954
  0
ARC
  5
3C6C
  8
0
 10
161.9690719121182951
 20
98.2992212295274044
 30
0.0
 40
0.2149998088634585
 50
342.00010233104382
 51
161.999950754705111
  0
LINE
  5
3C6D
  8
0
 10
161.4102770000000078
 20
95.8836729999999875
 30
0.0
 11
162.1735490000000084
 21
98.2327829999999835
 31
0.0
  0
LINE
  5
3C6E
  8
0
 10
161.0013230000000135
 20
96.0165499999999952
 30
0.0
 11
161.7645950000000141
 21
98.3656599999999912
 31
0.0
  0
ARC
  5
3C6F
  8
0
 10
163.6149583413906043
 20
97.4985967816933794
 30
0.0
 40
0.2149999759495747
 50
324.0000110063277248
 51
143.999867184825689
  0
LINE
  5
3C70
  8
0
 10
162.4632101868286043
 20
95.5475722571473653
 30
0.0
 11
163.7888969999999915
 21
97.3722229999999911
 31
0.0
  0
LINE
  5
3C71
  8
0
 10
162.0448947570534983
 20
95.7033696656129962
 30
0.0
 11
163.4410200000000088
 21
97.624970999999988
 31
0.0
  0
ARC
  5
3C72
  8
0
 10
165.0479436922028924
 20
96.0656107763724947
 30
0.0
 40
0.2150003804581282
 50
306.000083973252174
 51
125.9998811955857008
  0
LINE
  5
3C73
  8
0
 10
163.6002606378675068
 20
94.7480527368954029
 30
0.0
 11
165.1743179999999995
 21
95.8916719999999998
 31
0.0
  0
LINE
  5
3C74
  8
0
 10
163.2783369835952101
 20
95.0456699880812437
 30
0.0
 11
164.9215700000000027
 21
96.2395499999999942
 31
0.0
  0
ARC
  5
3C75
  8
0
 10
165.9679780348351983
 20
94.2599430113187253
 30
0.0
 40
0.2149999633720673
 50
288.0000904206025893
 51
108.0001099426887947
  0
LINE
  5
3C76
  8
0
 10
164.3732754978663024
 20
93.515728161766674
 30
0.0
 11
166.0344169999999906
 21
94.0554659999999956
 31
0.0
  0
LINE
  5
3C77
  8
0
 10
164.198245590830112
 20
93.9109868670527561
 30
0.0
 11
165.9015390000000139
 21
94.4644199999999898
 31
0.0
  0
LINE
  5
3C78
  8
0
 10
160.4313091913456049
 20
98.5206052587606678
 30
0.0
 11
160.2156819999999016
 21
96.0559820000000144
 31
0.0
  0
LINE
  5
3C79
  8
0
 10
159.999943999999914
 20
98.5583450000000028
 30
0.0
 11
159.7843180000000132
 21
96.093720999999988
 31
0.0
  0
ARC
  5
3C7A
  8
0
 10
159.9999999435293887
 20
96.0748508545309221
 30
0.0
 40
0.2165058501626665
 50
174.9998891474565994
 51
355.0002320843101984
  0
LINE
  5
3C7B
  8
0
 10
158.9313091913456049
 20
98.5206052587606536
 30
0.0
 11
158.7156819999999016
 21
96.0559820000000144
 31
0.0
  0
LINE
  5
3C7C
  8
0
 10
158.499943999999914
 20
98.5583450000000028
 30
0.0
 11
158.2843180000000132
 21
96.093720999999988
 31
0.0
  0
ARC
  5
3C7D
  8
0
 10
158.4999999435295024
 20
96.0748508545309221
 30
0.0
 40
0.2165058501626665
 50
174.9998891474565994
 51
355.0002320843101984
  0
LINE
  5
3C7E
  8
0
 10
157.4313091913456049
 20
98.5206052587606678
 30
0.0
 11
157.2156819999999016
 21
96.0559820000000144
 31
0.0
  0
LINE
  5
3C7F
  8
0
 10
156.9649486416815876
 20
98.1583450000000113
 30
0.0
 11
156.7843180000000132
 21
96.093720999999988
 31
0.0
  0
ARC
  5
3C80
  8
0
 10
156.9999999435293887
 20
96.0748508545309932
 30
0.0
 40
0.2165058501626708
 50
174.9998891474697018
 51
355.0002320842971244
  0
LINE
  5
3C81
  8
0
 10
155.7019479441802901
 20
95.9968009462171636
 30
0.0
 11
156.8560625004859901
 21
98.1583450000000113
 31
0.0
  0
LINE
  5
3C82
  8
0
 10
155.8080209999999965
 20
97.1114199999999954
 30
0.0
 11
156.3670066310104971
 21
98.1583450000000113
 31
0.0
  0
ARC
  5
3C83
  8
0
 10
155.4999999435293887
 20
96.0748508545308937
 30
0.0
 40
0.2165058501626923
 50
174.9998891474477034
 51
355.000232084318327
  0
LINE
  5
3C84
  8
0
 10
155.8996154378052097
 20
98.1583450000000113
 30
0.0
 11
155.7156819999999016
 21
96.0559820000000144
 31
0.0
  0
ARC
  5
3C87
  8
0
 10
153.9999999435295024
 20
96.0748508545309505
 30
0.0
 40
0.2165058501626409
 50
174.9998891474664902
 51
355.0002320843003076
  0
LINE
  5
3C88
  8
0
 10
154.2019479441802901
 20
95.996800946217121
 30
0.0
 11
155.3560625004861038
 21
98.1583450000000113
 31
0.0
  0
LINE
  5
3C89
  8
0
 10
154.3083765838302952
 20
97.1154830111837555
 30
0.0
 11
154.8651928475316026
 21
98.1583450000000113
 31
0.0
  0
LINE
  5
3C8A
  8
0
 10
154.3996154378054086
 20
98.1583450000000113
 30
0.0
 11
154.2156819999999868
 21
96.0559820000000144
 31
0.0
  0
ARC
  5
3C8C
  8
0
 10
152.4999999435293887
 20
96.0748508545307658
 30
0.0
 40
0.2165058501627372
 50
174.9998891474116931
 51
355.0002320843552184
  0
LINE
  5
3C8D
  8
0
 10
152.701947944180489
 20
95.9968009462176326
 30
0.0
 11
153.8560625004859901
 21
98.1583450000000113
 31
0.0
  0
LINE
  5
3C8E
  8
0
 10
152.8083765838302952
 20
97.1154830111837555
 30
0.0
 11
153.365192847531489
 21
98.1583450000000113
 31
0.0
  0
ARC
  5
3C91
  8
0
 10
150.9999999435295024
 20
96.0748508545309221
 30
0.0
 40
0.2165058501626948
 50
174.9998891474565994
 51
355.0002320843101984
  0
LINE
  5
3C92
  8
0
 10
151.2019479441804037
 20
95.9968009462174905
 30
0.0
 11
152.3560625004861038
 21
98.1583450000000113
 31
0.0
  0
LINE
  5
3C93
  8
0
 10
151.3083765838302952
 20
97.1154830111837128
 30
0.0
 11
151.8651928475316026
 21
98.1583450000000113
 31
0.0
  0
LINE
  5
3C94
  8
0
 10
151.3996154378054086
 20
98.1583450000000113
 30
0.0
 11
151.2156819999999868
 21
96.0559820000000144
 31
0.0
  0
LINE
  5
3C95
  8
0
 10
149.7019479441804037
 20
95.9968009462173768
 30
0.0
 11
150.8560625004861038
 21
98.1583450000000113
 31
0.0
  0
LINE
  5
3C96
  8
0
 10
149.8083765838302952
 20
97.1154830111838265
 30
0.0
 11
150.3651928475316026
 21
98.1583450000000113
 31
0.0
  0
ARC
  5
3C97
  8
0
 10
149.4999999435295024
 20
96.0748508545309932
 30
0.0
 40
0.2165058501626708
 50
174.9998891474704976
 51
355.0002320842971244
  0
LINE
  5
3C98
  8
0
 10
149.8996154378054086
 20
98.1583450000000113
 30
0.0
 11
149.7156819999999868
 21
96.0559820000000144
 31
0.0
  0
LINE
  5
3C9C
  8
0
 10
147.9649486416815876
 20
98.1583450000000113
 30
0.0
 11
147.7843179999998995
 21
96.093720999999988
 31
0.0
  0
LINE
  5
3C9D
  8
0
 10
148.399615437805295
 20
98.1583450000000113
 30
0.0
 11
148.2156819999999868
 21
96.0559820000000144
 31
0.0
  0
ARC
  5
3C9E
  8
0
 10
147.9999999435293887
 20
96.0748508545309221
 30
0.0
 40
0.2165058501627231
 50
174.9998891474565994
 51
355.0002320843109942
  0
LINE
  5
3C9F
  8
0
 10
148.3083765838302952
 20
97.1154830111836844
 30
0.0
 11
148.865192847531489
 21
98.1583450000000113
 31
0.0
  0
LINE
  5
3CA0
  8
0
 10
148.2019479441804037
 20
95.9968009462173768
 30
0.0
 11
149.3560625004861038
 21
98.1583450000000113
 31
0.0
  0
LINE
  5
3EED
  8
0
 10
147.0303901567218077
 20
95.9968069335474468
 30
0.0
 11
147.9219230790118047
 21
97.6665590633804754
 31
0.0
  0
LINE
  5
3EEE
  8
0
 10
147.1368163197288936
 20
97.1154825143637197
 30
0.0
 11
147.6936332162553072
 21
98.1583450000000113
 31
0.0
  0
LINE
  5
3EEF
  8
0
 10
145.8201959125456995
 20
95.9968102452132257
 30
0.0
 11
146.7579338223511058
 21
97.7531014588910807
 31
0.0
  0
LINE
  5
3EF0
  8
0
 10
145.8362270551189965
 20
96.9461853756679375
 30
0.0
 11
146.4834372161139981
 21
98.1583450000000113
 31
0.0
  0
LINE
  5
3EF1
  8
0
 10
144.7019483299600893
 20
95.9968016521694096
 30
0.0
 11
145.4038327262408927
 21
97.3113617620025479
 31
0.0
  0
LINE
  5
3EF2
  8
0
 10
144.6519254133852996
 20
96.822464349730069
 30
0.0
 11
145.3651932166251868
 21
98.1583450000000113
 31
0.0
  0
LINE
  5
3EFB
  8
0
 10
155.4649486416815876
 20
98.1583450000000113
 30
0.0
 11
155.2843180000000132
 21
96.093720999999988
 31
0.0
  0
LINE
  5
3EFD
  8
0
 10
153.9649486416815876
 20
98.1583450000000113
 30
0.0
 11
153.7843180000000132
 21
96.093720999999988
 31
0.0
  0
LINE
  5
3EFF
  8
0
 10
152.8996154378054086
 20
98.1583450000000113
 30
0.0
 11
152.7156819999999868
 21
96.0559820000000144
 31
0.0
  0
LINE
  5
3F00
  8
0
 10
152.4649486416815876
 20
98.1583450000000113
 30
0.0
 11
152.2843180000000132
 21
96.093720999999988
 31
0.0
  0
LINE
  5
3F03
  8
0
 10
150.9649486416815876
 20
98.1583450000000113
 30
0.0
 11
150.7843180000000132
 21
96.093720999999988
 31
0.0
  0
LINE
  5
3F04
  8
0
 10
149.4649486416815876
 20
98.1583450000000113
 30
0.0
 11
149.2843180000000132
 21
96.093720999999988
 31
0.0
  0
LINE
  5
3F06
  8
0
 10
147.8004194712401898
 20
98.3583449999999999
 30
0.0
 11
147.8008218408579921
 21
98.3590985981441435
 31
0.0
  0
LINE
  5
3F07
  8
0
 10
146.5902235086126097
 20
98.3583449999999999
 30
0.0
 11
146.5906258784818874
 21
98.359098598350144
 31
0.0
  0
LINE
  5
3F08
  8
0
 10
145.4052679945882005
 20
98.1583450000000113
 30
0.0
 11
145.4017379999999093
 21
96.0752180000000067
 31
0.0
  0
LINE
  5
3FFF
  8
1
 10
69.7759059999999636
 20
91.6583449999999971
 30
0.0
 11
88.7759059999999636
 21
91.6583449999999971
 31
0.0
  0
LINE
  5
4002
  8
1
 10
205.2240939999998943
 20
91.6583449999999971
 30
0.0
 11
224.2240939999998943
 21
91.6583449999999971
 31
0.0
  0
ENDSEC
  0
EOF
