  0
SECTION
  2
HEADER
  9
$ACADVER
  1
AC1009
  9
$INSBASE
 10
0.0
 20
0.0
 30
0.0
  9
$EXTMIN
 10
0.0
 20
-2.960436562073669
 30
0.0
  9
$EXTMAX
 10
278.22409399999998
 20
207.15842799999999
 30
0.0
  9
$LIMMIN
 10
0.0
 20
0.0
  9
$LIMMAX
 10
375.0
 20
270.0
  9
$ORTHOMODE
 70
     1
  9
$REGENMODE
 70
     1
  9
$FILLMODE
 70
     1
  9
$QTEXTMODE
 70
     0
  9
$MIRRTEXT
 70
     0
  9
$DRAGMODE
 70
     2
  9
$LTSCALE
 40
10.0
  9
$OSMODE
 70
    37
  9
$ATTMODE
 70
     1
  9
$TEXTSIZE
 40
1.0
  9
$TRACEWID
 40
0.05
  9
$TEXTSTYLE
  7
K
  9
$CLAYER
  8
0
  9
$CELTYPE
  6
BYLAYER
  9
$CECOLOR
 62
   256
  9
$DIMSCALE
 40
1.0
  9
$DIMASZ
 40
3.0
  9
$DIMEXO
 40
1.0
  9
$DIMDLI
 40
6.0
  9
$DIMRND
 40
0.0
  9
$DIMDLE
 40
0.0
  9
$DIMEXE
 40
1.0
  9
$DIMTP
 40
495.0
  9
$DIMTM
 40
0.0
  9
$DIMTXT
 40
3.0
  9
$DIMCEN
 40
0.0
  9
$DIMTSZ
 40
0.0
  9
$DIMTOL
 70
     0
  9
$DIMLIM
 70
     0
  9
$DIMTIH
 70
     0
  9
$DIMTOH
 70
     0
  9
$DIMSE1
 70
     0
  9
$DIMSE2
 70
     0
  9
$DIMTAD
 70
     1
  9
$DIMZIN
 70
     0
  9
$DIMBLK
  1

  9
$DIMASO
 70
     0
  9
$DIMSHO
 70
     0
  9
$DIMPOST
  1

  9
$DIMAPOST
  1

  9
$DIMALT
 70
     0
  9
$DIMALTD
 70
     2
  9
$DIMALTF
 40
25.399999999999999
  9
$DIMLFAC
 40
1.0
  9
$DIMTOFL
 70
     1
  9
$DIMTVP
 40
0.0
  9
$DIMTIX
 70
     1
  9
$DIMSOXD
 70
     0
  9
$DIMSAH
 70
     0
  9
$DIMBLK1
  1

  9
$DIMBLK2
  1

  9
$DIMSTYLE
  2
STANDARD
  9
$DIMCLRD
 70
     0
  9
$DIMCLRE
 70
     0
  9
$DIMCLRT
 70
     0
  9
$DIMTFAC
 40
1.0
  9
$DIMGAP
 40
0.09
  9
$LUNITS
 70
     2
  9
$LUPREC
 70
     2
  9
$SKETCHINC
 40
0.1
  9
$FILLETRAD
 40
0.0
  9
$AUNITS
 70
     0
  9
$AUPREC
 70
     2
  9
$MENU
  1
E:\r13\win\SUPPORT\ACAD
  9
$ELEVATION
 40
0.0
  9
$PELEVATION
 40
0.0
  9
$THICKNESS
 40
0.0
  9
$LIMCHECK
 70
     0
  9
$BLIPMODE
 70
     0
  9
$CHAMFERA
 40
0.0
  9
$CHAMFERB
 40
0.0
  9
$SKPOLY
 70
     0
  9
$TDCREATE
 40
2449840.3443518518
  9
$TDUPDATE
 40
2456682.5950864591
  9
$TDINDWG
 40
0.0054219792
  9
$TDUSRTIMER
 40
0.0054219792
  9
$USRTIMER
 70
     1
  9
$ANGBASE
 50
0.0
  9
$ANGDIR
 70
     0
  9
$PDMODE
 70
     0
  9
$PDSIZE
 40
0.0
  9
$PLINEWID
 40
0.0
  9
$COORDS
 70
     1
  9
$SPLFRAME
 70
     0
  9
$SPLINETYPE
 70
     6
  9
$SPLINESEGS
 70
     8
  9
$ATTDIA
 70
     0
  9
$ATTREQ
 70
     1
  9
$HANDLING
 70
     1
  9
$HANDSEED
  5
911
  9
$SURFTAB1
 70
     6
  9
$SURFTAB2
 70
     6
  9
$SURFTYPE
 70
     6
  9
$SURFU
 70
     6
  9
$SURFV
 70
     6
  9
$UCSNAME
  2

  9
$UCSORG
 10
0.0
 20
0.0
 30
0.0
  9
$UCSXDIR
 10
1.0
 20
0.0
 30
0.0
  9
$UCSYDIR
 10
0.0
 20
1.0
 30
0.0
  9
$PUCSNAME
  2

  9
$PUCSORG
 10
0.0
 20
0.0
 30
0.0
  9
$PUCSXDIR
 10
1.0
 20
0.0
 30
0.0
  9
$PUCSYDIR
 10
0.0
 20
1.0
 30
0.0
  9
$USERI1
 70
     3
  9
$USERI2
 70
     1
  9
$USERI3
 70
     0
  9
$USERI4
 70
     1
  9
$USERI5
 70
     0
  9
$USERR1
 40
1.0
  9
$USERR2
 40
3.0
  9
$USERR3
 40
3.0
  9
$USERR4
 40
3.0
  9
$USERR5
 40
10.0
  9
$WORLDVIEW
 70
     1
  9
$SHADEDGE
 70
     3
  9
$SHADEDIF
 70
    70
  9
$TILEMODE
 70
     1
  9
$MAXACTVP
 70
    16
  9
$PLIMCHECK
 70
     0
  9
$PEXTMIN
 10
1.0000000000000000E+020
 20
1.0000000000000000E+020
 30
1.0000000000000000E+020
  9
$PEXTMAX
 10
-1.0000000000000000E+020
 20
-1.0000000000000000E+020
 30
-1.0000000000000000E+020
  9
$PLIMMIN
 10
0.0
 20
0.0
  9
$PLIMMAX
 10
12.0
 20
9.0
  9
$UNITMODE
 70
     0
  9
$VISRETAIN
 70
     0
  9
$PLINEGEN
 70
     0
  9
$PSLTSCALE
 70
     0
  0
ENDSEC
  0
SECTION
  2
TABLES
  0
TABLE
  2
VPORT
 70
     1
  0
VPORT
  2
*ACTIVE
 70
     0
 10
0.0
 20
0.0
 11
1.0
 21
1.0
 12
235.63977746870651
 22
135.0
 13
0.0
 23
0.0
 14
1.0
 24
1.0
 15
10.0
 25
10.0
 16
0.0
 26
0.0
 36
1.0
 17
0.0
 27
0.0
 37
0.0
 40
270.0
 41
1.7454798331015291
 42
50.0
 43
0.0
 44
0.0
 50
0.0
 51
0.0
 71
     0
 72
   100
 73
     1
 74
     0
 75
     0
 76
     0
 77
     0
 78
     1
  0
ENDTAB
  0
TABLE
  2
LTYPE
 70
     3
  0
LTYPE
  2
CONTINUOUS
 70
     0
  3
Solid Line
 72
    65
 73
     0
 40
0.0
  0
LTYPE
  2
CENTER
 70
     0
  3
____ _ ____ _ ____ _ ____ _ ____ _ ____ _ ____
 72
    65
 73
     4
 40
2.0
 49
1.25
 49
-0.25
 49
0.25
 49
-0.25
  0
LTYPE
  2
PHANTOM2
 70
     0
  3
Phantom (.5x) ___ _ _ ___ _ _ ___ _ _ ___ _ _
 72
    65
 73
     6
 40
1.25
 49
0.625
 49
-0.125
 49
0.125
 49
-0.125
 49
0.125
 49
-0.125
  0
ENDTAB
  0
TABLE
  2
LAYER
 70
     4
  0
LAYER
  2
0
 70
     0
 62
     7
  6
CONTINUOUS
  0
LAYER
  2
1
 70
     0
 62
     1
  6
CENTER
  0
LAYER
  2
3
 70
     0
 62
     3
  6
CONTINUOUS
  0
LAYER
  2
5
 70
     0
 62
     3
  6
PHANTOM2
  0
ENDTAB
  0
TABLE
  2
STYLE
 70
     3
  0
STYLE
  2
STANDARD
 70
     0
 40
0.0
 41
1.0
 50
0.0
 71
     0
 42
0.2
  3
TXT
  4
BIGFONT
  0
STYLE
  2
K
 70
     0
 40
0.0
 41
1.0
 50
0.0
 71
     0
 42
1.0
  3
TXT
  4
BIGFONT
  0
STYLE
  2
STANDARD1
 70
     0
 40
0.0
 41
1.0
 50
0.0
 71
     0
 42
3.0
  3
txt
  4

  0
ENDTAB
  0
TABLE
  2
VIEW
 70
     0
  0
ENDTAB
  0
TABLE
  2
UCS
 70
     0
  0
ENDTAB
  0
TABLE
  2
APPID
 70
     4
  0
APPID
  2
ACAD
 70
     0
  0
APPID
  2
ACAD_MLEADERVER
 70
     0
  0
APPID
  2
ACAD_NAV_VCDISPLAY
 70
     0
  0
APPID
  2
ACAD_EXEMPT_FROM_CAD_STANDARDS
 70
     0
  0
ENDTAB
  0
TABLE
  2
DIMSTYLE
 70
     1
  0
DIMSTYLE
  2
STANDARD
 70
     0
  3

  4

  5

  6

  7

 40
1.0
 41
0.18
 42
0.0625
 43
0.38
 44
0.18
 45
0.0
 46
0.0
 47
0.0
 48
0.0
140
0.18
141
0.09
142
0.0
143
25.399999999999999
144
1.0
145
0.0
146
1.0
147
0.09
 71
     0
 72
     0
 73
     1
 74
     1
 75
     0
 76
     0
 77
     0
 78
     0
170
     0
171
     2
172
     0
173
     0
174
     0
175
     0
176
     0
177
     0
178
     0
  0
ENDTAB
  0
ENDSEC
  0
SECTION
  2
BLOCKS
  0
BLOCK
  8
0
  2
$MODEL_SPACE
 70
     0
 10
0.0
 20
0.0
 30
0.0
  3
$MODEL_SPACE
  1

  0
ENDBLK
  5
739
  8
0
  0
BLOCK
 67
     1
  8
0
  2
$PAPER_SPACE
 70
     0
 10
0.0
 20
0.0
 30
0.0
  3
$PAPER_SPACE
  1

  0
ENDBLK
  5
737
 67
     1
  8
0
  0
ENDSEC
  0
SECTION
  2
ENTITIES
  0
LINE
  5
3B
  8
5
 10
126.0
 20
97.658344999999997
 30
0.0
 11
123.0
 21
97.658344999999997
 31
0.0
  0
LINE
  5
3C
  8
5
 10
122.5
 20
97.158344999999997
 30
0.0
 11
122.5
 21
68.158344999999997
 31
0.0
  0
LINE
  5
3D
  8
5
 10
123.0
 20
67.658344999999997
 30
0.0
 11
127.3
 21
67.658344999999997
 31
0.0
  0
LINE
  5
3E
  8
5
 10
171.0
 20
67.658344999999997
 30
0.0
 11
166.6999999999999
 21
67.658344999999997
 31
0.0
  0
LINE
  5
3F
  8
5
 10
171.5
 20
97.158344999999997
 30
0.0
 11
171.5
 21
68.158344999999997
 31
0.0
  0
LINE
  5
40
  8
5
 10
168.0
 20
97.658344999999997
 30
0.0
 11
171.0
 21
97.658344999999997
 31
0.0
  0
LINE
  5
41
  8
1
 10
147.0
 20
61.65834499999999
 30
0.0
 11
147.0
 21
111.658345
 31
0.0
  0
LINE
  5
42
  8
0
 10
156.69999999999999
 20
94.958344999999994
 30
0.0
 11
137.30000000000001
 21
94.958344999999994
 31
0.0
  0
LINE
  5
43
  8
0
 10
157.0
 20
102.658345
 30
0.0
 11
153.76321799999999
 21
94.958344999999994
 31
0.0
  0
LINE
  5
44
  8
0
 10
137.0
 20
102.658345
 30
0.0
 11
140.23678200000001
 21
94.958344999999994
 31
0.0
  0
LINE
  5
45
  8
0
 10
136.80000000000001
 20
90.658344999999997
 30
0.0
 11
133.0
 21
90.658344999999997
 31
0.0
  0
LINE
  5
46
  8
0
 10
136.80000000000001
 20
85.258345000000006
 30
0.0
 11
133.0
 21
85.258345000000006
 31
0.0
  0
LINE
  5
47
  8
0
 10
136.80000000000001
 20
91.658344999999997
 30
0.0
 11
133.0
 21
91.658344999999997
 31
0.0
  0
LINE
  5
48
  8
0
 10
136.80000000000001
 20
84.258344999999977
 30
0.0
 11
133.0
 21
84.258344999999977
 31
0.0
  0
LINE
  5
49
  8
0
 10
137.0
 20
81.558344999999989
 30
0.0
 11
157.0
 21
81.558344999999989
 31
0.0
  0
LINE
  5
4A
  8
0
 10
157.0
 20
93.958344999999994
 30
0.0
 11
137.0
 21
93.958344999999994
 31
0.0
  0
LINE
  5
4B
  8
0
 10
136.80000000000001
 20
94.158344999999997
 30
0.0
 11
136.80000000000001
 21
94.458344999999994
 31
0.0
  0
ARC
  5
4C
  8
0
 10
137.0
 20
94.158344999999997
 30
0.0
 40
0.2
 50
180.0
 51
270.0
  0
ARC
  5
4D
  8
0
 10
137.0
 20
81.358344999999986
 30
0.0
 40
0.2
 50
90.0
 51
180.0
  0
ARC
  5
4E
  8
0
 10
137.0
 20
81.058344999999974
 30
0.0
 40
0.2
 50
90.0
 51
180.0
  0
LINE
  5
4F
  8
0
 10
137.0
 20
81.258344999999991
 30
0.0
 11
157.0
 21
81.258344999999991
 31
0.0
  0
LINE
  5
50
  8
0
 10
157.0
 20
94.158344999999997
 30
0.0
 11
137.0
 21
94.158344999999997
 31
0.0
  0
ARC
  5
51
  8
0
 10
137.0
 20
94.358345
 30
0.0
 40
0.2
 50
180.0
 51
270.0
  0
LINE
  5
52
  8
0
 10
126.5
 20
72.658344999999997
 30
0.0
 11
137.5
 21
72.658344999999997
 31
0.0
  0
LINE
  5
53
  8
0
 10
167.5
 20
102.658345
 30
0.0
 11
157.0
 21
102.658345
 31
0.0
  0
ARC
  5
54
  8
0
 10
137.30000000000001
 20
76.658344999999997
 30
0.0
 40
0.5
 50
180.0
 51
270.0
  0
LINE
  5
55
  8
0
 10
136.80000000000001
 20
76.658344999999997
 30
0.0
 11
136.80000000000001
 21
81.461272999999991
 31
0.0
  0
ARC
  5
56
  8
0
 10
156.69999999999999
 20
76.658344999999997
 30
0.0
 40
0.5
 50
270.0
 51
0.0
  0
LINE
  5
57
  8
0
 10
157.19999999999999
 20
76.658344999999997
 30
0.0
 11
157.19999999999999
 21
81.461272999999991
 31
0.0
  0
ARC
  5
58
  8
0
 10
137.30000000000001
 20
94.458344999999994
 30
0.0
 40
0.5
 50
90.0
 51
180.0
  0
LINE
  5
59
  8
3
 10
247.28963100000001
 20
82.74409399999999
 30
0.0
 11
245.275544
 21
83.952546999999996
 31
0.0
  0
LINE
  5
5A
  8
3
 10
247.28963100000001
 20
82.57259599999999
 30
0.0
 11
245.275544
 21
81.364142999999999
 31
0.0
  0
LINE
  5
5B
  8
3
 10
245.17264499999999
 20
81.364142999999999
 30
0.0
 11
243.158557
 21
82.57259599999999
 31
0.0
  0
LINE
  5
5C
  8
3
 10
245.17264499999999
 20
83.952546999999996
 30
0.0
 11
243.158557
 21
82.74409399999999
 31
0.0
  0
LINE
  5
5D
  8
0
 10
242.72409400000001
 20
107.45834499999999
 30
0.0
 11
242.72409400000001
 21
66.658344999999997
 31
0.0
  0
LINE
  5
5E
  8
0
 10
272.72409399999998
 20
102.658345
 30
0.0
 11
242.72409400000001
 21
102.658345
 31
0.0
  0
LINE
  5
5F
  8
0
 10
272.72409399999998
 20
66.658344999999997
 30
0.0
 11
272.72409399999998
 21
107.45834499999999
 31
0.0
  0
LINE
  5
60
  8
0
 10
242.72409400000001
 20
72.658344999999997
 30
0.0
 11
272.72409399999998
 21
72.658344999999997
 31
0.0
  0
ARC
  5
61
  8
3
 10
243.21000699999999
 20
82.658344999999997
 30
0.0
 40
0.1
 50
120.963757
 51
239.03624300000001
  0
ARC
  5
62
  8
3
 10
245.22409400000001
 20
81.449893000000003
 30
0.0
 40
0.1
 50
239.03624300000001
 51
300.96375699999999
  0
ARC
  5
63
  8
3
 10
247.23818199999999
 20
82.658344999999997
 30
0.0
 40
0.1
 50
300.96375699999999
 51
59.036242999999999
  0
ARC
  5
64
  8
3
 10
245.22409400000001
 20
83.866797000000005
 30
0.0
 40
0.1
 50
59.036242999999999
 51
120.963757
  0
ARC
  5
65
  8
3
 10
245.22409400000001
 20
86.866796999999991
 30
0.0
 40
0.1
 50
59.036242999999999
 51
120.963757
  0
ARC
  5
66
  8
3
 10
247.23818199999999
 20
85.658344999999997
 30
0.0
 40
0.1
 50
300.96375699999999
 51
59.036242999999999
  0
ARC
  5
67
  8
3
 10
245.22409400000001
 20
84.449893000000003
 30
0.0
 40
0.1
 50
239.03624300000001
 51
300.96375699999999
  0
ARC
  5
68
  8
3
 10
243.21000699999999
 20
85.658344999999997
 30
0.0
 40
0.1
 50
120.963757
 51
239.03624300000001
  0
LINE
  5
69
  8
3
 10
245.17264499999999
 20
86.952546999999996
 30
0.0
 11
243.158557
 21
85.744093999999976
 31
0.0
  0
LINE
  5
6A
  8
3
 10
245.17264499999999
 20
84.364142999999999
 30
0.0
 11
243.158557
 21
85.572596000000004
 31
0.0
  0
LINE
  5
6B
  8
3
 10
247.28963100000001
 20
85.572596000000004
 30
0.0
 11
245.275544
 21
84.364142999999999
 31
0.0
  0
LINE
  5
6C
  8
3
 10
247.28963100000001
 20
85.744093999999976
 30
0.0
 11
245.275544
 21
86.952546999999996
 31
0.0
  0
ARC
  5
6D
  8
3
 10
245.22409400000001
 20
89.866796999999991
 30
0.0
 40
0.1
 50
59.036242999999999
 51
120.963757
  0
ARC
  5
6E
  8
3
 10
247.23818199999999
 20
88.658344999999997
 30
0.0
 40
0.1
 50
300.96375699999999
 51
59.036242999999999
  0
ARC
  5
6F
  8
3
 10
245.22409400000001
 20
87.449893000000003
 30
0.0
 40
0.1
 50
239.03624300000001
 51
300.96375699999999
  0
ARC
  5
70
  8
3
 10
243.21000699999999
 20
88.658344999999997
 30
0.0
 40
0.1
 50
120.963757
 51
239.03624300000001
  0
LINE
  5
71
  8
3
 10
245.17264499999999
 20
89.952546999999996
 30
0.0
 11
243.158557
 21
88.74409399999999
 31
0.0
  0
LINE
  5
72
  8
3
 10
245.17264499999999
 20
87.364142999999984
 30
0.0
 11
243.158557
 21
88.57259599999999
 31
0.0
  0
LINE
  5
73
  8
3
 10
247.28963100000001
 20
88.57259599999999
 30
0.0
 11
245.275544
 21
87.364142999999984
 31
0.0
  0
LINE
  5
74
  8
3
 10
247.28963100000001
 20
88.74409399999999
 30
0.0
 11
245.275544
 21
89.952546999999996
 31
0.0
  0
ARC
  5
75
  8
3
 10
245.22409400000001
 20
92.866796999999977
 30
0.0
 40
0.1
 50
59.036242999999999
 51
120.963757
  0
ARC
  5
76
  8
3
 10
247.23818199999999
 20
91.658344999999997
 30
0.0
 40
0.1
 50
300.96375699999999
 51
59.036242999999999
  0
ARC
  5
77
  8
3
 10
245.22409400000001
 20
90.449893000000003
 30
0.0
 40
0.1
 50
239.03624300000001
 51
300.96375699999999
  0
ARC
  5
78
  8
3
 10
243.21000699999999
 20
91.658344999999997
 30
0.0
 40
0.1
 50
120.963757
 51
239.03624300000001
  0
LINE
  5
79
  8
3
 10
245.17264499999999
 20
92.952546999999996
 30
0.0
 11
243.158557
 21
91.744094000000004
 31
0.0
  0
LINE
  5
7A
  8
3
 10
245.17264499999999
 20
90.364142999999999
 30
0.0
 11
243.158557
 21
91.57259599999999
 31
0.0
  0
LINE
  5
7B
  8
3
 10
247.28963100000001
 20
91.57259599999999
 30
0.0
 11
245.275544
 21
90.364142999999999
 31
0.0
  0
LINE
  5
7C
  8
3
 10
247.28963100000001
 20
91.744094000000004
 30
0.0
 11
245.275544
 21
92.952546999999996
 31
0.0
  0
ARC
  5
7D
  8
3
 10
245.22409400000001
 20
95.866796999999991
 30
0.0
 40
0.1
 50
59.036242999999999
 51
120.963757
  0
ARC
  5
7E
  8
3
 10
247.23818199999999
 20
94.658344999999997
 30
0.0
 40
0.1
 50
300.96375699999999
 51
59.036242999999999
  0
ARC
  5
7F
  8
3
 10
245.22409400000001
 20
93.449892999999989
 30
0.0
 40
0.1
 50
239.03624300000001
 51
300.96375699999999
  0
ARC
  5
80
  8
3
 10
243.21000699999999
 20
94.658344999999997
 30
0.0
 40
0.1
 50
120.963757
 51
239.03624300000001
  0
LINE
  5
81
  8
3
 10
245.17264499999999
 20
95.952546999999996
 30
0.0
 11
243.158557
 21
94.744093999999976
 31
0.0
  0
LINE
  5
82
  8
3
 10
245.17264499999999
 20
93.364142999999984
 30
0.0
 11
243.158557
 21
94.572595999999976
 31
0.0
  0
LINE
  5
83
  8
3
 10
247.28963100000001
 20
94.572595999999976
 30
0.0
 11
245.275544
 21
93.364142999999984
 31
0.0
  0
LINE
  5
84
  8
3
 10
247.28963100000001
 20
94.744093999999976
 30
0.0
 11
245.275544
 21
95.952546999999996
 31
0.0
  0
ARC
  5
85
  8
3
 10
245.22409400000001
 20
98.866797000000005
 30
0.0
 40
0.1
 50
59.036242999999999
 51
120.963757
  0
ARC
  5
86
  8
3
 10
247.23818199999999
 20
97.658344999999997
 30
0.0
 40
0.1
 50
300.96375699999999
 51
59.036242999999999
  0
ARC
  5
87
  8
3
 10
245.22409400000001
 20
96.449893000000003
 30
0.0
 40
0.1
 50
239.03624300000001
 51
300.96375699999999
  0
ARC
  5
88
  8
3
 10
243.21000699999999
 20
97.658344999999997
 30
0.0
 40
0.1
 50
120.963757
 51
239.03624300000001
  0
LINE
  5
89
  8
3
 10
245.17264499999999
 20
98.952546999999996
 30
0.0
 11
243.158557
 21
97.74409399999999
 31
0.0
  0
LINE
  5
8A
  8
3
 10
245.17264499999999
 20
96.364142999999999
 30
0.0
 11
243.158557
 21
97.57259599999999
 31
0.0
  0
LINE
  5
8B
  8
3
 10
247.28963100000001
 20
97.57259599999999
 30
0.0
 11
245.275544
 21
96.364142999999999
 31
0.0
  0
LINE
  5
8C
  8
3
 10
247.28963100000001
 20
97.74409399999999
 30
0.0
 11
245.275544
 21
98.952546999999996
 31
0.0
  0
ARC
  5
8D
  8
3
 10
245.22409400000001
 20
101.86679700000001
 30
0.0
 40
0.1
 50
59.036242999999999
 51
120.963757
  0
ARC
  5
8E
  8
3
 10
247.23818199999999
 20
100.658345
 30
0.0
 40
0.1
 50
300.96375699999999
 51
59.036242999999999
  0
ARC
  5
8F
  8
3
 10
245.22409400000001
 20
99.449893000000003
 30
0.0
 40
0.1
 50
239.03624300000001
 51
300.96375699999999
  0
ARC
  5
90
  8
3
 10
243.21000699999999
 20
100.658345
 30
0.0
 40
0.1
 50
120.963757
 51
239.03624300000001
  0
LINE
  5
91
  8
3
 10
245.17264499999999
 20
101.952547
 30
0.0
 11
243.158557
 21
100.744094
 31
0.0
  0
LINE
  5
92
  8
3
 10
245.17264499999999
 20
99.364142999999999
 30
0.0
 11
243.158557
 21
100.572596
 31
0.0
  0
LINE
  5
93
  8
3
 10
247.28963100000001
 20
100.572596
 30
0.0
 11
245.275544
 21
99.364142999999999
 31
0.0
  0
LINE
  5
94
  8
3
 10
247.28963100000001
 20
100.744094
 30
0.0
 11
245.275544
 21
101.952547
 31
0.0
  0
ARC
  5
95
  8
3
 10
250.22409400000001
 20
83.866797000000005
 30
0.0
 40
0.1
 50
59.036242999999999
 51
120.963757
  0
ARC
  5
96
  8
3
 10
252.23818199999999
 20
82.658344999999997
 30
0.0
 40
0.1
 50
300.96375699999999
 51
59.036242999999999
  0
ARC
  5
97
  8
3
 10
250.22409400000001
 20
81.449893000000003
 30
0.0
 40
0.1
 50
239.03624300000001
 51
300.96375699999999
  0
ARC
  5
98
  8
3
 10
248.21000699999999
 20
82.658344999999997
 30
0.0
 40
0.1
 50
120.963757
 51
239.03624300000001
  0
LINE
  5
99
  8
3
 10
250.17264499999999
 20
83.952546999999996
 30
0.0
 11
248.158557
 21
82.74409399999999
 31
0.0
  0
LINE
  5
9A
  8
3
 10
250.17264499999999
 20
81.364142999999999
 30
0.0
 11
248.158557
 21
82.57259599999999
 31
0.0
  0
LINE
  5
9B
  8
3
 10
252.28963100000001
 20
82.57259599999999
 30
0.0
 11
250.275544
 21
81.364142999999999
 31
0.0
  0
LINE
  5
9C
  8
3
 10
252.28963100000001
 20
82.74409399999999
 30
0.0
 11
250.275544
 21
83.952546999999996
 31
0.0
  0
ARC
  5
9D
  8
3
 10
250.22409400000001
 20
86.866796999999991
 30
0.0
 40
0.1
 50
59.036242999999999
 51
120.963757
  0
ARC
  5
9E
  8
3
 10
252.23818199999999
 20
85.658344999999997
 30
0.0
 40
0.1
 50
300.96375699999999
 51
59.036242999999999
  0
ARC
  5
9F
  8
3
 10
250.22409400000001
 20
84.449893000000003
 30
0.0
 40
0.1
 50
239.03624300000001
 51
300.96375699999999
  0
ARC
  5
A0
  8
3
 10
248.21000699999999
 20
85.658344999999997
 30
0.0
 40
0.1
 50
120.963757
 51
239.03624300000001
  0
LINE
  5
A1
  8
3
 10
250.17264499999999
 20
86.952546999999996
 30
0.0
 11
248.158557
 21
85.744093999999976
 31
0.0
  0
LINE
  5
A2
  8
3
 10
250.17264499999999
 20
84.364142999999999
 30
0.0
 11
248.158557
 21
85.572596000000004
 31
0.0
  0
LINE
  5
A3
  8
3
 10
252.28963100000001
 20
85.572596000000004
 30
0.0
 11
250.275544
 21
84.364142999999999
 31
0.0
  0
LINE
  5
A4
  8
3
 10
252.28963100000001
 20
85.744093999999976
 30
0.0
 11
250.275544
 21
86.952546999999996
 31
0.0
  0
ARC
  5
A5
  8
3
 10
250.22409400000001
 20
89.866796999999991
 30
0.0
 40
0.1
 50
59.036242999999999
 51
120.963757
  0
ARC
  5
A6
  8
3
 10
252.23818199999999
 20
88.658344999999997
 30
0.0
 40
0.1
 50
300.96375699999999
 51
59.036242999999999
  0
ARC
  5
A7
  8
3
 10
250.22409400000001
 20
87.449893000000003
 30
0.0
 40
0.1
 50
239.03624300000001
 51
300.96375699999999
  0
ARC
  5
A8
  8
3
 10
248.21000699999999
 20
88.658344999999997
 30
0.0
 40
0.1
 50
120.963757
 51
239.03624300000001
  0
LINE
  5
A9
  8
3
 10
250.17264499999999
 20
89.952546999999996
 30
0.0
 11
248.158557
 21
88.74409399999999
 31
0.0
  0
LINE
  5
AA
  8
3
 10
250.17264499999999
 20
87.364142999999984
 30
0.0
 11
248.158557
 21
88.57259599999999
 31
0.0
  0
LINE
  5
AB
  8
3
 10
252.28963100000001
 20
88.57259599999999
 30
0.0
 11
250.275544
 21
87.364142999999984
 31
0.0
  0
LINE
  5
AC
  8
3
 10
252.28963100000001
 20
88.74409399999999
 30
0.0
 11
250.275544
 21
89.952546999999996
 31
0.0
  0
ARC
  5
AD
  8
3
 10
250.22409400000001
 20
92.866796999999977
 30
0.0
 40
0.1
 50
59.036242999999999
 51
120.963757
  0
ARC
  5
AE
  8
3
 10
252.23818199999999
 20
91.658344999999997
 30
0.0
 40
0.1
 50
300.96375699999999
 51
59.036242999999999
  0
ARC
  5
AF
  8
3
 10
250.22409400000001
 20
90.449893000000003
 30
0.0
 40
0.1
 50
239.03624300000001
 51
300.96375699999999
  0
ARC
  5
B0
  8
3
 10
248.21000699999999
 20
91.658344999999997
 30
0.0
 40
0.1
 50
120.963757
 51
239.03624300000001
  0
LINE
  5
B1
  8
3
 10
250.17264499999999
 20
92.952546999999996
 30
0.0
 11
248.158557
 21
91.744094000000004
 31
0.0
  0
LINE
  5
B2
  8
3
 10
250.17264499999999
 20
90.364142999999999
 30
0.0
 11
248.158557
 21
91.57259599999999
 31
0.0
  0
LINE
  5
B3
  8
3
 10
252.28963100000001
 20
91.57259599999999
 30
0.0
 11
250.275544
 21
90.364142999999999
 31
0.0
  0
LINE
  5
B4
  8
3
 10
252.28963100000001
 20
91.744094000000004
 30
0.0
 11
250.275544
 21
92.952546999999996
 31
0.0
  0
ARC
  5
B5
  8
3
 10
250.22409400000001
 20
95.866796999999991
 30
0.0
 40
0.1
 50
59.036242999999999
 51
120.963757
  0
ARC
  5
B6
  8
3
 10
252.23818199999999
 20
94.658344999999997
 30
0.0
 40
0.1
 50
300.96375699999999
 51
59.036242999999999
  0
ARC
  5
B7
  8
3
 10
250.22409400000001
 20
93.449892999999989
 30
0.0
 40
0.1
 50
239.03624300000001
 51
300.96375699999999
  0
ARC
  5
B8
  8
3
 10
248.21000699999999
 20
94.658344999999997
 30
0.0
 40
0.1
 50
120.963757
 51
239.03624300000001
  0
LINE
  5
B9
  8
3
 10
250.17264499999999
 20
95.952546999999996
 30
0.0
 11
248.158557
 21
94.744093999999976
 31
0.0
  0
LINE
  5
BA
  8
3
 10
250.17264499999999
 20
93.364142999999984
 30
0.0
 11
248.158557
 21
94.572595999999976
 31
0.0
  0
LINE
  5
BB
  8
3
 10
252.28963100000001
 20
94.572595999999976
 30
0.0
 11
250.275544
 21
93.364142999999984
 31
0.0
  0
LINE
  5
BC
  8
3
 10
252.28963100000001
 20
94.744093999999976
 30
0.0
 11
250.275544
 21
95.952546999999996
 31
0.0
  0
ARC
  5
BD
  8
3
 10
250.22409400000001
 20
98.866797000000005
 30
0.0
 40
0.1
 50
59.036242999999999
 51
120.963757
  0
ARC
  5
BE
  8
3
 10
252.23818199999999
 20
97.658344999999997
 30
0.0
 40
0.1
 50
300.96375699999999
 51
59.036242999999999
  0
ARC
  5
BF
  8
3
 10
250.22409400000001
 20
96.449893000000003
 30
0.0
 40
0.1
 50
239.03624300000001
 51
300.96375699999999
  0
ARC
  5
C0
  8
3
 10
248.21000699999999
 20
97.658344999999997
 30
0.0
 40
0.1
 50
120.963757
 51
239.03624300000001
  0
LINE
  5
C1
  8
3
 10
250.17264499999999
 20
98.952546999999996
 30
0.0
 11
248.158557
 21
97.74409399999999
 31
0.0
  0
LINE
  5
C2
  8
3
 10
250.17264499999999
 20
96.364142999999999
 30
0.0
 11
248.158557
 21
97.57259599999999
 31
0.0
  0
LINE
  5
C3
  8
3
 10
252.28963100000001
 20
97.57259599999999
 30
0.0
 11
250.275544
 21
96.364142999999999
 31
0.0
  0
LINE
  5
C4
  8
3
 10
252.28963100000001
 20
97.74409399999999
 30
0.0
 11
250.275544
 21
98.952546999999996
 31
0.0
  0
ARC
  5
C5
  8
3
 10
250.22409400000001
 20
101.86679700000001
 30
0.0
 40
0.1
 50
59.036242999999999
 51
120.963757
  0
ARC
  5
C6
  8
3
 10
252.23818199999999
 20
100.658345
 30
0.0
 40
0.1
 50
300.96375699999999
 51
59.036242999999999
  0
ARC
  5
C7
  8
3
 10
250.22409400000001
 20
99.449893000000003
 30
0.0
 40
0.1
 50
239.03624300000001
 51
300.96375699999999
  0
ARC
  5
C8
  8
3
 10
248.21000699999999
 20
100.658345
 30
0.0
 40
0.1
 50
120.963757
 51
239.03624300000001
  0
LINE
  5
C9
  8
3
 10
250.17264499999999
 20
101.952547
 30
0.0
 11
248.158557
 21
100.744094
 31
0.0
  0
LINE
  5
CA
  8
3
 10
250.17264499999999
 20
99.364142999999999
 30
0.0
 11
248.158557
 21
100.572596
 31
0.0
  0
LINE
  5
CB
  8
3
 10
252.28963100000001
 20
100.572596
 30
0.0
 11
250.275544
 21
99.364142999999999
 31
0.0
  0
LINE
  5
CC
  8
3
 10
252.28963100000001
 20
100.744094
 30
0.0
 11
250.275544
 21
101.952547
 31
0.0
  0
ARC
  5
CD
  8
3
 10
255.22409400000001
 20
83.866797000000005
 30
0.0
 40
0.1
 50
59.036242999999999
 51
120.963757
  0
ARC
  5
CE
  8
3
 10
257.23818199999999
 20
82.658344999999997
 30
0.0
 40
0.1
 50
300.96375699999999
 51
59.036242999999999
  0
ARC
  5
CF
  8
3
 10
255.22409400000001
 20
81.449893000000003
 30
0.0
 40
0.1
 50
239.03624300000001
 51
300.96375699999999
  0
ARC
  5
D0
  8
3
 10
253.21000699999999
 20
82.658344999999997
 30
0.0
 40
0.1
 50
120.963757
 51
239.03624300000001
  0
LINE
  5
D1
  8
3
 10
255.17264499999999
 20
83.952546999999996
 30
0.0
 11
253.158557
 21
82.74409399999999
 31
0.0
  0
LINE
  5
D2
  8
3
 10
255.17264499999999
 20
81.364142999999999
 30
0.0
 11
253.158557
 21
82.57259599999999
 31
0.0
  0
LINE
  5
D3
  8
3
 10
257.28963099999999
 20
82.57259599999999
 30
0.0
 11
255.275544
 21
81.364142999999999
 31
0.0
  0
LINE
  5
D4
  8
3
 10
257.28963099999999
 20
82.74409399999999
 30
0.0
 11
255.275544
 21
83.952546999999996
 31
0.0
  0
ARC
  5
D5
  8
3
 10
255.22409400000001
 20
86.866796999999991
 30
0.0
 40
0.1
 50
59.036242999999999
 51
120.963757
  0
ARC
  5
D6
  8
3
 10
257.23818199999999
 20
85.658344999999997
 30
0.0
 40
0.1
 50
300.96375699999999
 51
59.036242999999999
  0
ARC
  5
D7
  8
3
 10
255.22409400000001
 20
84.449893000000003
 30
0.0
 40
0.1
 50
239.03624300000001
 51
300.96375699999999
  0
ARC
  5
D8
  8
3
 10
253.21000699999999
 20
85.658344999999997
 30
0.0
 40
0.1
 50
120.963757
 51
239.03624300000001
  0
LINE
  5
D9
  8
3
 10
255.17264499999999
 20
86.952546999999996
 30
0.0
 11
253.158557
 21
85.744093999999976
 31
0.0
  0
LINE
  5
DA
  8
3
 10
255.17264499999999
 20
84.364142999999999
 30
0.0
 11
253.158557
 21
85.572596000000004
 31
0.0
  0
LINE
  5
DB
  8
3
 10
257.28963099999999
 20
85.572596000000004
 30
0.0
 11
255.275544
 21
84.364142999999999
 31
0.0
  0
LINE
  5
DC
  8
3
 10
257.28963099999999
 20
85.744093999999976
 30
0.0
 11
255.275544
 21
86.952546999999996
 31
0.0
  0
ARC
  5
DD
  8
3
 10
255.22409400000001
 20
89.866796999999991
 30
0.0
 40
0.1
 50
59.036242999999999
 51
120.963757
  0
ARC
  5
DE
  8
3
 10
257.23818199999999
 20
88.658344999999997
 30
0.0
 40
0.1
 50
300.96375699999999
 51
59.036242999999999
  0
ARC
  5
DF
  8
3
 10
255.22409400000001
 20
87.449893000000003
 30
0.0
 40
0.1
 50
239.03624300000001
 51
300.96375699999999
  0
ARC
  5
E0
  8
3
 10
253.21000699999999
 20
88.658344999999997
 30
0.0
 40
0.1
 50
120.963757
 51
239.03624300000001
  0
LINE
  5
E1
  8
3
 10
255.17264499999999
 20
89.952546999999996
 30
0.0
 11
253.158557
 21
88.74409399999999
 31
0.0
  0
LINE
  5
E2
  8
3
 10
255.17264499999999
 20
87.364142999999984
 30
0.0
 11
253.158557
 21
88.57259599999999
 31
0.0
  0
LINE
  5
E3
  8
3
 10
257.28963099999999
 20
88.57259599999999
 30
0.0
 11
255.275544
 21
87.364142999999984
 31
0.0
  0
LINE
  5
E4
  8
3
 10
257.28963099999999
 20
88.74409399999999
 30
0.0
 11
255.275544
 21
89.952546999999996
 31
0.0
  0
ARC
  5
E5
  8
3
 10
255.22409400000001
 20
92.866796999999977
 30
0.0
 40
0.1
 50
59.036242999999999
 51
120.963757
  0
ARC
  5
E6
  8
3
 10
257.23818199999999
 20
91.658344999999997
 30
0.0
 40
0.1
 50
300.96375699999999
 51
59.036242999999999
  0
ARC
  5
E7
  8
3
 10
255.22409400000001
 20
90.449893000000003
 30
0.0
 40
0.1
 50
239.03624300000001
 51
300.96375699999999
  0
ARC
  5
E8
  8
3
 10
253.21000699999999
 20
91.658344999999997
 30
0.0
 40
0.1
 50
120.963757
 51
239.03624300000001
  0
LINE
  5
E9
  8
3
 10
255.17264499999999
 20
92.952546999999996
 30
0.0
 11
253.158557
 21
91.744094000000004
 31
0.0
  0
LINE
  5
EA
  8
3
 10
255.17264499999999
 20
90.364142999999999
 30
0.0
 11
253.158557
 21
91.57259599999999
 31
0.0
  0
LINE
  5
EB
  8
3
 10
257.28963099999999
 20
91.57259599999999
 30
0.0
 11
255.275544
 21
90.364142999999999
 31
0.0
  0
LINE
  5
EC
  8
3
 10
257.28963099999999
 20
91.744094000000004
 30
0.0
 11
255.275544
 21
92.952546999999996
 31
0.0
  0
ARC
  5
ED
  8
3
 10
255.22409400000001
 20
95.866796999999991
 30
0.0
 40
0.1
 50
59.036242999999999
 51
120.963757
  0
ARC
  5
EE
  8
3
 10
257.23818199999999
 20
94.658344999999997
 30
0.0
 40
0.1
 50
300.96375699999999
 51
59.036242999999999
  0
ARC
  5
EF
  8
3
 10
255.22409400000001
 20
93.449892999999989
 30
0.0
 40
0.1
 50
239.03624300000001
 51
300.96375699999999
  0
ARC
  5
F0
  8
3
 10
253.21000699999999
 20
94.658344999999997
 30
0.0
 40
0.1
 50
120.963757
 51
239.03624300000001
  0
LINE
  5
F1
  8
3
 10
255.17264499999999
 20
95.952546999999996
 30
0.0
 11
253.158557
 21
94.744093999999976
 31
0.0
  0
LINE
  5
F2
  8
3
 10
255.17264499999999
 20
93.364142999999984
 30
0.0
 11
253.158557
 21
94.572595999999976
 31
0.0
  0
LINE
  5
F3
  8
3
 10
257.28963099999999
 20
94.572595999999976
 30
0.0
 11
255.275544
 21
93.364142999999984
 31
0.0
  0
LINE
  5
F4
  8
3
 10
257.28963099999999
 20
94.744093999999976
 30
0.0
 11
255.275544
 21
95.952546999999996
 31
0.0
  0
ARC
  5
F5
  8
3
 10
255.22409400000001
 20
98.866797000000005
 30
0.0
 40
0.1
 50
59.036242999999999
 51
120.963757
  0
ARC
  5
F6
  8
3
 10
257.23818199999999
 20
97.658344999999997
 30
0.0
 40
0.1
 50
300.96375699999999
 51
59.036242999999999
  0
ARC
  5
F7
  8
3
 10
255.22409400000001
 20
96.449893000000003
 30
0.0
 40
0.1
 50
239.03624300000001
 51
300.96375699999999
  0
ARC
  5
F8
  8
3
 10
253.21000699999999
 20
97.658344999999997
 30
0.0
 40
0.1
 50
120.963757
 51
239.03624300000001
  0
LINE
  5
F9
  8
3
 10
255.17264499999999
 20
98.952546999999996
 30
0.0
 11
253.158557
 21
97.74409399999999
 31
0.0
  0
LINE
  5
FA
  8
3
 10
255.17264499999999
 20
96.364142999999999
 30
0.0
 11
253.158557
 21
97.57259599999999
 31
0.0
  0
LINE
  5
FB
  8
3
 10
257.28963099999999
 20
97.57259599999999
 30
0.0
 11
255.275544
 21
96.364142999999999
 31
0.0
  0
LINE
  5
FC
  8
3
 10
257.28963099999999
 20
97.74409399999999
 30
0.0
 11
255.275544
 21
98.952546999999996
 31
0.0
  0
ARC
  5
FD
  8
3
 10
255.22409400000001
 20
101.86679700000001
 30
0.0
 40
0.1
 50
59.036242999999999
 51
120.963757
  0
ARC
  5
FE
  8
3
 10
257.23818199999999
 20
100.658345
 30
0.0
 40
0.1
 50
300.96375699999999
 51
59.036242999999999
  0
ARC
  5
FF
  8
3
 10
255.22409400000001
 20
99.449893000000003
 30
0.0
 40
0.1
 50
239.03624300000001
 51
300.96375699999999
  0
ARC
  5
100
  8
3
 10
253.21000699999999
 20
100.658345
 30
0.0
 40
0.1
 50
120.963757
 51
239.03624300000001
  0
LINE
  5
101
  8
3
 10
255.17264499999999
 20
101.952547
 30
0.0
 11
253.158557
 21
100.744094
 31
0.0
  0
LINE
  5
102
  8
3
 10
255.17264499999999
 20
99.364142999999999
 30
0.0
 11
253.158557
 21
100.572596
 31
0.0
  0
LINE
  5
103
  8
3
 10
257.28963099999999
 20
100.572596
 30
0.0
 11
255.275544
 21
99.364142999999999
 31
0.0
  0
LINE
  5
104
  8
3
 10
257.28963099999999
 20
100.744094
 30
0.0
 11
255.275544
 21
101.952547
 31
0.0
  0
ARC
  5
105
  8
3
 10
260.22409399999998
 20
83.866797000000005
 30
0.0
 40
0.1
 50
59.036242999999999
 51
120.963757
  0
ARC
  5
106
  8
3
 10
262.23818199999999
 20
82.658344999999997
 30
0.0
 40
0.1
 50
300.96375699999999
 51
59.036242999999999
  0
ARC
  5
107
  8
3
 10
260.22409399999998
 20
81.449893000000003
 30
0.0
 40
0.1
 50
239.03624300000001
 51
300.96375699999999
  0
ARC
  5
108
  8
3
 10
258.21000700000002
 20
82.658344999999997
 30
0.0
 40
0.1
 50
120.963757
 51
239.03624300000001
  0
LINE
  5
109
  8
3
 10
260.1726450000001
 20
83.952546999999996
 30
0.0
 11
258.15855699999997
 21
82.74409399999999
 31
0.0
  0
LINE
  5
10A
  8
3
 10
260.1726450000001
 20
81.364142999999999
 30
0.0
 11
258.15855699999997
 21
82.57259599999999
 31
0.0
  0
LINE
  5
10B
  8
3
 10
262.28963099999999
 20
82.57259599999999
 30
0.0
 11
260.27554400000002
 21
81.364142999999999
 31
0.0
  0
LINE
  5
10C
  8
3
 10
262.28963099999999
 20
82.74409399999999
 30
0.0
 11
260.27554400000002
 21
83.952546999999996
 31
0.0
  0
ARC
  5
10D
  8
3
 10
260.22409399999998
 20
86.866796999999991
 30
0.0
 40
0.1
 50
59.036242999999999
 51
120.963757
  0
ARC
  5
10E
  8
3
 10
262.23818199999999
 20
85.658344999999997
 30
0.0
 40
0.1
 50
300.96375699999999
 51
59.036242999999999
  0
ARC
  5
10F
  8
3
 10
260.22409399999998
 20
84.449893000000003
 30
0.0
 40
0.1
 50
239.03624300000001
 51
300.96375699999999
  0
ARC
  5
110
  8
3
 10
258.21000700000002
 20
85.658344999999997
 30
0.0
 40
0.1
 50
120.963757
 51
239.03624300000001
  0
LINE
  5
111
  8
3
 10
260.1726450000001
 20
86.952546999999996
 30
0.0
 11
258.15855699999997
 21
85.744093999999976
 31
0.0
  0
LINE
  5
112
  8
3
 10
260.1726450000001
 20
84.364142999999999
 30
0.0
 11
258.15855699999997
 21
85.572596000000004
 31
0.0
  0
LINE
  5
113
  8
3
 10
262.28963099999999
 20
85.572596000000004
 30
0.0
 11
260.27554400000002
 21
84.364142999999999
 31
0.0
  0
LINE
  5
114
  8
3
 10
262.28963099999999
 20
85.744093999999976
 30
0.0
 11
260.27554400000002
 21
86.952546999999996
 31
0.0
  0
ARC
  5
115
  8
3
 10
260.22409399999998
 20
89.866796999999991
 30
0.0
 40
0.1
 50
59.036242999999999
 51
120.963757
  0
ARC
  5
116
  8
3
 10
262.23818199999999
 20
88.658344999999997
 30
0.0
 40
0.1
 50
300.96375699999999
 51
59.036242999999999
  0
ARC
  5
117
  8
3
 10
260.22409399999998
 20
87.449893000000003
 30
0.0
 40
0.1
 50
239.03624300000001
 51
300.96375699999999
  0
ARC
  5
118
  8
3
 10
258.21000700000002
 20
88.658344999999997
 30
0.0
 40
0.1
 50
120.963757
 51
239.03624300000001
  0
LINE
  5
119
  8
3
 10
260.1726450000001
 20
89.952546999999996
 30
0.0
 11
258.15855699999997
 21
88.74409399999999
 31
0.0
  0
LINE
  5
11A
  8
3
 10
260.1726450000001
 20
87.364142999999984
 30
0.0
 11
258.15855699999997
 21
88.57259599999999
 31
0.0
  0
LINE
  5
11B
  8
3
 10
262.28963099999999
 20
88.57259599999999
 30
0.0
 11
260.27554400000002
 21
87.364142999999984
 31
0.0
  0
LINE
  5
11C
  8
3
 10
262.28963099999999
 20
88.74409399999999
 30
0.0
 11
260.27554400000002
 21
89.952546999999996
 31
0.0
  0
ARC
  5
11D
  8
3
 10
260.22409399999998
 20
92.866796999999977
 30
0.0
 40
0.1
 50
59.036242999999999
 51
120.963757
  0
ARC
  5
11E
  8
3
 10
262.23818199999999
 20
91.658344999999997
 30
0.0
 40
0.1
 50
300.96375699999999
 51
59.036242999999999
  0
ARC
  5
11F
  8
3
 10
260.22409399999998
 20
90.449893000000003
 30
0.0
 40
0.1
 50
239.03624300000001
 51
300.96375699999999
  0
ARC
  5
120
  8
3
 10
258.21000700000002
 20
91.658344999999997
 30
0.0
 40
0.1
 50
120.963757
 51
239.03624300000001
  0
LINE
  5
121
  8
3
 10
260.1726450000001
 20
92.952546999999996
 30
0.0
 11
258.15855699999997
 21
91.744094000000004
 31
0.0
  0
LINE
  5
122
  8
3
 10
260.1726450000001
 20
90.364142999999999
 30
0.0
 11
258.15855699999997
 21
91.57259599999999
 31
0.0
  0
LINE
  5
123
  8
3
 10
262.28963099999999
 20
91.57259599999999
 30
0.0
 11
260.27554400000002
 21
90.364142999999999
 31
0.0
  0
LINE
  5
124
  8
3
 10
262.28963099999999
 20
91.744094000000004
 30
0.0
 11
260.27554400000002
 21
92.952546999999996
 31
0.0
  0
ARC
  5
125
  8
3
 10
260.22409399999998
 20
95.866796999999991
 30
0.0
 40
0.1
 50
59.036242999999999
 51
120.963757
  0
ARC
  5
126
  8
3
 10
262.23818199999999
 20
94.658344999999997
 30
0.0
 40
0.1
 50
300.96375699999999
 51
59.036242999999999
  0
ARC
  5
127
  8
3
 10
260.22409399999998
 20
93.449892999999989
 30
0.0
 40
0.1
 50
239.03624300000001
 51
300.96375699999999
  0
ARC
  5
128
  8
3
 10
258.21000700000002
 20
94.658344999999997
 30
0.0
 40
0.1
 50
120.963757
 51
239.03624300000001
  0
LINE
  5
129
  8
3
 10
260.1726450000001
 20
95.952546999999996
 30
0.0
 11
258.15855699999997
 21
94.744093999999976
 31
0.0
  0
LINE
  5
12A
  8
3
 10
260.1726450000001
 20
93.364142999999984
 30
0.0
 11
258.15855699999997
 21
94.572595999999976
 31
0.0
  0
LINE
  5
12B
  8
3
 10
262.28963099999999
 20
94.572595999999976
 30
0.0
 11
260.27554400000002
 21
93.364142999999984
 31
0.0
  0
LINE
  5
12C
  8
3
 10
262.28963099999999
 20
94.744093999999976
 30
0.0
 11
260.27554400000002
 21
95.952546999999996
 31
0.0
  0
ARC
  5
12D
  8
3
 10
260.22409399999998
 20
98.866797000000005
 30
0.0
 40
0.1
 50
59.036242999999999
 51
120.963757
  0
ARC
  5
12E
  8
3
 10
262.23818199999999
 20
97.658344999999997
 30
0.0
 40
0.1
 50
300.96375699999999
 51
59.036242999999999
  0
ARC
  5
12F
  8
3
 10
260.22409399999998
 20
96.449893000000003
 30
0.0
 40
0.1
 50
239.03624300000001
 51
300.96375699999999
  0
ARC
  5
130
  8
3
 10
258.21000700000002
 20
97.658344999999997
 30
0.0
 40
0.1
 50
120.963757
 51
239.03624300000001
  0
LINE
  5
131
  8
3
 10
260.1726450000001
 20
98.952546999999996
 30
0.0
 11
258.15855699999997
 21
97.74409399999999
 31
0.0
  0
LINE
  5
132
  8
3
 10
260.1726450000001
 20
96.364142999999999
 30
0.0
 11
258.15855699999997
 21
97.57259599999999
 31
0.0
  0
LINE
  5
133
  8
3
 10
262.28963099999999
 20
97.57259599999999
 30
0.0
 11
260.27554400000002
 21
96.364142999999999
 31
0.0
  0
LINE
  5
134
  8
3
 10
262.28963099999999
 20
97.74409399999999
 30
0.0
 11
260.27554400000002
 21
98.952546999999996
 31
0.0
  0
ARC
  5
135
  8
3
 10
260.22409399999998
 20
101.86679700000001
 30
0.0
 40
0.1
 50
59.036242999999999
 51
120.963757
  0
ARC
  5
136
  8
3
 10
262.23818199999999
 20
100.658345
 30
0.0
 40
0.1
 50
300.96375699999999
 51
59.036242999999999
  0
ARC
  5
137
  8
3
 10
260.22409399999998
 20
99.449893000000003
 30
0.0
 40
0.1
 50
239.03624300000001
 51
300.96375699999999
  0
ARC
  5
138
  8
3
 10
258.21000700000002
 20
100.658345
 30
0.0
 40
0.1
 50
120.963757
 51
239.03624300000001
  0
LINE
  5
139
  8
3
 10
260.1726450000001
 20
101.952547
 30
0.0
 11
258.15855699999997
 21
100.744094
 31
0.0
  0
LINE
  5
13A
  8
3
 10
260.1726450000001
 20
99.364142999999999
 30
0.0
 11
258.15855699999997
 21
100.572596
 31
0.0
  0
LINE
  5
13B
  8
3
 10
262.28963099999999
 20
100.572596
 30
0.0
 11
260.27554400000002
 21
99.364142999999999
 31
0.0
  0
LINE
  5
13C
  8
3
 10
262.28963099999999
 20
100.744094
 30
0.0
 11
260.27554400000002
 21
101.952547
 31
0.0
  0
ARC
  5
13D
  8
3
 10
265.22409399999998
 20
83.866797000000005
 30
0.0
 40
0.1
 50
59.036242999999999
 51
120.963757
  0
ARC
  5
13E
  8
3
 10
267.23818199999999
 20
82.658344999999997
 30
0.0
 40
0.1
 50
300.96375699999999
 51
59.036242999999999
  0
ARC
  5
13F
  8
3
 10
265.22409399999998
 20
81.449893000000003
 30
0.0
 40
0.1
 50
239.03624300000001
 51
300.96375699999999
  0
ARC
  5
140
  8
3
 10
263.21000699999991
 20
82.658344999999997
 30
0.0
 40
0.1
 50
120.963757
 51
239.03624300000001
  0
LINE
  5
141
  8
3
 10
265.17264499999999
 20
83.952546999999996
 30
0.0
 11
263.15855699999997
 21
82.74409399999999
 31
0.0
  0
LINE
  5
142
  8
3
 10
265.17264499999999
 20
81.364142999999999
 30
0.0
 11
263.15855699999997
 21
82.57259599999999
 31
0.0
  0
LINE
  5
143
  8
3
 10
267.28963099999999
 20
82.57259599999999
 30
0.0
 11
265.27554399999991
 21
81.364142999999999
 31
0.0
  0
LINE
  5
144
  8
3
 10
267.28963099999999
 20
82.74409399999999
 30
0.0
 11
265.27554399999991
 21
83.952546999999996
 31
0.0
  0
ARC
  5
145
  8
3
 10
265.22409399999998
 20
86.866796999999991
 30
0.0
 40
0.1
 50
59.036242999999999
 51
120.963757
  0
ARC
  5
146
  8
3
 10
267.23818199999999
 20
85.658344999999997
 30
0.0
 40
0.1
 50
300.96375699999999
 51
59.036242999999999
  0
ARC
  5
147
  8
3
 10
265.22409399999998
 20
84.449893000000003
 30
0.0
 40
0.1
 50
239.03624300000001
 51
300.96375699999999
  0
ARC
  5
148
  8
3
 10
263.21000699999991
 20
85.658344999999997
 30
0.0
 40
0.1
 50
120.963757
 51
239.03624300000001
  0
LINE
  5
149
  8
3
 10
265.17264499999999
 20
86.952546999999996
 30
0.0
 11
263.15855699999997
 21
85.744093999999976
 31
0.0
  0
LINE
  5
14A
  8
3
 10
265.17264499999999
 20
84.364142999999999
 30
0.0
 11
263.15855699999997
 21
85.572596000000004
 31
0.0
  0
LINE
  5
14B
  8
3
 10
267.28963099999999
 20
85.572596000000004
 30
0.0
 11
265.27554399999991
 21
84.364142999999999
 31
0.0
  0
LINE
  5
14C
  8
3
 10
267.28963099999999
 20
85.744093999999976
 30
0.0
 11
265.27554399999991
 21
86.952546999999996
 31
0.0
  0
ARC
  5
14D
  8
3
 10
265.22409399999998
 20
89.866796999999991
 30
0.0
 40
0.1
 50
59.036242999999999
 51
120.963757
  0
ARC
  5
14E
  8
3
 10
267.23818199999999
 20
88.658344999999997
 30
0.0
 40
0.1
 50
300.96375699999999
 51
59.036242999999999
  0
ARC
  5
14F
  8
3
 10
265.22409399999998
 20
87.449893000000003
 30
0.0
 40
0.1
 50
239.03624300000001
 51
300.96375699999999
  0
ARC
  5
150
  8
3
 10
263.21000699999991
 20
88.658344999999997
 30
0.0
 40
0.1
 50
120.963757
 51
239.03624300000001
  0
LINE
  5
151
  8
3
 10
265.17264499999999
 20
89.952546999999996
 30
0.0
 11
263.15855699999997
 21
88.74409399999999
 31
0.0
  0
LINE
  5
152
  8
3
 10
265.17264499999999
 20
87.364142999999984
 30
0.0
 11
263.15855699999997
 21
88.57259599999999
 31
0.0
  0
LINE
  5
153
  8
3
 10
267.28963099999999
 20
88.57259599999999
 30
0.0
 11
265.27554399999991
 21
87.364142999999984
 31
0.0
  0
LINE
  5
154
  8
3
 10
267.28963099999999
 20
88.74409399999999
 30
0.0
 11
265.27554399999991
 21
89.952546999999996
 31
0.0
  0
ARC
  5
155
  8
3
 10
265.22409399999998
 20
92.866796999999977
 30
0.0
 40
0.1
 50
59.036242999999999
 51
120.963757
  0
ARC
  5
156
  8
3
 10
267.23818199999999
 20
91.658344999999997
 30
0.0
 40
0.1
 50
300.96375699999999
 51
59.036242999999999
  0
ARC
  5
157
  8
3
 10
265.22409399999998
 20
90.449893000000003
 30
0.0
 40
0.1
 50
239.03624300000001
 51
300.96375699999999
  0
ARC
  5
158
  8
3
 10
263.21000699999991
 20
91.658344999999997
 30
0.0
 40
0.1
 50
120.963757
 51
239.03624300000001
  0
LINE
  5
159
  8
3
 10
265.17264499999999
 20
92.952546999999996
 30
0.0
 11
263.15855699999997
 21
91.744094000000004
 31
0.0
  0
LINE
  5
15A
  8
3
 10
265.17264499999999
 20
90.364142999999999
 30
0.0
 11
263.15855699999997
 21
91.57259599999999
 31
0.0
  0
LINE
  5
15B
  8
3
 10
267.28963099999999
 20
91.57259599999999
 30
0.0
 11
265.27554399999991
 21
90.364142999999999
 31
0.0
  0
LINE
  5
15C
  8
3
 10
267.28963099999999
 20
91.744094000000004
 30
0.0
 11
265.27554399999991
 21
92.952546999999996
 31
0.0
  0
ARC
  5
15D
  8
3
 10
265.22409399999998
 20
95.866796999999991
 30
0.0
 40
0.1
 50
59.036242999999999
 51
120.963757
  0
ARC
  5
15E
  8
3
 10
267.23818199999999
 20
94.658344999999997
 30
0.0
 40
0.1
 50
300.96375699999999
 51
59.036242999999999
  0
ARC
  5
15F
  8
3
 10
265.22409399999998
 20
93.449892999999989
 30
0.0
 40
0.1
 50
239.03624300000001
 51
300.96375699999999
  0
ARC
  5
160
  8
3
 10
263.21000699999991
 20
94.658344999999997
 30
0.0
 40
0.1
 50
120.963757
 51
239.03624300000001
  0
LINE
  5
161
  8
3
 10
265.17264499999999
 20
95.952546999999996
 30
0.0
 11
263.15855699999997
 21
94.744093999999976
 31
0.0
  0
LINE
  5
162
  8
3
 10
265.17264499999999
 20
93.364142999999984
 30
0.0
 11
263.15855699999997
 21
94.572595999999976
 31
0.0
  0
LINE
  5
163
  8
3
 10
267.28963099999999
 20
94.572595999999976
 30
0.0
 11
265.27554399999991
 21
93.364142999999984
 31
0.0
  0
LINE
  5
164
  8
3
 10
267.28963099999999
 20
94.744093999999976
 30
0.0
 11
265.27554399999991
 21
95.952546999999996
 31
0.0
  0
ARC
  5
165
  8
3
 10
265.22409399999998
 20
98.866797000000005
 30
0.0
 40
0.1
 50
59.036242999999999
 51
120.963757
  0
ARC
  5
166
  8
3
 10
267.23818199999999
 20
97.658344999999997
 30
0.0
 40
0.1
 50
300.96375699999999
 51
59.036242999999999
  0
ARC
  5
167
  8
3
 10
265.22409399999998
 20
96.449893000000003
 30
0.0
 40
0.1
 50
239.03624300000001
 51
300.96375699999999
  0
ARC
  5
168
  8
3
 10
263.21000699999991
 20
97.658344999999997
 30
0.0
 40
0.1
 50
120.963757
 51
239.03624300000001
  0
LINE
  5
169
  8
3
 10
265.17264499999999
 20
98.952546999999996
 30
0.0
 11
263.15855699999997
 21
97.74409399999999
 31
0.0
  0
LINE
  5
16A
  8
3
 10
265.17264499999999
 20
96.364142999999999
 30
0.0
 11
263.15855699999997
 21
97.57259599999999
 31
0.0
  0
LINE
  5
16B
  8
3
 10
267.28963099999999
 20
97.57259599999999
 30
0.0
 11
265.27554399999991
 21
96.364142999999999
 31
0.0
  0
LINE
  5
16C
  8
3
 10
267.28963099999999
 20
97.74409399999999
 30
0.0
 11
265.27554399999991
 21
98.952546999999996
 31
0.0
  0
ARC
  5
16D
  8
3
 10
265.22409399999998
 20
101.86679700000001
 30
0.0
 40
0.1
 50
59.036242999999999
 51
120.963757
  0
ARC
  5
16E
  8
3
 10
267.23818199999999
 20
100.658345
 30
0.0
 40
0.1
 50
300.96375699999999
 51
59.036242999999999
  0
ARC
  5
16F
  8
3
 10
265.22409399999998
 20
99.449893000000003
 30
0.0
 40
0.1
 50
239.03624300000001
 51
300.96375699999999
  0
ARC
  5
170
  8
3
 10
263.21000699999991
 20
100.658345
 30
0.0
 40
0.1
 50
120.963757
 51
239.03624300000001
  0
LINE
  5
171
  8
3
 10
265.17264499999999
 20
101.952547
 30
0.0
 11
263.15855699999997
 21
100.744094
 31
0.0
  0
LINE
  5
172
  8
3
 10
265.17264499999999
 20
99.364142999999999
 30
0.0
 11
263.15855699999997
 21
100.572596
 31
0.0
  0
LINE
  5
173
  8
3
 10
267.28963099999999
 20
100.572596
 30
0.0
 11
265.27554399999991
 21
99.364142999999999
 31
0.0
  0
LINE
  5
174
  8
3
 10
267.28963099999999
 20
100.744094
 30
0.0
 11
265.27554399999991
 21
101.952547
 31
0.0
  0
ARC
  5
175
  8
3
 10
270.22409399999998
 20
83.866797000000005
 30
0.0
 40
0.1
 50
59.036242999999999
 51
120.963757
  0
ARC
  5
176
  8
3
 10
272.23818199999999
 20
82.658344999999997
 30
0.0
 40
0.1
 50
300.96375699999999
 51
59.036242999999999
  0
ARC
  5
177
  8
3
 10
270.22409399999998
 20
81.449893000000003
 30
0.0
 40
0.1
 50
239.03624300000001
 51
300.96375699999999
  0
ARC
  5
178
  8
3
 10
268.21000700000002
 20
82.658344999999997
 30
0.0
 40
0.1
 50
120.963757
 51
239.03624300000001
  0
LINE
  5
179
  8
3
 10
270.1726450000001
 20
83.952546999999996
 30
0.0
 11
268.15855699999997
 21
82.74409399999999
 31
0.0
  0
LINE
  5
17A
  8
3
 10
270.1726450000001
 20
81.364142999999999
 30
0.0
 11
268.15855699999997
 21
82.57259599999999
 31
0.0
  0
LINE
  5
17B
  8
3
 10
272.28963099999999
 20
82.57259599999999
 30
0.0
 11
270.27554400000002
 21
81.364142999999999
 31
0.0
  0
LINE
  5
17C
  8
3
 10
272.28963099999999
 20
82.74409399999999
 30
0.0
 11
270.27554400000002
 21
83.952546999999996
 31
0.0
  0
ARC
  5
17D
  8
3
 10
270.22409399999998
 20
86.866796999999991
 30
0.0
 40
0.1
 50
59.036242999999999
 51
120.963757
  0
ARC
  5
17E
  8
3
 10
272.23818199999999
 20
85.658344999999997
 30
0.0
 40
0.1
 50
300.96375699999999
 51
59.036242999999999
  0
ARC
  5
17F
  8
3
 10
270.22409399999998
 20
84.449893000000003
 30
0.0
 40
0.1
 50
239.03624300000001
 51
300.96375699999999
  0
ARC
  5
180
  8
3
 10
268.21000700000002
 20
85.658344999999997
 30
0.0
 40
0.1
 50
120.963757
 51
239.03624300000001
  0
LINE
  5
181
  8
3
 10
270.1726450000001
 20
86.952546999999996
 30
0.0
 11
268.15855699999997
 21
85.744093999999976
 31
0.0
  0
LINE
  5
182
  8
3
 10
270.1726450000001
 20
84.364142999999999
 30
0.0
 11
268.15855699999997
 21
85.572596000000004
 31
0.0
  0
LINE
  5
183
  8
3
 10
272.28963099999999
 20
85.572596000000004
 30
0.0
 11
270.27554400000002
 21
84.364142999999999
 31
0.0
  0
LINE
  5
184
  8
3
 10
272.28963099999999
 20
85.744093999999976
 30
0.0
 11
270.27554400000002
 21
86.952546999999996
 31
0.0
  0
ARC
  5
185
  8
3
 10
270.22409399999998
 20
89.866796999999991
 30
0.0
 40
0.1
 50
59.036242999999999
 51
120.963757
  0
ARC
  5
186
  8
3
 10
272.23818199999999
 20
88.658344999999997
 30
0.0
 40
0.1
 50
300.96375699999999
 51
59.036242999999999
  0
ARC
  5
187
  8
3
 10
270.22409399999998
 20
87.449893000000003
 30
0.0
 40
0.1
 50
239.03624300000001
 51
300.96375699999999
  0
ARC
  5
188
  8
3
 10
268.21000700000002
 20
88.658344999999997
 30
0.0
 40
0.1
 50
120.963757
 51
239.03624300000001
  0
LINE
  5
189
  8
3
 10
270.1726450000001
 20
89.952546999999996
 30
0.0
 11
268.15855699999997
 21
88.74409399999999
 31
0.0
  0
LINE
  5
18A
  8
3
 10
270.1726450000001
 20
87.364142999999984
 30
0.0
 11
268.15855699999997
 21
88.57259599999999
 31
0.0
  0
LINE
  5
18B
  8
3
 10
272.28963099999999
 20
88.57259599999999
 30
0.0
 11
270.27554400000002
 21
87.364142999999984
 31
0.0
  0
LINE
  5
18C
  8
3
 10
272.28963099999999
 20
88.74409399999999
 30
0.0
 11
270.27554400000002
 21
89.952546999999996
 31
0.0
  0
ARC
  5
18D
  8
3
 10
270.22409399999998
 20
92.866796999999977
 30
0.0
 40
0.1
 50
59.036242999999999
 51
120.963757
  0
ARC
  5
18E
  8
3
 10
272.23818199999999
 20
91.658344999999997
 30
0.0
 40
0.1
 50
300.96375699999999
 51
59.036242999999999
  0
ARC
  5
18F
  8
3
 10
270.22409399999998
 20
90.449893000000003
 30
0.0
 40
0.1
 50
239.03624300000001
 51
300.96375699999999
  0
ARC
  5
190
  8
3
 10
268.21000700000002
 20
91.658344999999997
 30
0.0
 40
0.1
 50
120.963757
 51
239.03624300000001
  0
LINE
  5
191
  8
3
 10
270.1726450000001
 20
92.952546999999996
 30
0.0
 11
268.15855699999997
 21
91.744094000000004
 31
0.0
  0
LINE
  5
192
  8
3
 10
270.1726450000001
 20
90.364142999999999
 30
0.0
 11
268.15855699999997
 21
91.57259599999999
 31
0.0
  0
LINE
  5
193
  8
3
 10
272.28963099999999
 20
91.57259599999999
 30
0.0
 11
270.27554400000002
 21
90.364142999999999
 31
0.0
  0
LINE
  5
194
  8
3
 10
272.28963099999999
 20
91.744094000000004
 30
0.0
 11
270.27554400000002
 21
92.952546999999996
 31
0.0
  0
ARC
  5
195
  8
3
 10
270.22409399999998
 20
95.866796999999991
 30
0.0
 40
0.1
 50
59.036242999999999
 51
120.963757
  0
ARC
  5
196
  8
3
 10
272.23818199999999
 20
94.658344999999997
 30
0.0
 40
0.1
 50
300.96375699999999
 51
59.036242999999999
  0
ARC
  5
197
  8
3
 10
270.22409399999998
 20
93.449892999999989
 30
0.0
 40
0.1
 50
239.03624300000001
 51
300.96375699999999
  0
ARC
  5
198
  8
3
 10
268.21000700000002
 20
94.658344999999997
 30
0.0
 40
0.1
 50
120.963757
 51
239.03624300000001
  0
LINE
  5
199
  8
3
 10
270.1726450000001
 20
95.952546999999996
 30
0.0
 11
268.15855699999997
 21
94.744093999999976
 31
0.0
  0
LINE
  5
19A
  8
3
 10
270.1726450000001
 20
93.364142999999984
 30
0.0
 11
268.15855699999997
 21
94.572595999999976
 31
0.0
  0
LINE
  5
19B
  8
3
 10
272.28963099999999
 20
94.572595999999976
 30
0.0
 11
270.27554400000002
 21
93.364142999999984
 31
0.0
  0
LINE
  5
19C
  8
3
 10
272.28963099999999
 20
94.744093999999976
 30
0.0
 11
270.27554400000002
 21
95.952546999999996
 31
0.0
  0
ARC
  5
19D
  8
3
 10
270.22409399999998
 20
98.866797000000005
 30
0.0
 40
0.1
 50
59.036242999999999
 51
120.963757
  0
ARC
  5
19E
  8
3
 10
272.23818199999999
 20
97.658344999999997
 30
0.0
 40
0.1
 50
300.96375699999999
 51
59.036242999999999
  0
ARC
  5
19F
  8
3
 10
270.22409399999998
 20
96.449893000000003
 30
0.0
 40
0.1
 50
239.03624300000001
 51
300.96375699999999
  0
ARC
  5
1A0
  8
3
 10
268.21000700000002
 20
97.658344999999997
 30
0.0
 40
0.1
 50
120.963757
 51
239.03624300000001
  0
LINE
  5
1A1
  8
3
 10
270.1726450000001
 20
98.952546999999996
 30
0.0
 11
268.15855699999997
 21
97.74409399999999
 31
0.0
  0
LINE
  5
1A2
  8
3
 10
270.1726450000001
 20
96.364142999999999
 30
0.0
 11
268.15855699999997
 21
97.57259599999999
 31
0.0
  0
LINE
  5
1A3
  8
3
 10
272.28963099999999
 20
97.57259599999999
 30
0.0
 11
270.27554400000002
 21
96.364142999999999
 31
0.0
  0
LINE
  5
1A4
  8
3
 10
272.28963099999999
 20
97.74409399999999
 30
0.0
 11
270.27554400000002
 21
98.952546999999996
 31
0.0
  0
ARC
  5
1A5
  8
3
 10
270.22409399999998
 20
101.86679700000001
 30
0.0
 40
0.1
 50
59.036242999999999
 51
120.963757
  0
ARC
  5
1A6
  8
3
 10
272.23818199999999
 20
100.658345
 30
0.0
 40
0.1
 50
300.96375699999999
 51
59.036242999999999
  0
ARC
  5
1A7
  8
3
 10
270.22409399999998
 20
99.449893000000003
 30
0.0
 40
0.1
 50
239.03624300000001
 51
300.96375699999999
  0
ARC
  5
1A8
  8
3
 10
268.21000700000002
 20
100.658345
 30
0.0
 40
0.1
 50
120.963757
 51
239.03624300000001
  0
LINE
  5
1A9
  8
3
 10
270.1726450000001
 20
101.952547
 30
0.0
 11
268.15855699999997
 21
100.744094
 31
0.0
  0
LINE
  5
1AA
  8
3
 10
270.1726450000001
 20
99.364142999999999
 30
0.0
 11
268.15855699999997
 21
100.572596
 31
0.0
  0
LINE
  5
1AB
  8
3
 10
272.28963099999999
 20
100.572596
 30
0.0
 11
270.27554400000002
 21
99.364142999999999
 31
0.0
  0
LINE
  5
1AC
  8
3
 10
272.28963099999999
 20
100.744094
 30
0.0
 11
270.27554400000002
 21
101.952547
 31
0.0
  0
LINE
  5
1AD
  8
3
 10
272.6726450000001
 20
97.864142999999999
 30
0.0
 11
270.65855699999997
 21
99.07259599999999
 31
0.0
  0
LINE
  5
1AE
  8
3
 10
272.6726450000001
 20
100.452547
 30
0.0
 11
270.65855699999997
 21
99.244094000000004
 31
0.0
  0
ARC
  5
1AF
  8
3
 10
270.71000700000002
 20
99.158344999999997
 30
0.0
 40
0.1
 50
120.963757
 51
239.03624300000001
  0
ARC
  5
1B0
  8
3
 10
272.72409399999998
 20
97.949893000000003
 30
0.0
 40
0.1
 50
239.03624300000001
 51
270.0
  0
ARC
  5
1B1
  8
3
 10
272.72409399999998
 20
100.36679700000001
 30
0.0
 40
0.1
 50
90.0
 51
120.963757
  0
LINE
  5
1B2
  8
3
 10
272.6726450000001
 20
94.864142999999984
 30
0.0
 11
270.65855699999997
 21
96.07259599999999
 31
0.0
  0
LINE
  5
1B3
  8
3
 10
272.6726450000001
 20
97.452546999999996
 30
0.0
 11
270.65855699999997
 21
96.24409399999999
 31
0.0
  0
ARC
  5
1B4
  8
3
 10
270.71000700000002
 20
96.158344999999997
 30
0.0
 40
0.1
 50
120.963757
 51
239.03624300000001
  0
ARC
  5
1B5
  8
3
 10
272.72409399999998
 20
94.949893000000003
 30
0.0
 40
0.1
 50
239.03624300000001
 51
270.0
  0
ARC
  5
1B6
  8
3
 10
272.72409399999998
 20
97.366796999999991
 30
0.0
 40
0.1
 50
90.0
 51
120.963757
  0
LINE
  5
1B7
  8
3
 10
272.6726450000001
 20
91.864142999999999
 30
0.0
 11
270.65855699999997
 21
93.072596000000004
 31
0.0
  0
LINE
  5
1B8
  8
3
 10
272.6726450000001
 20
94.452546999999996
 30
0.0
 11
270.65855699999997
 21
93.244093999999976
 31
0.0
  0
ARC
  5
1B9
  8
3
 10
270.71000700000002
 20
93.158344999999997
 30
0.0
 40
0.1
 50
120.963757
 51
239.03624300000001
  0
ARC
  5
1BA
  8
3
 10
272.72409399999998
 20
91.949893000000003
 30
0.0
 40
0.1
 50
239.03624300000001
 51
270.0
  0
ARC
  5
1BB
  8
3
 10
272.72409399999998
 20
94.366796999999991
 30
0.0
 40
0.1
 50
90.0
 51
120.963757
  0
LINE
  5
1BC
  8
3
 10
272.6726450000001
 20
88.864142999999999
 30
0.0
 11
270.65855699999997
 21
90.07259599999999
 31
0.0
  0
LINE
  5
1BD
  8
3
 10
272.6726450000001
 20
91.452546999999996
 30
0.0
 11
270.65855699999997
 21
90.24409399999999
 31
0.0
  0
ARC
  5
1BE
  8
3
 10
270.71000700000002
 20
90.158344999999997
 30
0.0
 40
0.1
 50
120.963757
 51
239.03624300000001
  0
ARC
  5
1BF
  8
3
 10
272.72409399999998
 20
88.949893000000003
 30
0.0
 40
0.1
 50
239.03624300000001
 51
270.0
  0
ARC
  5
1C0
  8
3
 10
272.72409399999998
 20
91.366797000000005
 30
0.0
 40
0.1
 50
90.0
 51
120.963757
  0
LINE
  5
1C1
  8
3
 10
272.6726450000001
 20
85.864142999999984
 30
0.0
 11
270.65855699999997
 21
87.072595999999976
 31
0.0
  0
LINE
  5
1C2
  8
3
 10
272.6726450000001
 20
88.452546999999996
 30
0.0
 11
270.65855699999997
 21
87.244093999999976
 31
0.0
  0
ARC
  5
1C3
  8
3
 10
270.71000700000002
 20
87.158344999999997
 30
0.0
 40
0.1
 50
120.963757
 51
239.03624300000001
  0
ARC
  5
1C4
  8
3
 10
272.72409399999998
 20
85.949892999999989
 30
0.0
 40
0.1
 50
239.03624300000001
 51
270.0
  0
ARC
  5
1C5
  8
3
 10
272.72409399999998
 20
88.366796999999991
 30
0.0
 40
0.1
 50
90.0
 51
120.963757
  0
LINE
  5
1C6
  8
3
 10
272.6726450000001
 20
82.864142999999999
 30
0.0
 11
270.65855699999997
 21
84.07259599999999
 31
0.0
  0
LINE
  5
1C7
  8
3
 10
272.6726450000001
 20
85.452546999999996
 30
0.0
 11
270.65855699999997
 21
84.244094000000004
 31
0.0
  0
ARC
  5
1C8
  8
3
 10
270.71000700000002
 20
84.158344999999997
 30
0.0
 40
0.1
 50
120.963757
 51
239.03624300000001
  0
ARC
  5
1C9
  8
3
 10
272.72409399999998
 20
82.949893000000003
 30
0.0
 40
0.1
 50
239.03624300000001
 51
270.0
  0
ARC
  5
1CA
  8
3
 10
272.72409399999998
 20
85.366796999999977
 30
0.0
 40
0.1
 50
90.0
 51
120.963757
  0
LINE
  5
1CB
  8
3
 10
269.78963099999999
 20
99.244094000000004
 30
0.0
 11
267.77554400000002
 21
100.452547
 31
0.0
  0
LINE
  5
1CC
  8
3
 10
269.78963099999999
 20
99.07259599999999
 30
0.0
 11
267.77554400000002
 21
97.864142999999999
 31
0.0
  0
LINE
  5
1CD
  8
3
 10
267.67264499999999
 20
97.864142999999999
 30
0.0
 11
265.65855699999997
 21
99.07259599999999
 31
0.0
  0
LINE
  5
1CE
  8
3
 10
267.67264499999999
 20
100.452547
 30
0.0
 11
265.65855699999997
 21
99.244094000000004
 31
0.0
  0
ARC
  5
1CF
  8
3
 10
265.71000700000002
 20
99.158344999999997
 30
0.0
 40
0.1
 50
120.963757
 51
239.03624300000001
  0
ARC
  5
1D0
  8
3
 10
267.72409399999998
 20
97.949893000000003
 30
0.0
 40
0.1
 50
239.03624300000001
 51
300.96375699999999
  0
ARC
  5
1D1
  8
3
 10
269.73818199999999
 20
99.158344999999997
 30
0.0
 40
0.1
 50
300.96375699999999
 51
59.036242999999999
  0
ARC
  5
1D2
  8
3
 10
267.72409399999998
 20
100.36679700000001
 30
0.0
 40
0.1
 50
59.036242999999999
 51
120.963757
  0
LINE
  5
1D3
  8
3
 10
269.78963099999999
 20
96.24409399999999
 30
0.0
 11
267.77554400000002
 21
97.452546999999996
 31
0.0
  0
LINE
  5
1D4
  8
3
 10
269.78963099999999
 20
96.07259599999999
 30
0.0
 11
267.77554400000002
 21
94.864142999999984
 31
0.0
  0
LINE
  5
1D5
  8
3
 10
267.67264499999999
 20
94.864142999999984
 30
0.0
 11
265.65855699999997
 21
96.07259599999999
 31
0.0
  0
LINE
  5
1D6
  8
3
 10
267.67264499999999
 20
97.452546999999996
 30
0.0
 11
265.65855699999997
 21
96.24409399999999
 31
0.0
  0
ARC
  5
1D7
  8
3
 10
265.71000700000002
 20
96.158344999999997
 30
0.0
 40
0.1
 50
120.963757
 51
239.03624300000001
  0
ARC
  5
1D8
  8
3
 10
267.72409399999998
 20
94.949893000000003
 30
0.0
 40
0.1
 50
239.03624300000001
 51
300.96375699999999
  0
ARC
  5
1D9
  8
3
 10
269.73818199999999
 20
96.158344999999997
 30
0.0
 40
0.1
 50
300.96375699999999
 51
59.036242999999999
  0
ARC
  5
1DA
  8
3
 10
267.72409399999998
 20
97.366796999999991
 30
0.0
 40
0.1
 50
59.036242999999999
 51
120.963757
  0
LINE
  5
1DB
  8
3
 10
269.78963099999999
 20
93.244093999999976
 30
0.0
 11
267.77554400000002
 21
94.452546999999996
 31
0.0
  0
LINE
  5
1DC
  8
3
 10
269.78963099999999
 20
93.072596000000004
 30
0.0
 11
267.77554400000002
 21
91.864142999999999
 31
0.0
  0
LINE
  5
1DD
  8
3
 10
267.67264499999999
 20
91.864142999999999
 30
0.0
 11
265.65855699999997
 21
93.072596000000004
 31
0.0
  0
LINE
  5
1DE
  8
3
 10
267.67264499999999
 20
94.452546999999996
 30
0.0
 11
265.65855699999997
 21
93.244093999999976
 31
0.0
  0
ARC
  5
1DF
  8
3
 10
265.71000700000002
 20
93.158344999999997
 30
0.0
 40
0.1
 50
120.963757
 51
239.03624300000001
  0
ARC
  5
1E0
  8
3
 10
267.72409399999998
 20
91.949893000000003
 30
0.0
 40
0.1
 50
239.03624300000001
 51
300.96375699999999
  0
ARC
  5
1E1
  8
3
 10
269.73818199999999
 20
93.158344999999997
 30
0.0
 40
0.1
 50
300.96375699999999
 51
59.036242999999999
  0
ARC
  5
1E2
  8
3
 10
267.72409399999998
 20
94.366796999999991
 30
0.0
 40
0.1
 50
59.036242999999999
 51
120.963757
  0
LINE
  5
1E3
  8
3
 10
269.78963099999999
 20
90.24409399999999
 30
0.0
 11
267.77554400000002
 21
91.452546999999996
 31
0.0
  0
LINE
  5
1E4
  8
3
 10
269.78963099999999
 20
90.07259599999999
 30
0.0
 11
267.77554400000002
 21
88.864142999999999
 31
0.0
  0
LINE
  5
1E5
  8
3
 10
267.67264499999999
 20
88.864142999999999
 30
0.0
 11
265.65855699999997
 21
90.07259599999999
 31
0.0
  0
LINE
  5
1E6
  8
3
 10
267.67264499999999
 20
91.452546999999996
 30
0.0
 11
265.65855699999997
 21
90.24409399999999
 31
0.0
  0
ARC
  5
1E7
  8
3
 10
265.71000700000002
 20
90.158344999999997
 30
0.0
 40
0.1
 50
120.963757
 51
239.03624300000001
  0
ARC
  5
1E8
  8
3
 10
267.72409399999998
 20
88.949893000000003
 30
0.0
 40
0.1
 50
239.03624300000001
 51
300.96375699999999
  0
ARC
  5
1E9
  8
3
 10
269.73818199999999
 20
90.158344999999997
 30
0.0
 40
0.1
 50
300.96375699999999
 51
59.036242999999999
  0
ARC
  5
1EA
  8
3
 10
267.72409399999998
 20
91.366797000000005
 30
0.0
 40
0.1
 50
59.036242999999999
 51
120.963757
  0
LINE
  5
1EB
  8
3
 10
269.78963099999999
 20
87.244093999999976
 30
0.0
 11
267.77554400000002
 21
88.452546999999996
 31
0.0
  0
LINE
  5
1EC
  8
3
 10
269.78963099999999
 20
87.072595999999976
 30
0.0
 11
267.77554400000002
 21
85.864142999999984
 31
0.0
  0
LINE
  5
1ED
  8
3
 10
267.67264499999999
 20
85.864142999999984
 30
0.0
 11
265.65855699999997
 21
87.072595999999976
 31
0.0
  0
LINE
  5
1EE
  8
3
 10
267.67264499999999
 20
88.452546999999996
 30
0.0
 11
265.65855699999997
 21
87.244093999999976
 31
0.0
  0
ARC
  5
1EF
  8
3
 10
265.71000700000002
 20
87.158344999999997
 30
0.0
 40
0.1
 50
120.963757
 51
239.03624300000001
  0
ARC
  5
1F0
  8
3
 10
267.72409399999998
 20
85.949892999999989
 30
0.0
 40
0.1
 50
239.03624300000001
 51
300.96375699999999
  0
ARC
  5
1F1
  8
3
 10
269.73818199999999
 20
87.158344999999997
 30
0.0
 40
0.1
 50
300.96375699999999
 51
59.036242999999999
  0
ARC
  5
1F2
  8
3
 10
267.72409399999998
 20
88.366796999999991
 30
0.0
 40
0.1
 50
59.036242999999999
 51
120.963757
  0
LINE
  5
1F3
  8
3
 10
269.78963099999999
 20
84.244094000000004
 30
0.0
 11
267.77554400000002
 21
85.452546999999996
 31
0.0
  0
LINE
  5
1F4
  8
3
 10
269.78963099999999
 20
84.07259599999999
 30
0.0
 11
267.77554400000002
 21
82.864142999999999
 31
0.0
  0
LINE
  5
1F5
  8
3
 10
267.67264499999999
 20
82.864142999999999
 30
0.0
 11
265.65855699999997
 21
84.07259599999999
 31
0.0
  0
LINE
  5
1F6
  8
3
 10
267.67264499999999
 20
85.452546999999996
 30
0.0
 11
265.65855699999997
 21
84.244094000000004
 31
0.0
  0
ARC
  5
1F7
  8
3
 10
265.71000700000002
 20
84.158344999999997
 30
0.0
 40
0.1
 50
120.963757
 51
239.03624300000001
  0
ARC
  5
1F8
  8
3
 10
267.72409399999998
 20
82.949893000000003
 30
0.0
 40
0.1
 50
239.03624300000001
 51
300.96375699999999
  0
ARC
  5
1F9
  8
3
 10
269.73818199999999
 20
84.158344999999997
 30
0.0
 40
0.1
 50
300.96375699999999
 51
59.036242999999999
  0
ARC
  5
1FA
  8
3
 10
267.72409399999998
 20
85.366796999999977
 30
0.0
 40
0.1
 50
59.036242999999999
 51
120.963757
  0
LINE
  5
1FB
  8
3
 10
264.78963099999999
 20
99.244094000000004
 30
0.0
 11
262.77554400000002
 21
100.452547
 31
0.0
  0
LINE
  5
1FC
  8
3
 10
264.78963099999999
 20
99.07259599999999
 30
0.0
 11
262.77554400000002
 21
97.864142999999999
 31
0.0
  0
LINE
  5
1FD
  8
3
 10
262.67264499999999
 20
97.864142999999999
 30
0.0
 11
260.65855699999997
 21
99.07259599999999
 31
0.0
  0
LINE
  5
1FE
  8
3
 10
262.67264499999999
 20
100.452547
 30
0.0
 11
260.65855699999997
 21
99.244094000000004
 31
0.0
  0
ARC
  5
1FF
  8
3
 10
260.71000699999991
 20
99.158344999999997
 30
0.0
 40
0.1
 50
120.963757
 51
239.03624300000001
  0
ARC
  5
200
  8
3
 10
262.72409399999998
 20
97.949893000000003
 30
0.0
 40
0.1
 50
239.03624300000001
 51
300.96375699999999
  0
ARC
  5
201
  8
3
 10
264.73818199999999
 20
99.158344999999997
 30
0.0
 40
0.1
 50
300.96375699999999
 51
59.036242999999999
  0
ARC
  5
202
  8
3
 10
262.72409399999998
 20
100.36679700000001
 30
0.0
 40
0.1
 50
59.036242999999999
 51
120.963757
  0
LINE
  5
203
  8
3
 10
264.78963099999999
 20
96.24409399999999
 30
0.0
 11
262.77554400000002
 21
97.452546999999996
 31
0.0
  0
LINE
  5
204
  8
3
 10
264.78963099999999
 20
96.07259599999999
 30
0.0
 11
262.77554400000002
 21
94.864142999999984
 31
0.0
  0
LINE
  5
205
  8
3
 10
262.67264499999999
 20
94.864142999999984
 30
0.0
 11
260.65855699999997
 21
96.07259599999999
 31
0.0
  0
LINE
  5
206
  8
3
 10
262.67264499999999
 20
97.452546999999996
 30
0.0
 11
260.65855699999997
 21
96.24409399999999
 31
0.0
  0
ARC
  5
207
  8
3
 10
260.71000699999991
 20
96.158344999999997
 30
0.0
 40
0.1
 50
120.963757
 51
239.03624300000001
  0
ARC
  5
208
  8
3
 10
262.72409399999998
 20
94.949893000000003
 30
0.0
 40
0.1
 50
239.03624300000001
 51
300.96375699999999
  0
ARC
  5
209
  8
3
 10
264.73818199999999
 20
96.158344999999997
 30
0.0
 40
0.1
 50
300.96375699999999
 51
59.036242999999999
  0
ARC
  5
20A
  8
3
 10
262.72409399999998
 20
97.366796999999991
 30
0.0
 40
0.1
 50
59.036242999999999
 51
120.963757
  0
LINE
  5
20B
  8
3
 10
264.78963099999999
 20
93.244093999999976
 30
0.0
 11
262.77554400000002
 21
94.452546999999996
 31
0.0
  0
LINE
  5
20C
  8
3
 10
264.78963099999999
 20
93.072596000000004
 30
0.0
 11
262.77554400000002
 21
91.864142999999999
 31
0.0
  0
LINE
  5
20D
  8
3
 10
262.67264499999999
 20
91.864142999999999
 30
0.0
 11
260.65855699999997
 21
93.072596000000004
 31
0.0
  0
LINE
  5
20E
  8
3
 10
262.67264499999999
 20
94.452546999999996
 30
0.0
 11
260.65855699999997
 21
93.244093999999976
 31
0.0
  0
ARC
  5
20F
  8
3
 10
260.71000699999991
 20
93.158344999999997
 30
0.0
 40
0.1
 50
120.963757
 51
239.03624300000001
  0
ARC
  5
210
  8
3
 10
262.72409399999998
 20
91.949893000000003
 30
0.0
 40
0.1
 50
239.03624300000001
 51
300.96375699999999
  0
ARC
  5
211
  8
3
 10
264.73818199999999
 20
93.158344999999997
 30
0.0
 40
0.1
 50
300.96375699999999
 51
59.036242999999999
  0
ARC
  5
212
  8
3
 10
262.72409399999998
 20
94.366796999999991
 30
0.0
 40
0.1
 50
59.036242999999999
 51
120.963757
  0
LINE
  5
213
  8
3
 10
264.78963099999999
 20
90.24409399999999
 30
0.0
 11
262.77554400000002
 21
91.452546999999996
 31
0.0
  0
LINE
  5
214
  8
3
 10
264.78963099999999
 20
90.07259599999999
 30
0.0
 11
262.77554400000002
 21
88.864142999999999
 31
0.0
  0
LINE
  5
215
  8
3
 10
262.67264499999999
 20
88.864142999999999
 30
0.0
 11
260.65855699999997
 21
90.07259599999999
 31
0.0
  0
LINE
  5
216
  8
3
 10
262.67264499999999
 20
91.452546999999996
 30
0.0
 11
260.65855699999997
 21
90.24409399999999
 31
0.0
  0
ARC
  5
217
  8
3
 10
260.71000699999991
 20
90.158344999999997
 30
0.0
 40
0.1
 50
120.963757
 51
239.03624300000001
  0
ARC
  5
218
  8
3
 10
262.72409399999998
 20
88.949893000000003
 30
0.0
 40
0.1
 50
239.03624300000001
 51
300.96375699999999
  0
ARC
  5
219
  8
3
 10
264.73818199999999
 20
90.158344999999997
 30
0.0
 40
0.1
 50
300.96375699999999
 51
59.036242999999999
  0
ARC
  5
21A
  8
3
 10
262.72409399999998
 20
91.366797000000005
 30
0.0
 40
0.1
 50
59.036242999999999
 51
120.963757
  0
LINE
  5
21B
  8
3
 10
264.78963099999999
 20
87.244093999999976
 30
0.0
 11
262.77554400000002
 21
88.452546999999996
 31
0.0
  0
LINE
  5
21C
  8
3
 10
264.78963099999999
 20
87.072595999999976
 30
0.0
 11
262.77554400000002
 21
85.864142999999984
 31
0.0
  0
LINE
  5
21D
  8
3
 10
262.67264499999999
 20
85.864142999999984
 30
0.0
 11
260.65855699999997
 21
87.072595999999976
 31
0.0
  0
LINE
  5
21E
  8
3
 10
262.67264499999999
 20
88.452546999999996
 30
0.0
 11
260.65855699999997
 21
87.244093999999976
 31
0.0
  0
ARC
  5
21F
  8
3
 10
260.71000699999991
 20
87.158344999999997
 30
0.0
 40
0.1
 50
120.963757
 51
239.03624300000001
  0
ARC
  5
220
  8
3
 10
262.72409399999998
 20
85.949892999999989
 30
0.0
 40
0.1
 50
239.03624300000001
 51
300.96375699999999
  0
ARC
  5
221
  8
3
 10
264.73818199999999
 20
87.158344999999997
 30
0.0
 40
0.1
 50
300.96375699999999
 51
59.036242999999999
  0
ARC
  5
222
  8
3
 10
262.72409399999998
 20
88.366796999999991
 30
0.0
 40
0.1
 50
59.036242999999999
 51
120.963757
  0
LINE
  5
223
  8
3
 10
264.78963099999999
 20
84.244094000000004
 30
0.0
 11
262.77554400000002
 21
85.452546999999996
 31
0.0
  0
LINE
  5
224
  8
3
 10
264.78963099999999
 20
84.07259599999999
 30
0.0
 11
262.77554400000002
 21
82.864142999999999
 31
0.0
  0
LINE
  5
225
  8
3
 10
262.67264499999999
 20
82.864142999999999
 30
0.0
 11
260.65855699999997
 21
84.07259599999999
 31
0.0
  0
LINE
  5
226
  8
3
 10
262.67264499999999
 20
85.452546999999996
 30
0.0
 11
260.65855699999997
 21
84.244094000000004
 31
0.0
  0
ARC
  5
227
  8
3
 10
260.71000699999991
 20
84.158344999999997
 30
0.0
 40
0.1
 50
120.963757
 51
239.03624300000001
  0
ARC
  5
228
  8
3
 10
262.72409399999998
 20
82.949893000000003
 30
0.0
 40
0.1
 50
239.03624300000001
 51
300.96375699999999
  0
ARC
  5
229
  8
3
 10
264.73818199999999
 20
84.158344999999997
 30
0.0
 40
0.1
 50
300.96375699999999
 51
59.036242999999999
  0
ARC
  5
22A
  8
3
 10
262.72409399999998
 20
85.366796999999977
 30
0.0
 40
0.1
 50
59.036242999999999
 51
120.963757
  0
LINE
  5
22B
  8
3
 10
259.78963099999999
 20
99.244094000000004
 30
0.0
 11
257.77554400000002
 21
100.452547
 31
0.0
  0
LINE
  5
22C
  8
3
 10
259.78963099999999
 20
99.07259599999999
 30
0.0
 11
257.77554400000002
 21
97.864142999999999
 31
0.0
  0
LINE
  5
22D
  8
3
 10
257.6726450000001
 20
97.864142999999999
 30
0.0
 11
255.658557
 21
99.07259599999999
 31
0.0
  0
LINE
  5
22E
  8
3
 10
257.6726450000001
 20
100.452547
 30
0.0
 11
255.658557
 21
99.244094000000004
 31
0.0
  0
ARC
  5
22F
  8
3
 10
255.71000699999999
 20
99.158344999999997
 30
0.0
 40
0.1
 50
120.963757
 51
239.03624300000001
  0
ARC
  5
230
  8
3
 10
257.72409399999998
 20
97.949893000000003
 30
0.0
 40
0.1
 50
239.03624300000001
 51
300.96375699999999
  0
ARC
  5
231
  8
3
 10
259.73818199999999
 20
99.158344999999997
 30
0.0
 40
0.1
 50
300.96375699999999
 51
59.036242999999999
  0
ARC
  5
232
  8
3
 10
257.72409399999998
 20
100.36679700000001
 30
0.0
 40
0.1
 50
59.036242999999999
 51
120.963757
  0
LINE
  5
233
  8
3
 10
259.78963099999999
 20
96.24409399999999
 30
0.0
 11
257.77554400000002
 21
97.452546999999996
 31
0.0
  0
LINE
  5
234
  8
3
 10
259.78963099999999
 20
96.07259599999999
 30
0.0
 11
257.77554400000002
 21
94.864142999999984
 31
0.0
  0
LINE
  5
235
  8
3
 10
257.6726450000001
 20
94.864142999999984
 30
0.0
 11
255.658557
 21
96.07259599999999
 31
0.0
  0
LINE
  5
236
  8
3
 10
257.6726450000001
 20
97.452546999999996
 30
0.0
 11
255.658557
 21
96.24409399999999
 31
0.0
  0
ARC
  5
237
  8
3
 10
255.71000699999999
 20
96.158344999999997
 30
0.0
 40
0.1
 50
120.963757
 51
239.03624300000001
  0
ARC
  5
238
  8
3
 10
257.72409399999998
 20
94.949893000000003
 30
0.0
 40
0.1
 50
239.03624300000001
 51
300.96375699999999
  0
ARC
  5
239
  8
3
 10
259.73818199999999
 20
96.158344999999997
 30
0.0
 40
0.1
 50
300.96375699999999
 51
59.036242999999999
  0
ARC
  5
23A
  8
3
 10
257.72409399999998
 20
97.366796999999991
 30
0.0
 40
0.1
 50
59.036242999999999
 51
120.963757
  0
LINE
  5
23B
  8
3
 10
259.78963099999999
 20
93.244093999999976
 30
0.0
 11
257.77554400000002
 21
94.452546999999996
 31
0.0
  0
LINE
  5
23C
  8
3
 10
259.78963099999999
 20
93.072596000000004
 30
0.0
 11
257.77554400000002
 21
91.864142999999999
 31
0.0
  0
LINE
  5
23D
  8
3
 10
257.6726450000001
 20
91.864142999999999
 30
0.0
 11
255.658557
 21
93.072596000000004
 31
0.0
  0
LINE
  5
23E
  8
3
 10
257.6726450000001
 20
94.452546999999996
 30
0.0
 11
255.658557
 21
93.244093999999976
 31
0.0
  0
ARC
  5
23F
  8
3
 10
255.71000699999999
 20
93.158344999999997
 30
0.0
 40
0.1
 50
120.963757
 51
239.03624300000001
  0
ARC
  5
240
  8
3
 10
257.72409399999998
 20
91.949893000000003
 30
0.0
 40
0.1
 50
239.03624300000001
 51
300.96375699999999
  0
ARC
  5
241
  8
3
 10
259.73818199999999
 20
93.158344999999997
 30
0.0
 40
0.1
 50
300.96375699999999
 51
59.036242999999999
  0
ARC
  5
242
  8
3
 10
257.72409399999998
 20
94.366796999999991
 30
0.0
 40
0.1
 50
59.036242999999999
 51
120.963757
  0
LINE
  5
243
  8
3
 10
259.78963099999999
 20
90.24409399999999
 30
0.0
 11
257.77554400000002
 21
91.452546999999996
 31
0.0
  0
LINE
  5
244
  8
3
 10
259.78963099999999
 20
90.07259599999999
 30
0.0
 11
257.77554400000002
 21
88.864142999999999
 31
0.0
  0
LINE
  5
245
  8
3
 10
257.6726450000001
 20
88.864142999999999
 30
0.0
 11
255.658557
 21
90.07259599999999
 31
0.0
  0
LINE
  5
246
  8
3
 10
257.6726450000001
 20
91.452546999999996
 30
0.0
 11
255.658557
 21
90.24409399999999
 31
0.0
  0
ARC
  5
247
  8
3
 10
255.71000699999999
 20
90.158344999999997
 30
0.0
 40
0.1
 50
120.963757
 51
239.03624300000001
  0
ARC
  5
248
  8
3
 10
257.72409399999998
 20
88.949893000000003
 30
0.0
 40
0.1
 50
239.03624300000001
 51
300.96375699999999
  0
ARC
  5
249
  8
3
 10
259.73818199999999
 20
90.158344999999997
 30
0.0
 40
0.1
 50
300.96375699999999
 51
59.036242999999999
  0
ARC
  5
24A
  8
3
 10
257.72409399999998
 20
91.366797000000005
 30
0.0
 40
0.1
 50
59.036242999999999
 51
120.963757
  0
LINE
  5
24B
  8
3
 10
259.78963099999999
 20
87.244093999999976
 30
0.0
 11
257.77554400000002
 21
88.452546999999996
 31
0.0
  0
LINE
  5
24C
  8
3
 10
259.78963099999999
 20
87.072595999999976
 30
0.0
 11
257.77554400000002
 21
85.864142999999984
 31
0.0
  0
LINE
  5
24D
  8
3
 10
257.6726450000001
 20
85.864142999999984
 30
0.0
 11
255.658557
 21
87.072595999999976
 31
0.0
  0
LINE
  5
24E
  8
3
 10
257.6726450000001
 20
88.452546999999996
 30
0.0
 11
255.658557
 21
87.244093999999976
 31
0.0
  0
ARC
  5
24F
  8
3
 10
255.71000699999999
 20
87.158344999999997
 30
0.0
 40
0.1
 50
120.963757
 51
239.03624300000001
  0
ARC
  5
250
  8
3
 10
257.72409399999998
 20
85.949892999999989
 30
0.0
 40
0.1
 50
239.03624300000001
 51
300.96375699999999
  0
ARC
  5
251
  8
3
 10
259.73818199999999
 20
87.158344999999997
 30
0.0
 40
0.1
 50
300.96375699999999
 51
59.036242999999999
  0
ARC
  5
252
  8
3
 10
257.72409399999998
 20
88.366796999999991
 30
0.0
 40
0.1
 50
59.036242999999999
 51
120.963757
  0
LINE
  5
253
  8
3
 10
259.78963099999999
 20
84.244094000000004
 30
0.0
 11
257.77554400000002
 21
85.452546999999996
 31
0.0
  0
LINE
  5
254
  8
3
 10
259.78963099999999
 20
84.07259599999999
 30
0.0
 11
257.77554400000002
 21
82.864142999999999
 31
0.0
  0
LINE
  5
255
  8
3
 10
257.6726450000001
 20
82.864142999999999
 30
0.0
 11
255.658557
 21
84.07259599999999
 31
0.0
  0
LINE
  5
256
  8
3
 10
257.6726450000001
 20
85.452546999999996
 30
0.0
 11
255.658557
 21
84.244094000000004
 31
0.0
  0
ARC
  5
257
  8
3
 10
255.71000699999999
 20
84.158344999999997
 30
0.0
 40
0.1
 50
120.963757
 51
239.03624300000001
  0
ARC
  5
258
  8
3
 10
257.72409399999998
 20
82.949893000000003
 30
0.0
 40
0.1
 50
239.03624300000001
 51
300.96375699999999
  0
ARC
  5
259
  8
3
 10
259.73818199999999
 20
84.158344999999997
 30
0.0
 40
0.1
 50
300.96375699999999
 51
59.036242999999999
  0
ARC
  5
25A
  8
3
 10
257.72409399999998
 20
85.366796999999977
 30
0.0
 40
0.1
 50
59.036242999999999
 51
120.963757
  0
LINE
  5
25B
  8
3
 10
254.78963100000001
 20
99.244094000000004
 30
0.0
 11
252.775544
 21
100.452547
 31
0.0
  0
LINE
  5
25C
  8
3
 10
254.78963100000001
 20
99.07259599999999
 30
0.0
 11
252.775544
 21
97.864142999999999
 31
0.0
  0
LINE
  5
25D
  8
3
 10
252.67264499999999
 20
97.864142999999999
 30
0.0
 11
250.658557
 21
99.07259599999999
 31
0.0
  0
LINE
  5
25E
  8
3
 10
252.67264499999999
 20
100.452547
 30
0.0
 11
250.658557
 21
99.244094000000004
 31
0.0
  0
ARC
  5
25F
  8
3
 10
250.71000699999999
 20
99.158344999999997
 30
0.0
 40
0.1
 50
120.963757
 51
239.03624300000001
  0
ARC
  5
260
  8
3
 10
252.72409400000001
 20
97.949893000000003
 30
0.0
 40
0.1
 50
239.03624300000001
 51
300.96375699999999
  0
ARC
  5
261
  8
3
 10
254.73818199999999
 20
99.158344999999997
 30
0.0
 40
0.1
 50
300.96375699999999
 51
59.036242999999999
  0
ARC
  5
262
  8
3
 10
252.72409400000001
 20
100.36679700000001
 30
0.0
 40
0.1
 50
59.036242999999999
 51
120.963757
  0
LINE
  5
263
  8
3
 10
254.78963100000001
 20
96.24409399999999
 30
0.0
 11
252.775544
 21
97.452546999999996
 31
0.0
  0
LINE
  5
264
  8
3
 10
254.78963100000001
 20
96.07259599999999
 30
0.0
 11
252.775544
 21
94.864142999999984
 31
0.0
  0
LINE
  5
265
  8
3
 10
252.67264499999999
 20
94.864142999999984
 30
0.0
 11
250.658557
 21
96.07259599999999
 31
0.0
  0
LINE
  5
266
  8
3
 10
252.67264499999999
 20
97.452546999999996
 30
0.0
 11
250.658557
 21
96.24409399999999
 31
0.0
  0
ARC
  5
267
  8
3
 10
250.71000699999999
 20
96.158344999999997
 30
0.0
 40
0.1
 50
120.963757
 51
239.03624300000001
  0
ARC
  5
268
  8
3
 10
252.72409400000001
 20
94.949893000000003
 30
0.0
 40
0.1
 50
239.03624300000001
 51
300.96375699999999
  0
ARC
  5
269
  8
3
 10
254.73818199999999
 20
96.158344999999997
 30
0.0
 40
0.1
 50
300.96375699999999
 51
59.036242999999999
  0
ARC
  5
26A
  8
3
 10
252.72409400000001
 20
97.366796999999991
 30
0.0
 40
0.1
 50
59.036242999999999
 51
120.963757
  0
LINE
  5
26B
  8
3
 10
254.78963100000001
 20
93.244093999999976
 30
0.0
 11
252.775544
 21
94.452546999999996
 31
0.0
  0
LINE
  5
26C
  8
3
 10
254.78963100000001
 20
93.072596000000004
 30
0.0
 11
252.775544
 21
91.864142999999999
 31
0.0
  0
LINE
  5
26D
  8
3
 10
252.67264499999999
 20
91.864142999999999
 30
0.0
 11
250.658557
 21
93.072596000000004
 31
0.0
  0
LINE
  5
26E
  8
3
 10
252.67264499999999
 20
94.452546999999996
 30
0.0
 11
250.658557
 21
93.244093999999976
 31
0.0
  0
ARC
  5
26F
  8
3
 10
250.71000699999999
 20
93.158344999999997
 30
0.0
 40
0.1
 50
120.963757
 51
239.03624300000001
  0
ARC
  5
270
  8
3
 10
252.72409400000001
 20
91.949893000000003
 30
0.0
 40
0.1
 50
239.03624300000001
 51
300.96375699999999
  0
ARC
  5
271
  8
3
 10
254.73818199999999
 20
93.158344999999997
 30
0.0
 40
0.1
 50
300.96375699999999
 51
59.036242999999999
  0
ARC
  5
272
  8
3
 10
252.72409400000001
 20
94.366796999999991
 30
0.0
 40
0.1
 50
59.036242999999999
 51
120.963757
  0
LINE
  5
273
  8
3
 10
254.78963100000001
 20
90.24409399999999
 30
0.0
 11
252.775544
 21
91.452546999999996
 31
0.0
  0
LINE
  5
274
  8
3
 10
254.78963100000001
 20
90.07259599999999
 30
0.0
 11
252.775544
 21
88.864142999999999
 31
0.0
  0
LINE
  5
275
  8
3
 10
252.67264499999999
 20
88.864142999999999
 30
0.0
 11
250.658557
 21
90.07259599999999
 31
0.0
  0
LINE
  5
276
  8
3
 10
252.67264499999999
 20
91.452546999999996
 30
0.0
 11
250.658557
 21
90.24409399999999
 31
0.0
  0
ARC
  5
277
  8
3
 10
250.71000699999999
 20
90.158344999999997
 30
0.0
 40
0.1
 50
120.963757
 51
239.03624300000001
  0
ARC
  5
278
  8
3
 10
252.72409400000001
 20
88.949893000000003
 30
0.0
 40
0.1
 50
239.03624300000001
 51
300.96375699999999
  0
ARC
  5
279
  8
3
 10
254.73818199999999
 20
90.158344999999997
 30
0.0
 40
0.1
 50
300.96375699999999
 51
59.036242999999999
  0
ARC
  5
27A
  8
3
 10
252.72409400000001
 20
91.366797000000005
 30
0.0
 40
0.1
 50
59.036242999999999
 51
120.963757
  0
LINE
  5
27B
  8
3
 10
254.78963100000001
 20
87.244093999999976
 30
0.0
 11
252.775544
 21
88.452546999999996
 31
0.0
  0
LINE
  5
27C
  8
3
 10
254.78963100000001
 20
87.072595999999976
 30
0.0
 11
252.775544
 21
85.864142999999984
 31
0.0
  0
LINE
  5
27D
  8
3
 10
252.67264499999999
 20
85.864142999999984
 30
0.0
 11
250.658557
 21
87.072595999999976
 31
0.0
  0
LINE
  5
27E
  8
3
 10
252.67264499999999
 20
88.452546999999996
 30
0.0
 11
250.658557
 21
87.244093999999976
 31
0.0
  0
ARC
  5
27F
  8
3
 10
250.71000699999999
 20
87.158344999999997
 30
0.0
 40
0.1
 50
120.963757
 51
239.03624300000001
  0
ARC
  5
280
  8
3
 10
252.72409400000001
 20
85.949892999999989
 30
0.0
 40
0.1
 50
239.03624300000001
 51
300.96375699999999
  0
ARC
  5
281
  8
3
 10
254.73818199999999
 20
87.158344999999997
 30
0.0
 40
0.1
 50
300.96375699999999
 51
59.036242999999999
  0
ARC
  5
282
  8
3
 10
252.72409400000001
 20
88.366796999999991
 30
0.0
 40
0.1
 50
59.036242999999999
 51
120.963757
  0
LINE
  5
283
  8
3
 10
254.78963100000001
 20
84.244094000000004
 30
0.0
 11
252.775544
 21
85.452546999999996
 31
0.0
  0
LINE
  5
284
  8
3
 10
254.78963100000001
 20
84.07259599999999
 30
0.0
 11
252.775544
 21
82.864142999999999
 31
0.0
  0
LINE
  5
285
  8
3
 10
252.67264499999999
 20
82.864142999999999
 30
0.0
 11
250.658557
 21
84.07259599999999
 31
0.0
  0
LINE
  5
286
  8
3
 10
252.67264499999999
 20
85.452546999999996
 30
0.0
 11
250.658557
 21
84.244094000000004
 31
0.0
  0
ARC
  5
287
  8
3
 10
250.71000699999999
 20
84.158344999999997
 30
0.0
 40
0.1
 50
120.963757
 51
239.03624300000001
  0
ARC
  5
288
  8
3
 10
252.72409400000001
 20
82.949893000000003
 30
0.0
 40
0.1
 50
239.03624300000001
 51
300.96375699999999
  0
ARC
  5
289
  8
3
 10
254.73818199999999
 20
84.158344999999997
 30
0.0
 40
0.1
 50
300.96375699999999
 51
59.036242999999999
  0
ARC
  5
28A
  8
3
 10
252.72409400000001
 20
85.366796999999977
 30
0.0
 40
0.1
 50
59.036242999999999
 51
120.963757
  0
LINE
  5
28B
  8
3
 10
249.78963100000001
 20
99.244094000000004
 30
0.0
 11
247.775544
 21
100.452547
 31
0.0
  0
LINE
  5
28C
  8
3
 10
249.78963100000001
 20
99.07259599999999
 30
0.0
 11
247.775544
 21
97.864142999999999
 31
0.0
  0
LINE
  5
28D
  8
3
 10
247.67264499999999
 20
97.864142999999999
 30
0.0
 11
245.658557
 21
99.07259599999999
 31
0.0
  0
LINE
  5
28E
  8
3
 10
247.67264499999999
 20
100.452547
 30
0.0
 11
245.658557
 21
99.244094000000004
 31
0.0
  0
ARC
  5
28F
  8
3
 10
245.71000699999999
 20
99.158344999999997
 30
0.0
 40
0.1
 50
120.963757
 51
239.03624300000001
  0
ARC
  5
290
  8
3
 10
247.72409400000001
 20
97.949893000000003
 30
0.0
 40
0.1
 50
239.03624300000001
 51
300.96375699999999
  0
ARC
  5
291
  8
3
 10
249.73818199999999
 20
99.158344999999997
 30
0.0
 40
0.1
 50
300.96375699999999
 51
59.036242999999999
  0
ARC
  5
292
  8
3
 10
247.72409400000001
 20
100.36679700000001
 30
0.0
 40
0.1
 50
59.036242999999999
 51
120.963757
  0
LINE
  5
293
  8
3
 10
249.78963100000001
 20
96.24409399999999
 30
0.0
 11
247.775544
 21
97.452546999999996
 31
0.0
  0
LINE
  5
294
  8
3
 10
249.78963100000001
 20
96.07259599999999
 30
0.0
 11
247.775544
 21
94.864142999999984
 31
0.0
  0
LINE
  5
295
  8
3
 10
247.67264499999999
 20
94.864142999999984
 30
0.0
 11
245.658557
 21
96.07259599999999
 31
0.0
  0
LINE
  5
296
  8
3
 10
247.67264499999999
 20
97.452546999999996
 30
0.0
 11
245.658557
 21
96.24409399999999
 31
0.0
  0
ARC
  5
297
  8
3
 10
245.71000699999999
 20
96.158344999999997
 30
0.0
 40
0.1
 50
120.963757
 51
239.03624300000001
  0
ARC
  5
298
  8
3
 10
247.72409400000001
 20
94.949893000000003
 30
0.0
 40
0.1
 50
239.03624300000001
 51
300.96375699999999
  0
ARC
  5
299
  8
3
 10
249.73818199999999
 20
96.158344999999997
 30
0.0
 40
0.1
 50
300.96375699999999
 51
59.036242999999999
  0
ARC
  5
29A
  8
3
 10
247.72409400000001
 20
97.366796999999991
 30
0.0
 40
0.1
 50
59.036242999999999
 51
120.963757
  0
LINE
  5
29B
  8
3
 10
249.78963100000001
 20
93.244093999999976
 30
0.0
 11
247.775544
 21
94.452546999999996
 31
0.0
  0
LINE
  5
29C
  8
3
 10
249.78963100000001
 20
93.072596000000004
 30
0.0
 11
247.775544
 21
91.864142999999999
 31
0.0
  0
LINE
  5
29D
  8
3
 10
247.67264499999999
 20
91.864142999999999
 30
0.0
 11
245.658557
 21
93.072596000000004
 31
0.0
  0
LINE
  5
29E
  8
3
 10
247.67264499999999
 20
94.452546999999996
 30
0.0
 11
245.658557
 21
93.244093999999976
 31
0.0
  0
ARC
  5
29F
  8
3
 10
245.71000699999999
 20
93.158344999999997
 30
0.0
 40
0.1
 50
120.963757
 51
239.03624300000001
  0
ARC
  5
2A0
  8
3
 10
247.72409400000001
 20
91.949893000000003
 30
0.0
 40
0.1
 50
239.03624300000001
 51
300.96375699999999
  0
ARC
  5
2A1
  8
3
 10
249.73818199999999
 20
93.158344999999997
 30
0.0
 40
0.1
 50
300.96375699999999
 51
59.036242999999999
  0
ARC
  5
2A2
  8
3
 10
247.72409400000001
 20
94.366796999999991
 30
0.0
 40
0.1
 50
59.036242999999999
 51
120.963757
  0
LINE
  5
2A3
  8
3
 10
249.78963100000001
 20
90.24409399999999
 30
0.0
 11
247.775544
 21
91.452546999999996
 31
0.0
  0
LINE
  5
2A4
  8
3
 10
249.78963100000001
 20
90.07259599999999
 30
0.0
 11
247.775544
 21
88.864142999999999
 31
0.0
  0
LINE
  5
2A5
  8
3
 10
247.67264499999999
 20
88.864142999999999
 30
0.0
 11
245.658557
 21
90.07259599999999
 31
0.0
  0
LINE
  5
2A6
  8
3
 10
247.67264499999999
 20
91.452546999999996
 30
0.0
 11
245.658557
 21
90.24409399999999
 31
0.0
  0
ARC
  5
2A7
  8
3
 10
245.71000699999999
 20
90.158344999999997
 30
0.0
 40
0.1
 50
120.963757
 51
239.03624300000001
  0
ARC
  5
2A8
  8
3
 10
247.72409400000001
 20
88.949893000000003
 30
0.0
 40
0.1
 50
239.03624300000001
 51
300.96375699999999
  0
ARC
  5
2A9
  8
3
 10
249.73818199999999
 20
90.158344999999997
 30
0.0
 40
0.1
 50
300.96375699999999
 51
59.036242999999999
  0
ARC
  5
2AA
  8
3
 10
247.72409400000001
 20
91.366797000000005
 30
0.0
 40
0.1
 50
59.036242999999999
 51
120.963757
  0
LINE
  5
2AB
  8
3
 10
249.78963100000001
 20
87.244093999999976
 30
0.0
 11
247.775544
 21
88.452546999999996
 31
0.0
  0
LINE
  5
2AC
  8
3
 10
249.78963100000001
 20
87.072595999999976
 30
0.0
 11
247.775544
 21
85.864142999999984
 31
0.0
  0
LINE
  5
2AD
  8
3
 10
247.67264499999999
 20
85.864142999999984
 30
0.0
 11
245.658557
 21
87.072595999999976
 31
0.0
  0
LINE
  5
2AE
  8
3
 10
247.67264499999999
 20
88.452546999999996
 30
0.0
 11
245.658557
 21
87.244093999999976
 31
0.0
  0
ARC
  5
2AF
  8
3
 10
245.71000699999999
 20
87.158344999999997
 30
0.0
 40
0.1
 50
120.963757
 51
239.03624300000001
  0
ARC
  5
2B0
  8
3
 10
247.72409400000001
 20
85.949892999999989
 30
0.0
 40
0.1
 50
239.03624300000001
 51
300.96375699999999
  0
ARC
  5
2B1
  8
3
 10
249.73818199999999
 20
87.158344999999997
 30
0.0
 40
0.1
 50
300.96375699999999
 51
59.036242999999999
  0
ARC
  5
2B2
  8
3
 10
247.72409400000001
 20
88.366796999999991
 30
0.0
 40
0.1
 50
59.036242999999999
 51
120.963757
  0
LINE
  5
2B3
  8
3
 10
249.78963100000001
 20
84.244094000000004
 30
0.0
 11
247.775544
 21
85.452546999999996
 31
0.0
  0
LINE
  5
2B4
  8
3
 10
249.78963100000001
 20
84.07259599999999
 30
0.0
 11
247.775544
 21
82.864142999999999
 31
0.0
  0
LINE
  5
2B5
  8
3
 10
247.67264499999999
 20
82.864142999999999
 30
0.0
 11
245.658557
 21
84.07259599999999
 31
0.0
  0
LINE
  5
2B6
  8
3
 10
247.67264499999999
 20
85.452546999999996
 30
0.0
 11
245.658557
 21
84.244094000000004
 31
0.0
  0
ARC
  5
2B7
  8
3
 10
245.71000699999999
 20
84.158344999999997
 30
0.0
 40
0.1
 50
120.963757
 51
239.03624300000001
  0
ARC
  5
2B8
  8
3
 10
247.72409400000001
 20
82.949893000000003
 30
0.0
 40
0.1
 50
239.03624300000001
 51
300.96375699999999
  0
ARC
  5
2B9
  8
3
 10
249.73818199999999
 20
84.158344999999997
 30
0.0
 40
0.1
 50
300.96375699999999
 51
59.036242999999999
  0
ARC
  5
2BA
  8
3
 10
247.72409400000001
 20
85.366796999999977
 30
0.0
 40
0.1
 50
59.036242999999999
 51
120.963757
  0
LINE
  5
2BB
  8
3
 10
272.6726450000001
 20
100.864143
 30
0.0
 11
270.65855699999997
 21
102.072596
 31
0.0
  0
ARC
  5
2BC
  8
3
 10
272.72409399999998
 20
100.949893
 30
0.0
 40
0.1
 50
239.03624300000001
 51
270.0
  0
ARC
  5
2BD
  8
3
 10
270.71000700000002
 20
102.158345
 30
0.0
 40
0.1
 50
120.963757
 51
239.03624300000001
  0
LINE
  5
2BE
  8
3
 10
271.348975
 20
102.658345
 30
0.0
 11
270.65855699999997
 21
102.244094
 31
0.0
  0
LINE
  5
2BF
  8
3
 10
267.67264499999999
 20
100.864143
 30
0.0
 11
265.65855699999997
 21
102.072596
 31
0.0
  0
LINE
  5
2C0
  8
3
 10
269.78963099999999
 20
102.072596
 30
0.0
 11
267.77554400000002
 21
100.864143
 31
0.0
  0
ARC
  5
2C1
  8
3
 10
267.72409399999998
 20
100.949893
 30
0.0
 40
0.1
 50
239.03624300000001
 51
300.96375699999999
  0
ARC
  5
2C2
  8
3
 10
265.71000700000002
 20
102.158345
 30
0.0
 40
0.1
 50
120.963757
 51
239.03624300000001
  0
LINE
  5
2C3
  8
3
 10
266.348975
 20
102.658345
 30
0.0
 11
265.65855699999997
 21
102.244094
 31
0.0
  0
LINE
  5
2C4
  8
3
 10
269.78963099999999
 20
102.244094
 30
0.0
 11
269.09921300000002
 21
102.658345
 31
0.0
  0
ARC
  5
2C5
  8
3
 10
269.73818199999999
 20
102.158345
 30
0.0
 40
0.1
 50
300.96375699999999
 51
59.036242999999999
  0
LINE
  5
2C6
  8
3
 10
244.78963100000001
 20
84.07259599999999
 30
0.0
 11
242.775544
 21
82.864142999999999
 31
0.0
  0
ARC
  5
2C7
  8
3
 10
242.72409400000001
 20
82.949893000000003
 30
0.0
 40
0.1
 50
270.0
 51
300.96375699999999
  0
ARC
  5
2C8
  8
3
 10
244.73818199999999
 20
84.158344999999997
 30
0.0
 40
0.1
 50
300.96375699999999
 51
59.036242999999999
  0
LINE
  5
2C9
  8
3
 10
244.78963100000001
 20
84.244094000000004
 30
0.0
 11
242.775544
 21
85.452546999999996
 31
0.0
  0
ARC
  5
2CA
  8
3
 10
242.72409400000001
 20
85.366796999999977
 30
0.0
 40
0.1
 50
59.036242999999999
 51
90.0
  0
ARC
  5
2CB
  8
3
 10
242.72409400000001
 20
85.949892999999989
 30
0.0
 40
0.1
 50
270.0
 51
300.96375699999999
  0
LINE
  5
2CC
  8
3
 10
244.78963100000001
 20
87.072595999999976
 30
0.0
 11
242.775544
 21
85.864142999999984
 31
0.0
  0
ARC
  5
2CD
  8
3
 10
244.73818199999999
 20
87.158344999999997
 30
0.0
 40
0.1
 50
300.96375699999999
 51
59.036242999999999
  0
LINE
  5
2CE
  8
3
 10
244.78963100000001
 20
87.244093999999976
 30
0.0
 11
242.775544
 21
88.452546999999996
 31
0.0
  0
ARC
  5
2CF
  8
3
 10
242.72409400000001
 20
88.366796999999991
 30
0.0
 40
0.1
 50
59.036242999999999
 51
90.0
  0
ARC
  5
2D0
  8
3
 10
242.72409400000001
 20
88.949893000000003
 30
0.0
 40
0.1
 50
270.0
 51
300.96375699999999
  0
LINE
  5
2D1
  8
3
 10
244.78963100000001
 20
90.07259599999999
 30
0.0
 11
242.775544
 21
88.864142999999999
 31
0.0
  0
ARC
  5
2D2
  8
3
 10
244.73818199999999
 20
90.158344999999997
 30
0.0
 40
0.1
 50
300.96375699999999
 51
59.036242999999999
  0
LINE
  5
2D3
  8
3
 10
244.78963100000001
 20
90.24409399999999
 30
0.0
 11
242.775544
 21
91.452546999999996
 31
0.0
  0
ARC
  5
2D4
  8
3
 10
242.72409400000001
 20
91.366797000000005
 30
0.0
 40
0.1
 50
59.036242999999999
 51
90.0
  0
ARC
  5
2D5
  8
3
 10
242.72409400000001
 20
91.949893000000003
 30
0.0
 40
0.1
 50
270.0
 51
300.96375699999999
  0
LINE
  5
2D6
  8
3
 10
244.78963100000001
 20
93.072596000000004
 30
0.0
 11
242.775544
 21
91.864142999999999
 31
0.0
  0
ARC
  5
2D7
  8
3
 10
244.73818199999999
 20
93.158344999999997
 30
0.0
 40
0.1
 50
300.96375699999999
 51
59.036242999999999
  0
LINE
  5
2D8
  8
3
 10
244.78963100000001
 20
93.244093999999976
 30
0.0
 11
242.775544
 21
94.452546999999996
 31
0.0
  0
ARC
  5
2D9
  8
3
 10
242.72409400000001
 20
94.366796999999991
 30
0.0
 40
0.1
 50
59.036242999999999
 51
90.0
  0
ARC
  5
2DA
  8
3
 10
242.72409400000001
 20
94.949893000000003
 30
0.0
 40
0.1
 50
270.0
 51
300.96375699999999
  0
LINE
  5
2DB
  8
3
 10
244.78963100000001
 20
96.07259599999999
 30
0.0
 11
242.775544
 21
94.864142999999984
 31
0.0
  0
ARC
  5
2DC
  8
3
 10
244.73818199999999
 20
96.158344999999997
 30
0.0
 40
0.1
 50
300.96375699999999
 51
59.036242999999999
  0
LINE
  5
2DD
  8
3
 10
244.78963100000001
 20
96.24409399999999
 30
0.0
 11
242.775544
 21
97.452546999999996
 31
0.0
  0
ARC
  5
2DE
  8
3
 10
242.72409400000001
 20
97.366796999999991
 30
0.0
 40
0.1
 50
59.036242999999999
 51
90.0
  0
ARC
  5
2DF
  8
3
 10
242.72409400000001
 20
97.949893000000003
 30
0.0
 40
0.1
 50
270.0
 51
300.96375699999999
  0
LINE
  5
2E0
  8
3
 10
244.78963100000001
 20
99.07259599999999
 30
0.0
 11
242.775544
 21
97.864142999999999
 31
0.0
  0
ARC
  5
2E1
  8
3
 10
244.73818199999999
 20
99.158344999999997
 30
0.0
 40
0.1
 50
300.96375699999999
 51
59.036242999999999
  0
LINE
  5
2E2
  8
3
 10
244.78963100000001
 20
99.244094000000004
 30
0.0
 11
242.775544
 21
100.452547
 31
0.0
  0
ARC
  5
2E3
  8
3
 10
242.72409400000001
 20
100.36679700000001
 30
0.0
 40
0.1
 50
59.036242999999999
 51
90.0
  0
ARC
  5
2E4
  8
3
 10
242.72409400000001
 20
100.949893
 30
0.0
 40
0.1
 50
270.0
 51
300.96375699999999
  0
LINE
  5
2E5
  8
3
 10
244.78963100000001
 20
102.072596
 30
0.0
 11
242.775544
 21
100.864143
 31
0.0
  0
ARC
  5
2E6
  8
3
 10
244.73818199999999
 20
102.158345
 30
0.0
 40
0.1
 50
300.96375699999999
 51
59.036242999999999
  0
LINE
  5
2E7
  8
3
 10
244.78963100000001
 20
102.244094
 30
0.0
 11
244.09921299999999
 21
102.658345
 31
0.0
  0
ARC
  5
2E8
  8
3
 10
245.71000699999999
 20
102.158345
 30
0.0
 40
0.1
 50
120.963757
 51
239.03624300000001
  0
LINE
  5
2E9
  8
3
 10
247.67264499999999
 20
100.864143
 30
0.0
 11
245.658557
 21
102.072596
 31
0.0
  0
LINE
  5
2EA
  8
3
 10
249.78963100000001
 20
102.072596
 30
0.0
 11
247.775544
 21
100.864143
 31
0.0
  0
ARC
  5
2EB
  8
3
 10
247.72409400000001
 20
100.949893
 30
0.0
 40
0.1
 50
239.03624300000001
 51
300.96375699999999
  0
ARC
  5
2EC
  8
3
 10
249.73818199999999
 20
102.158345
 30
0.0
 40
0.1
 50
300.96375699999999
 51
59.036242999999999
  0
LINE
  5
2ED
  8
3
 10
249.78963100000001
 20
102.244094
 30
0.0
 11
249.09921299999999
 21
102.658345
 31
0.0
  0
LINE
  5
2EE
  8
3
 10
246.348975
 20
102.658345
 30
0.0
 11
245.658557
 21
102.244094
 31
0.0
  0
LINE
  5
2EF
  8
3
 10
251.348975
 20
102.658345
 30
0.0
 11
250.658557
 21
102.244094
 31
0.0
  0
ARC
  5
2F0
  8
3
 10
250.71000699999999
 20
102.158345
 30
0.0
 40
0.1
 50
120.963757
 51
239.03624300000001
  0
LINE
  5
2F1
  8
3
 10
254.78963100000001
 20
102.244094
 30
0.0
 11
254.09921299999999
 21
102.658345
 31
0.0
  0
ARC
  5
2F2
  8
3
 10
254.73818199999999
 20
102.158345
 30
0.0
 40
0.1
 50
300.96375699999999
 51
59.036242999999999
  0
ARC
  5
2F3
  8
3
 10
252.72409400000001
 20
100.949893
 30
0.0
 40
0.1
 50
239.03624300000001
 51
300.96375699999999
  0
LINE
  5
2F4
  8
3
 10
254.78963100000001
 20
102.072596
 30
0.0
 11
252.775544
 21
100.864143
 31
0.0
  0
LINE
  5
2F5
  8
3
 10
252.67264499999999
 20
100.864143
 30
0.0
 11
250.658557
 21
102.072596
 31
0.0
  0
LINE
  5
2F6
  8
3
 10
256.348975
 20
102.658345
 30
0.0
 11
255.658557
 21
102.244094
 31
0.0
  0
ARC
  5
2F7
  8
3
 10
255.71000699999999
 20
102.158345
 30
0.0
 40
0.1
 50
120.963757
 51
239.03624300000001
  0
LINE
  5
2F8
  8
3
 10
259.78963099999999
 20
102.244094
 30
0.0
 11
259.09921300000002
 21
102.658345
 31
0.0
  0
ARC
  5
2F9
  8
3
 10
259.73818199999999
 20
102.158345
 30
0.0
 40
0.1
 50
300.96375699999999
 51
59.036242999999999
  0
ARC
  5
2FA
  8
3
 10
257.72409399999998
 20
100.949893
 30
0.0
 40
0.1
 50
239.03624300000001
 51
300.96375699999999
  0
LINE
  5
2FB
  8
3
 10
259.78963099999999
 20
102.072596
 30
0.0
 11
257.77554400000002
 21
100.864143
 31
0.0
  0
LINE
  5
2FC
  8
3
 10
257.6726450000001
 20
100.864143
 30
0.0
 11
255.658557
 21
102.072596
 31
0.0
  0
LINE
  5
2FD
  8
3
 10
261.348975
 20
102.658345
 30
0.0
 11
260.65855699999997
 21
102.244094
 31
0.0
  0
ARC
  5
2FE
  8
3
 10
260.71000699999991
 20
102.158345
 30
0.0
 40
0.1
 50
120.963757
 51
239.03624300000001
  0
LINE
  5
2FF
  8
3
 10
264.78963099999999
 20
102.244094
 30
0.0
 11
264.09921300000002
 21
102.658345
 31
0.0
  0
ARC
  5
300
  8
3
 10
264.73818199999999
 20
102.158345
 30
0.0
 40
0.1
 50
300.96375699999999
 51
59.036242999999999
  0
ARC
  5
301
  8
3
 10
262.72409399999998
 20
100.949893
 30
0.0
 40
0.1
 50
239.03624300000001
 51
300.96375699999999
  0
LINE
  5
302
  8
3
 10
264.78963099999999
 20
102.072596
 30
0.0
 11
262.77554400000002
 21
100.864143
 31
0.0
  0
LINE
  5
303
  8
3
 10
262.67264499999999
 20
100.864143
 30
0.0
 11
260.65855699999997
 21
102.072596
 31
0.0
  0
LINE
  5
304
  8
0
 10
168.0
 20
73.158344999999997
 30
0.0
 11
168.0
 21
102.158345
 31
0.0
  0
LINE
  5
305
  8
0
 10
128.07963899999999
 20
107.658345
 30
0.0
 11
165.92036100000001
 21
107.658345
 31
0.0
  0
LINE
  5
306
  8
0
 10
137.0
 20
102.658345
 30
0.0
 11
126.5
 21
102.658345
 31
0.0
  0
LINE
  5
307
  8
0
 10
126.0
 20
102.158345
 30
0.0
 11
126.0
 21
73.158344999999997
 31
0.0
  0
ARC
  5
308
  8
0
 10
126.5
 20
73.158344999999997
 30
0.0
 40
0.5
 50
180.0
 51
270.0
  0
ARC
  5
309
  8
0
 10
126.5
 20
102.158345
 30
0.0
 40
0.5
 50
90.0
 51
180.0
  0
ARC
  5
30A
  8
0
 10
167.5
 20
102.158345
 30
0.0
 40
0.5
 50
0.0
 51
90.0
  0
ARC
  5
30B
  8
0
 10
167.5
 20
73.158344999999997
 30
0.0
 40
0.5
 50
270.0
 51
0.0
  0
LINE
  5
30C
  8
0
 10
135.440573
 20
107.658345
 30
0.0
 11
140.77916200000001
 21
94.958344999999994
 31
0.0
  0
LINE
  5
30D
  8
0
 10
158.559427
 20
107.658345
 30
0.0
 11
153.22083799999999
 21
94.958344999999994
 31
0.0
  0
LINE
  5
30E
  8
0
 10
165.92036100000001
 20
107.658345
 30
0.0
 11
163.818555
 21
102.658345
 31
0.0
  0
LINE
  5
30F
  8
0
 10
128.07963899999999
 20
107.658345
 30
0.0
 11
130.181445
 21
102.658345
 31
0.0
  0
ARC
  5
310
  8
5
 10
123.0
 20
97.158344999999997
 30
0.0
 40
0.5
 50
90.0
 51
180.0
  0
ARC
  5
311
  8
5
 10
123.0
 20
68.158344999999997
 30
0.0
 40
0.5
 50
180.0
 51
270.0
  0
ARC
  5
312
  8
5
 10
171.0
 20
68.158344999999997
 30
0.0
 40
0.5
 50
270.0
 51
0.0
  0
ARC
  5
313
  8
5
 10
171.0
 20
97.158344999999997
 30
0.0
 40
0.5
 50
0.0
 51
90.0
  0
LINE
  5
314
  8
0
 10
237.22409400000001
 20
85.358344999999986
 30
0.0
 11
237.22409400000001
 21
90.558344999999989
 31
0.0
  0
LINE
  5
315
  8
0
 10
242.22409400000001
 20
94.358345
 30
0.0
 11
242.22409400000001
 21
77.314228999999997
 31
0.0
  0
LINE
  5
316
  8
0
 10
241.72409400000001
 20
78.558827000000008
 30
0.0
 11
241.72409400000001
 21
77.498979000000006
 31
0.0
  0
ARC
  5
317
  8
0
 10
241.22409400000001
 20
78.773824000000005
 30
0.0
 40
1.0
 50
0.0
 51
46.534835000000001
  0
ARC
  5
318
  8
0
 10
240.72409400000001
 20
78.558827000000008
 30
0.0
 40
1.0
 50
0.0
 51
46.534835000000001
  0
LINE
  5
319
  8
0
 10
242.014353
 20
76.358345
 30
0.0
 11
242.22409400000001
 21
76.358345
 31
0.0
  0
ARC
  5
31A
  8
0
 10
242.22409400000001
 20
76.978354999999993
 30
0.0
 40
0.12001
 50
159.06525600000001
 51
20.934743999999998
  0
LINE
  5
31B
  8
0
 10
242.22409400000001
 20
77.314228999999997
 30
0.0
 11
242.11200700000001
 21
77.021235000000004
 31
0.0
  0
LINE
  5
31C
  8
0
 10
242.22409400000001
 20
77.314228999999997
 30
0.0
 11
242.33618200000001
 21
77.021235000000004
 31
0.0
  0
LINE
  5
31D
  8
0
 10
241.69108800000001
 20
77.320327000000006
 30
0.0
 11
241.52930699999999
 21
76.897435000000002
 31
0.0
  0
ARC
  5
31E
  8
0
 10
242.014353
 20
76.858345
 30
0.0
 40
0.5
 50
186.19452699999999
 51
270.0
  0
ARC
  5
31F
  8
0
 10
242.22409400000001
 20
76.858345
 30
0.0
 40
0.5
 50
270.0
 51
0.0
  0
ARC
  5
320
  8
0
 10
241.716105
 20
76.825974000000002
 30
0.0
 40
0.2
 50
159.06525600000001
 51
186.19452699999999
  0
ARC
  5
321
  8
0
 10
241.22409400000001
 20
77.498979000000006
 30
0.0
 40
0.5
 50
339.06525599999998
 51
0.0
  0
LINE
  5
322
  8
0
 10
239.40187599999999
 20
81.358344999999986
 30
0.0
 11
239.745833
 21
81.721241000000006
 31
0.0
  0
LINE
  5
323
  8
0
 10
238.22409400000001
 20
84.358345
 30
0.0
 11
239.02409399999999
 21
84.358345
 31
0.0
  0
LINE
  5
324
  8
0
 10
238.22409400000001
 20
91.558344999999989
 30
0.0
 11
239.02409399999999
 21
91.558344999999989
 31
0.0
  0
LINE
  5
325
  8
0
 10
239.22409400000001
 20
82.858344999999986
 30
0.0
 11
239.22409400000001
 21
93.058344999999989
 31
0.0
  0
ARC
  5
326
  8
0
 10
240.72409400000001
 20
82.858344999999986
 30
0.0
 40
1.5
 50
180.0
 51
0.0
  0
LINE
  5
327
  8
0
 10
241.91200799999999
 20
79.499616000000003
 30
0.0
 11
239.745833
 21
81.721241000000006
 31
0.0
  0
LINE
  5
328
  8
0
 10
241.41200799999999
 20
79.284618999999992
 30
0.0
 11
239.40187599999999
 21
81.358344999999986
 31
0.0
  0
ARC
  5
329
  8
0
 10
240.72409400000001
 20
93.058344999999989
 30
0.0
 40
1.5
 50
0.0
 51
180.0
  0
LINE
  5
32A
  8
0
 10
240.39701600000001
 20
95.358344999999986
 30
0.0
 11
242.22409400000001
 21
95.358344999999986
 31
0.0
  0
LINE
  5
32B
  8
0
 10
240.66247100000001
 20
94.858345000000014
 30
0.0
 11
241.72409400000001
 21
94.858345000000014
 31
0.0
  0
LINE
  5
32C
  8
0
 10
239.45523600000001
 20
93.858344999999986
 30
0.0
 11
239.83413100000001
 21
94.418571
 31
0.0
  0
LINE
  5
32D
  8
0
 10
238.986884
 20
94.058344999999989
 30
0.0
 11
239.56867600000001
 21
94.918571
 31
0.0
  0
LINE
  5
32E
  8
0
 10
239.45523600000001
 20
93.858344999999986
 30
0.0
 11
238.986884
 21
94.058344999999989
 31
0.0
  0
ARC
  5
32F
  8
0
 10
241.72409400000001
 20
94.358345
 30
0.0
 40
0.5
 50
360.0
 51
90.0
  0
ARC
  5
330
  8
0
 10
242.22409400000001
 20
94.858345000000014
 30
0.0
 40
0.5
 50
0.0
 51
90.0
  0
ARC
  5
331
  8
0
 10
240.39701600000001
 20
94.358345
 30
0.0
 40
1.0
 50
90.0
 51
145.92854700000001
  0
ARC
  5
332
  8
0
 10
240.66247100000001
 20
93.858344999999986
 30
0.0
 40
1.0
 50
90.0
 51
145.92854700000001
  0
LINE
  5
333
  8
0
 10
238.22409400000001
 20
84.358345
 30
0.0
 11
238.22409400000001
 21
91.558344999999989
 31
0.0
  0
LINE
  5
334
  8
0
 10
237.22409400000001
 20
90.558344999999989
 30
0.0
 11
238.22409400000001
 21
91.558344999999989
 31
0.0
  0
LINE
  5
335
  8
0
 10
237.22409400000001
 20
85.358344999999986
 30
0.0
 11
238.22409400000001
 21
84.358345
 31
0.0
  0
ARC
  5
336
  8
0
 10
240.72409400000001
 20
92.92089
 30
0.0
 40
1.5
 50
0.0
 51
180.0
  0
ARC
  5
337
  8
0
 10
240.72409400000001
 20
92.641069999999999
 30
0.0
 40
1.5
 50
0.0
 51
180.0
  0
ARC
  5
338
  8
0
 10
240.72409400000001
 20
92.223795999999993
 30
0.0
 40
1.5
 50
0.0
 51
180.0
  0
ARC
  5
339
  8
0
 10
240.72409400000001
 20
91.669066000000001
 30
0.0
 40
1.5
 50
0.0
 51
180.0
  0
ARC
  5
33A
  8
0
 10
240.72409400000001
 20
90.878698999999983
 30
0.0
 40
1.5
 50
0.0
 51
180.0
  0
ARC
  5
33B
  8
0
 10
240.72409400000001
 20
89.950877000000006
 30
0.0
 40
1.5
 50
0.0
 51
180.0
  0
ARC
  5
33C
  8
0
 10
240.72409400000001
 20
88.929781000000006
 30
0.0
 40
1.5
 50
0.0
 51
180.0
  0
ARC
  5
33D
  8
0
 10
240.72409400000001
 20
92.734343999999993
 30
0.0
 40
1.5
 50
0.0
 51
180.0
  0
ARC
  5
33E
  8
0
 10
240.72409400000001
 20
92.410341999999986
 30
0.0
 40
1.5
 50
0.0
 51
180.0
  0
ARC
  5
33F
  8
0
 10
240.72409400000001
 20
92.086341000000004
 30
0.0
 40
1.5
 50
0.0
 51
180.0
  0
ARC
  5
340
  8
0
 10
240.72409400000001
 20
91.345065000000005
 30
0.0
 40
1.5
 50
0.0
 51
180.0
  0
ARC
  5
341
  8
0
 10
240.72409400000001
 20
90.417242000000002
 30
0.0
 40
1.5
 50
0.0
 51
180.0
  0
ARC
  5
342
  8
0
 10
240.72409400000001
 20
89.337237999999999
 30
0.0
 40
1.5
 50
0.0
 51
180.0
  0
LINE
  5
343
  8
0
 10
239.43909400000001
 20
88.173344999999983
 30
0.0
 11
242.009094
 21
88.173344999999983
 31
0.0
  0
LINE
  5
344
  8
0
 10
239.43909400000001
 20
87.743345000000005
 30
0.0
 11
242.009094
 21
87.743345000000005
 31
0.0
  0
ARC
  5
345
  8
0
 10
239.43909400000001
 20
87.958344999999994
 30
0.0
 40
0.215
 50
90.0
 51
270.0
  0
ARC
  5
346
  8
0
 10
242.009094
 20
87.958344999999994
 30
0.0
 40
0.215
 50
270.0
 51
90.0
  0
ARC
  5
347
  8
0
 10
240.72409400000001
 20
89.407533999999998
 30
0.0
 40
2.9258310000000001
 50
241.581411
 51
298.418589
  0
ARC
  5
348
  8
0
 10
239.43909400000001
 20
87.02051800000001
 30
0.0
 40
0.215
 50
61.712347999999999
 51
243.389072
  0
ARC
  5
349
  8
0
 10
242.009094
 20
87.02051800000001
 30
0.0
 40
0.215
 50
296.610928
 51
118.28765199999999
  0
ARC
  5
34A
  8
0
 10
240.72409400000001
 20
89.408253999999985
 30
0.0
 40
2.4965509999999989
 50
241.71234799999999
 51
298.28765199999998
  0
ARC
  5
34B
  8
0
 10
240.72409400000001
 20
86.508435999999989
 30
0.0
 40
2.4965509999999989
 50
61.712347999999999
 51
118.28765199999999
  0
ARC
  5
34C
  8
0
 10
242.009094
 20
88.896171999999993
 30
0.0
 40
0.215
 50
241.71234799999999
 51
63.389071999999999
  0
ARC
  5
34D
  8
0
 10
239.43909400000001
 20
88.896171999999993
 30
0.0
 40
0.215
 50
116.610928
 51
298.28765199999998
  0
ARC
  5
34E
  8
0
 10
240.72409400000001
 20
86.509156000000004
 30
0.0
 40
2.9258310000000001
 50
61.581410999999989
 51
118.418589
  0
ARC
  5
34F
  8
0
 10
240.72409400000001
 20
86.579452999999987
 30
0.0
 40
1.5
 50
180.0
 51
0.0
  0
ARC
  5
350
  8
0
 10
240.72409400000001
 20
85.499448000000001
 30
0.0
 40
1.5
 50
180.0
 51
0.0
  0
ARC
  5
351
  8
0
 10
240.72409400000001
 20
84.571624999999997
 30
0.0
 40
1.5
 50
180.0
 51
0.0
  0
ARC
  5
352
  8
0
 10
240.72409400000001
 20
83.830348999999998
 30
0.0
 40
1.5
 50
180.0
 51
0.0
  0
ARC
  5
353
  8
0
 10
240.72409400000001
 20
83.506347999999988
 30
0.0
 40
1.5
 50
180.0
 51
0.0
  0
ARC
  5
354
  8
0
 10
240.72409400000001
 20
83.182345999999995
 30
0.0
 40
1.5
 50
180.0
 51
0.0
  0
ARC
  5
355
  8
0
 10
240.72409400000001
 20
86.986908999999997
 30
0.0
 40
1.5
 50
180.0
 51
0.0
  0
ARC
  5
356
  8
0
 10
240.72409400000001
 20
85.965812999999997
 30
0.0
 40
1.5
 50
180.0
 51
0.0
  0
ARC
  5
357
  8
0
 10
240.72409400000001
 20
85.037991000000005
 30
0.0
 40
1.5
 50
180.0
 51
0.0
  0
ARC
  5
358
  8
0
 10
240.72409400000001
 20
84.247624000000002
 30
0.0
 40
1.5
 50
180.0
 51
0.0
  0
ARC
  5
359
  8
0
 10
240.72409400000001
 20
83.692893999999995
 30
0.0
 40
1.5
 50
180.0
 51
0.0
  0
ARC
  5
35A
  8
0
 10
240.72409400000001
 20
83.275619999999975
 30
0.0
 40
1.5
 50
180.0
 51
0.0
  0
ARC
  5
35B
  8
0
 10
240.72409400000001
 20
82.995800000000003
 30
0.0
 40
1.5
 50
180.0
 51
0.0
  0
LINE
  5
35C
  8
1
 10
257.72409399999998
 20
61.65834499999999
 30
0.0
 11
257.72409399999998
 21
111.658345
 31
0.0
  0
LINE
  5
35D
  8
0
 10
242.924094
 20
107.658345
 30
0.0
 11
272.52409399999999
 21
107.658345
 31
0.0
  0
LINE
  5
35E
  8
0
 10
259.72409399999998
 20
102.658345
 30
0.0
 11
259.72409399999998
 21
107.658345
 31
0.0
  0
LINE
  5
35F
  8
0
 10
255.72409400000001
 20
102.658345
 30
0.0
 11
255.72409400000001
 21
107.658345
 31
0.0
  0
LINE
  5
360
  8
0
 10
239.02409399999999
 20
91.558344999999989
 30
0.0
 11
239.22409400000001
 21
91.358344999999986
 31
0.0
  0
LINE
  5
361
  8
0
 10
239.02409399999999
 20
84.358345
 30
0.0
 11
239.22409400000001
 21
84.558344999999989
 31
0.0
  0
LINE
  5
362
  8
0
 10
242.924094
 20
107.658345
 30
0.0
 11
242.72409400000001
 21
107.45834499999999
 31
0.0
  0
LINE
  5
363
  8
0
 10
272.52409399999999
 20
107.658345
 30
0.0
 11
272.72409399999998
 21
107.45834499999999
 31
0.0
  0
LINE
  5
364
  8
0
 10
126.0
 20
167.15842799999999
 30
0.0
 11
126.0
 21
196.15842799999999
 31
0.0
  0
LINE
  5
365
  8
0
 10
168.0
 20
167.15842799999999
 30
0.0
 11
168.0
 21
196.15842799999999
 31
0.0
  0
LINE
  5
366
  8
5
 10
171.0
 20
196.65842799999999
 30
0.0
 11
168.0
 21
196.65842799999999
 31
0.0
  0
LINE
  5
367
  8
5
 10
171.0
 20
166.65842799999999
 30
0.0
 11
168.0
 21
166.65842799999999
 31
0.0
  0
LINE
  5
368
  8
5
 10
171.5
 20
167.15842799999999
 30
0.0
 11
171.5
 21
196.15842799999999
 31
0.0
  0
LINE
  5
369
  8
5
 10
122.5
 20
167.15842799999999
 30
0.0
 11
122.5
 21
196.15842799999999
 31
0.0
  0
LINE
  5
36A
  8
5
 10
126.0
 20
166.65842799999999
 30
0.0
 11
123.0
 21
166.65842799999999
 31
0.0
  0
ARC
  5
36B
  8
0
 10
126.5
 20
167.15842799999999
 30
0.0
 40
0.5
 50
180.0
 51
270.0
  0
ARC
  5
36C
  8
5
 10
123.0
 20
167.15842799999999
 30
0.0
 40
0.5
 50
180.0
 51
270.0
  0
LINE
  5
36D
  8
5
 10
126.0
 20
196.65842799999999
 30
0.0
 11
123.0
 21
196.65842799999999
 31
0.0
  0
ARC
  5
36E
  8
5
 10
123.0
 20
196.15842799999999
 30
0.0
 40
0.5
 50
90.0
 51
180.0
  0
ARC
  5
36F
  8
0
 10
126.5
 20
196.15842799999999
 30
0.0
 40
0.5
 50
90.0
 51
180.0
  0
LINE
  5
370
  8
0
 10
167.5
 20
196.65842799999999
 30
0.0
 11
126.5
 21
196.65842799999999
 31
0.0
  0
ARC
  5
371
  8
0
 10
167.5
 20
196.15842799999999
 30
0.0
 40
0.5
 50
0.0
 51
90.0
  0
ARC
  5
372
  8
5
 10
171.0
 20
196.15842799999999
 30
0.0
 40
0.5
 50
0.0
 51
90.0
  0
LINE
  5
373
  8
0
 10
167.5
 20
166.65842799999999
 30
0.0
 11
126.5
 21
166.65842799999999
 31
0.0
  0
ARC
  5
374
  8
0
 10
167.5
 20
167.15842799999999
 30
0.0
 40
0.5
 50
270.0
 51
0.0
  0
ARC
  5
375
  8
5
 10
171.0
 20
167.15842799999999
 30
0.0
 40
0.5
 50
270.0
 51
360.0
  0
LINE
  5
376
  8
0
 10
163.59999999999999
 20
161.15842799999999
 30
0.0
 11
157.19999999999999
 21
161.15842799999999
 31
0.0
  0
LINE
  5
377
  8
1
 10
176.5
 20
181.65842799999999
 30
0.0
 11
117.5
 21
181.65842799999999
 31
0.0
  0
LINE
  5
378
  8
0
 10
165.92036100000001
 20
179.65842799999999
 30
0.0
 11
165.92036100000001
 21
183.65842799999999
 31
0.0
  0
LINE
  5
379
  8
0
 10
165.92036100000001
 20
179.65842799999999
 30
0.0
 11
158.42036100000001
 21
166.65842799999999
 31
0.0
  0
LINE
  5
37A
  8
0
 10
165.92036100000001
 20
183.65842799999999
 30
0.0
 11
158.42036100000001
 21
196.65842799999999
 31
0.0
  0
LINE
  5
37B
  8
0
 10
128.07963899999999
 20
183.65842799999999
 30
0.0
 11
135.57963899999999
 21
196.65842799999999
 31
0.0
  0
LINE
  5
37C
  8
0
 10
128.07963899999999
 20
179.65842799999999
 30
0.0
 11
135.57963899999999
 21
166.65842799999999
 31
0.0
  0
LINE
  5
37D
  8
0
 10
128.07963899999999
 20
179.65842799999999
 30
0.0
 11
128.07963899999999
 21
183.65842799999999
 31
0.0
  0
LINE
  5
37E
  8
1
 10
147.0
 20
156.15842799999999
 30
0.0
 11
147.0
 21
207.15842799999999
 31
0.0
  0
LINE
  5
37F
  8
1
 10
148.0
 20
169.65842799999999
 30
0.0
 11
148.0
 21
193.65842799999999
 31
0.0
  0
LINE
  5
380
  8
1
 10
146.0
 20
169.65842799999999
 30
0.0
 11
146.0
 21
193.65842799999999
 31
0.0
  0
TEXT
  5
381
  8
0
 10
137.3833333333333
 20
191.958428
 30
0.0
 40
3.2000000000000002
  1
O
  7
K
 72
     4
 11
138.44999999999999
 21
193.55842799999999
 31
0.0
  0
TEXT
  5
382
  8
0
 10
140.3833333333333
 20
191.958428
 30
0.0
 40
3.2000000000000002
  1
K
  7
K
 72
     4
 11
141.44999999999999
 21
193.55842799999999
 31
0.0
  0
TEXT
  5
383
  8
0
 10
143.3833333333333
 20
191.958428
 30
0.0
 40
3.2000000000000002
  1
-
  7
K
 72
     4
 11
144.44999999999999
 21
193.55842799999999
 31
0.0
  0
TEXT
  5
384
  8
0
 10
145.84999999999999
 20
191.958428
 30
0.0
 40
3.2000000000000002
  1
V
  7
K
 72
     4
 11
147.44999999999999
 21
193.55842799999999
 31
0.0
  0
TEXT
  5
385
  8
0
 10
149.9166666666666
 20
191.958428
 30
0.0
 40
3.2000000000000002
  1
I
  7
K
 72
     4
 11
150.44999999999999
 21
193.55842799999999
 31
0.0
  0
TEXT
  5
386
  8
0
 10
152.3833333333333
 20
191.958428
 30
0.0
 40
3.2000000000000002
  1
S
  7
K
 72
     4
 11
153.44999999999999
 21
193.55842799999999
 31
0.0
  0
TEXT
  5
387
  8
0
 10
155.3833333333333
 20
191.958428
 30
0.0
 40
3.2000000000000002
  1
E
  7
K
 72
     4
 11
156.44999999999999
 21
193.55842799999999
 31
0.0
  0
TEXT
  5
388
  8
0
 10
153.18333333333331
 20
167.644068
 30
0.0
 40
3.2000000000000002
  1
T
  7
K
 72
     4
 11
154.25
 21
169.244068
 31
0.0
  0
TEXT
  5
389
  8
0
 10
149.65000000000001
 20
167.644068
 30
0.0
 40
3.2000000000000002
  1
V
  7
K
 72
     4
 11
151.25
 21
169.244068
 31
0.0
  0
TEXT
  5
38A
  8
0
 10
147.18333333333331
 20
167.644068
 30
0.0
 40
3.2000000000000002
  1
-
  7
K
 72
     4
 11
148.25
 21
169.244068
 31
0.0
  0
TEXT
  5
38B
  8
0
 10
144.18333333333331
 20
167.644068
 30
0.0
 40
3.2000000000000002
  1
2
  7
K
 72
     4
 11
145.25
 21
169.244068
 31
0.0
  0
TEXT
  5
38C
  8
0
 10
141.18333333333331
 20
167.644068
 30
0.0
 40
3.2000000000000002
  1
K
  7
K
 72
     4
 11
142.25
 21
169.244068
 31
0.0
  0
TEXT
  5
38D
  8
0
 10
138.18333333333331
 20
167.644068
 30
0.0
 40
3.2000000000000002
  1
D
  7
K
 72
     4
 11
139.25
 21
169.244068
 31
0.0
  0
LINE
  5
38E
  8
0
 10
129.40000000000001
 20
162.15842799999999
 30
0.0
 11
129.40000000000001
 21
162.958428
 31
0.0
  0
LINE
  5
38F
  8
0
 10
164.59999999999999
 20
162.15842799999999
 30
0.0
 11
164.59999999999999
 21
162.958428
 31
0.0
  0
LINE
  5
390
  8
0
 10
136.80000000000001
 20
161.15842799999999
 30
0.0
 11
136.80000000000001
 21
166.65842799999999
 31
0.0
  0
LINE
  5
391
  8
0
 10
157.19999999999999
 20
161.15842799999999
 30
0.0
 11
157.19999999999999
 21
166.65842799999999
 31
0.0
  0
LINE
  5
392
  8
0
 10
136.80000000000001
 20
161.15842799999999
 30
0.0
 11
130.40000000000001
 21
161.15842799999999
 31
0.0
  0
LINE
  5
393
  8
0
 10
129.40000000000001
 20
162.15842799999999
 30
0.0
 11
130.40000000000001
 21
161.15842799999999
 31
0.0
  0
LINE
  5
394
  8
0
 10
163.59999999999999
 20
161.15842799999999
 30
0.0
 11
164.59999999999999
 21
162.15842799999999
 31
0.0
  0
LINE
  5
395
  8
0
 10
164.59999999999999
 20
162.15842799999999
 30
0.0
 11
157.19999999999999
 21
162.15842799999999
 31
0.0
  0
LINE
  5
396
  8
0
 10
136.80000000000001
 20
162.15842799999999
 30
0.0
 11
129.40000000000001
 21
162.15842799999999
 31
0.0
  0
LINE
  5
397
  8
0
 10
164.75
 20
163.15842799999999
 30
0.0
 11
157.40000000000001
 21
163.15842799999999
 31
0.0
  0
LINE
  5
398
  8
0
 10
136.59999999999999
 20
163.15842799999999
 30
0.0
 11
129.25
 21
163.15842799999999
 31
0.0
  0
LINE
  5
399
  8
0
 10
129.40000000000001
 20
162.958428
 30
0.0
 11
129.59999999999999
 21
163.15842799999999
 31
0.0
  0
LINE
  5
39A
  8
0
 10
136.59999999999999
 20
163.15842799999999
 30
0.0
 11
136.80000000000001
 21
162.958428
 31
0.0
  0
LINE
  5
39B
  8
0
 10
157.19999999999999
 20
162.958428
 30
0.0
 11
157.40000000000001
 21
163.15842799999999
 31
0.0
  0
LINE
  5
39C
  8
0
 10
164.59999999999999
 20
162.958428
 30
0.0
 11
164.40000000000001
 21
163.15842799999999
 31
0.0
  0
LINE
  5
39D
  8
0
 10
157.19999999999999
 20
162.92121800000001
 30
0.0
 11
136.80000000000001
 21
162.92121800000001
 31
0.0
  0
ARC
  5
39E
  8
0
 10
129.25
 20
164.90842799999999
 30
0.0
 40
1.75
 50
90.0
 51
270.0
  0
ARC
  5
39F
  8
0
 10
164.75
 20
164.90842799999999
 30
0.0
 40
1.75
 50
270.0
 51
90.0
  0
ARC
  5
3A0
  8
0
 10
164.41267099999999
 20
164.90842799999999
 30
0.0
 40
1.75
 50
270.0
 51
90.0
  0
ARC
  5
3A1
  8
0
 10
163.994383
 20
164.90842799999999
 30
0.0
 40
1.75
 50
270.0
 51
90.0
  0
ARC
  5
3A2
  8
0
 10
163.495136
 20
164.90842799999999
 30
0.0
 40
1.75
 50
270.0
 51
90.0
  0
ARC
  5
3A3
  8
0
 10
162.94191599999999
 20
164.90842799999999
 30
0.0
 40
1.75
 50
270.0
 51
90.0
  0
ARC
  5
3A4
  8
0
 10
162.25376399999999
 20
164.90842799999999
 30
0.0
 40
1.75
 50
270.0
 51
90.0
  0
ARC
  5
3A5
  8
0
 10
159.64958300000001
 20
164.90842799999999
 30
0.0
 40
2.2336419999999988
 50
308.42025799999999
 51
51.579741999999989
  0
ARC
  5
3A6
  8
0
 10
159.09636399999999
 20
164.90842799999999
 30
0.0
 40
2.2336419999999988
 50
308.42025799999999
 51
51.579741999999989
  0
ARC
  5
3A7
  8
0
 10
158.46218500000001
 20
164.90842799999999
 30
0.0
 40
2.2336419999999988
 50
308.42025799999999
 51
51.579741999999989
  0
ARC
  5
3A8
  8
0
 10
157.774033
 20
164.90842799999999
 30
0.0
 40
2.2336419999999988
 50
308.42025799999999
 51
51.579741999999989
  0
ARC
  5
3A9
  8
0
 10
157.085882
 20
164.90842799999999
 30
0.0
 40
2.2336419999999988
 50
308.42025799999999
 51
51.579741999999989
  0
ARC
  5
3AA
  8
0
 10
156.30327800000001
 20
164.90842799999999
 30
0.0
 40
2.2336419999999988
 50
308.42025799999999
 51
51.579741999999989
  0
ARC
  5
3AB
  8
0
 10
155.58814100000001
 20
164.90842799999999
 30
0.0
 40
2.2336419999999988
 50
316.18907999999999
 51
43.810920000000003
  0
ARC
  5
3AC
  8
0
 10
159.959926
 20
164.90842799999999
 30
0.0
 40
2.3955599999999988
 50
313.070153
 51
46.929846999999988
  0
ARC
  5
3AD
  8
0
 10
160.45917299999999
 20
164.90842799999999
 30
0.0
 40
2.3955599999999988
 50
313.070153
 51
46.929846999999988
  0
ARC
  5
3AE
  8
0
 10
161.403695
 20
164.90842799999999
 30
0.0
 40
1.950286
 50
296.19401399999998
 51
63.80598599999999
  0
ARC
  5
3AF
  8
0
 10
132.596305
 20
164.90842799999999
 30
0.0
 40
1.950286
 50
116.194014
 51
243.80598599999999
  0
ARC
  5
3B0
  8
0
 10
133.54082700000001
 20
164.90842799999999
 30
0.0
 40
2.3955599999999988
 50
133.070153
 51
226.929847
  0
ARC
  5
3B1
  8
0
 10
134.040074
 20
164.90842799999999
 30
0.0
 40
2.3955599999999988
 50
133.070153
 51
226.929847
  0
ARC
  5
3B2
  8
0
 10
138.41185899999999
 20
164.90842799999999
 30
0.0
 40
2.2336419999999988
 50
136.18907999999999
 51
223.81092000000001
  0
ARC
  5
3B3
  8
0
 10
137.69672199999999
 20
164.90842799999999
 30
0.0
 40
2.2336419999999988
 50
128.42025799999999
 51
231.57974200000001
  0
ARC
  5
3B4
  8
0
 10
136.914118
 20
164.90842799999999
 30
0.0
 40
2.2336419999999988
 50
128.42025799999999
 51
231.57974200000001
  0
ARC
  5
3B5
  8
0
 10
136.225967
 20
164.90842799999999
 30
0.0
 40
2.2336419999999988
 50
128.42025799999999
 51
231.57974200000001
  0
ARC
  5
3B6
  8
0
 10
135.53781499999999
 20
164.90842799999999
 30
0.0
 40
2.2336419999999988
 50
128.42025799999999
 51
231.57974200000001
  0
ARC
  5
3B7
  8
0
 10
134.90363600000001
 20
164.90842799999999
 30
0.0
 40
2.2336419999999988
 50
128.42025799999999
 51
231.57974200000001
  0
ARC
  5
3B8
  8
0
 10
134.35041699999999
 20
164.90842799999999
 30
0.0
 40
2.2336419999999988
 50
128.42025799999999
 51
231.57974200000001
  0
ARC
  5
3B9
  8
0
 10
131.74623600000001
 20
164.90842799999999
 30
0.0
 40
1.75
 50
90.0
 51
270.0
  0
ARC
  5
3BA
  8
0
 10
131.05808400000001
 20
164.90842799999999
 30
0.0
 40
1.75
 50
90.0
 51
270.0
  0
ARC
  5
3BB
  8
0
 10
130.504864
 20
164.90842799999999
 30
0.0
 40
1.75
 50
90.0
 51
270.0
  0
ARC
  5
3BC
  8
0
 10
130.005617
 20
164.90842799999999
 30
0.0
 40
1.75
 50
90.0
 51
270.0
  0
ARC
  5
3BD
  8
0
 10
129.58732900000001
 20
164.90842799999999
 30
0.0
 40
1.75
 50
90.0
 51
270.0
  0
ARC
  5
3BE
  8
0
 10
129.58732900000001
 20
198.40842799999999
 30
0.0
 40
1.75
 50
90.0
 51
270.0
  0
ARC
  5
3BF
  8
0
 10
130.005617
 20
198.40842799999999
 30
0.0
 40
1.75
 50
90.0
 51
270.0
  0
ARC
  5
3C0
  8
0
 10
130.504864
 20
198.40842799999999
 30
0.0
 40
1.75
 50
90.0
 51
270.0
  0
ARC
  5
3C1
  8
0
 10
131.05808400000001
 20
198.40842799999999
 30
0.0
 40
1.75
 50
90.0
 51
270.0
  0
ARC
  5
3C2
  8
0
 10
131.74623600000001
 20
198.40842799999999
 30
0.0
 40
1.75
 50
90.0
 51
270.0
  0
ARC
  5
3C3
  8
0
 10
134.35041699999999
 20
198.40842799999999
 30
0.0
 40
2.2336419999999988
 50
128.42025799999999
 51
231.57974200000001
  0
ARC
  5
3C4
  8
0
 10
134.90363600000001
 20
198.40842799999999
 30
0.0
 40
2.2336419999999988
 50
128.42025799999999
 51
231.57974200000001
  0
ARC
  5
3C5
  8
0
 10
135.53781499999999
 20
198.40842799999999
 30
0.0
 40
2.2336419999999988
 50
128.42025799999999
 51
231.57974200000001
  0
ARC
  5
3C6
  8
0
 10
136.225967
 20
198.40842799999999
 30
0.0
 40
2.2336419999999988
 50
128.42025799999999
 51
231.57974200000001
  0
ARC
  5
3C7
  8
0
 10
136.914118
 20
198.40842799999999
 30
0.0
 40
2.2336419999999988
 50
128.42025799999999
 51
231.57974200000001
  0
ARC
  5
3C8
  8
0
 10
137.69672199999999
 20
198.40842799999999
 30
0.0
 40
2.2336419999999988
 50
128.42025799999999
 51
231.57974200000001
  0
ARC
  5
3C9
  8
0
 10
138.41185899999999
 20
198.40842799999999
 30
0.0
 40
2.2336419999999988
 50
136.18907999999999
 51
223.81092000000001
  0
ARC
  5
3CA
  8
0
 10
134.040074
 20
198.40842799999999
 30
0.0
 40
2.3955599999999988
 50
133.070153
 51
226.929847
  0
ARC
  5
3CB
  8
0
 10
133.54082700000001
 20
198.40842799999999
 30
0.0
 40
2.3955599999999988
 50
133.070153
 51
226.929847
  0
ARC
  5
3CC
  8
0
 10
132.596305
 20
198.40842799999999
 30
0.0
 40
1.950286
 50
116.194014
 51
243.80598599999999
  0
ARC
  5
3CD
  8
0
 10
161.403695
 20
198.40842799999999
 30
0.0
 40
1.950286
 50
296.19401399999998
 51
63.80598599999999
  0
ARC
  5
3CE
  8
0
 10
160.45917299999999
 20
198.40842799999999
 30
0.0
 40
2.3955599999999988
 50
313.070153
 51
46.929846999999988
  0
ARC
  5
3CF
  8
0
 10
159.959926
 20
198.40842799999999
 30
0.0
 40
2.3955599999999988
 50
313.070153
 51
46.929846999999988
  0
ARC
  5
3D0
  8
0
 10
155.58814100000001
 20
198.40842799999999
 30
0.0
 40
2.2336419999999988
 50
316.18907999999999
 51
43.810920000000003
  0
ARC
  5
3D1
  8
0
 10
156.30327800000001
 20
198.40842799999999
 30
0.0
 40
2.2336419999999988
 50
308.42025799999999
 51
51.579741999999989
  0
ARC
  5
3D2
  8
0
 10
157.085882
 20
198.40842799999999
 30
0.0
 40
2.2336419999999988
 50
308.42025799999999
 51
51.579741999999989
  0
ARC
  5
3D3
  8
0
 10
157.774033
 20
198.40842799999999
 30
0.0
 40
2.2336419999999988
 50
308.42025799999999
 51
51.579741999999989
  0
ARC
  5
3D4
  8
0
 10
158.46218500000001
 20
198.40842799999999
 30
0.0
 40
2.2336419999999988
 50
308.42025799999999
 51
51.579741999999989
  0
ARC
  5
3D5
  8
0
 10
159.09636399999999
 20
198.40842799999999
 30
0.0
 40
2.2336419999999988
 50
308.42025799999999
 51
51.579741999999989
  0
ARC
  5
3D6
  8
0
 10
159.64958300000001
 20
198.40842799999999
 30
0.0
 40
2.2336419999999988
 50
308.42025799999999
 51
51.579741999999989
  0
ARC
  5
3D7
  8
0
 10
162.25376399999999
 20
198.40842799999999
 30
0.0
 40
1.75
 50
270.0
 51
90.0
  0
ARC
  5
3D8
  8
0
 10
162.94191599999999
 20
198.40842799999999
 30
0.0
 40
1.75
 50
270.0
 51
90.0
  0
ARC
  5
3D9
  8
0
 10
163.495136
 20
198.40842799999999
 30
0.0
 40
1.75
 50
270.0
 51
90.0
  0
ARC
  5
3DA
  8
0
 10
163.994383
 20
198.40842799999999
 30
0.0
 40
1.75
 50
270.0
 51
90.0
  0
ARC
  5
3DB
  8
0
 10
164.41267099999999
 20
198.40842799999999
 30
0.0
 40
1.75
 50
270.0
 51
90.0
  0
ARC
  5
3DC
  8
0
 10
164.75
 20
198.40842799999999
 30
0.0
 40
1.75
 50
270.0
 51
90.0
  0
ARC
  5
3DD
  8
0
 10
129.25
 20
198.40842799999999
 30
0.0
 40
1.75
 50
90.0
 51
270.0
  0
LINE
  5
3DE
  8
0
 10
157.19999999999999
 20
200.39563799999999
 30
0.0
 11
136.80000000000001
 21
200.39563799999999
 31
0.0
  0
LINE
  5
3DF
  8
0
 10
164.59999999999999
 20
200.358428
 30
0.0
 11
164.40000000000001
 21
200.15842799999999
 31
0.0
  0
LINE
  5
3E0
  8
0
 10
157.19999999999999
 20
200.358428
 30
0.0
 11
157.40000000000001
 21
200.15842799999999
 31
0.0
  0
LINE
  5
3E1
  8
0
 10
136.59999999999999
 20
200.15842799999999
 30
0.0
 11
136.80000000000001
 21
200.358428
 31
0.0
  0
LINE
  5
3E2
  8
0
 10
129.40000000000001
 20
200.358428
 30
0.0
 11
129.59999999999999
 21
200.15842799999999
 31
0.0
  0
LINE
  5
3E3
  8
0
 10
136.59999999999999
 20
200.15842799999999
 30
0.0
 11
129.25
 21
200.15842799999999
 31
0.0
  0
LINE
  5
3E4
  8
0
 10
164.75
 20
200.15842799999999
 30
0.0
 11
157.40000000000001
 21
200.15842799999999
 31
0.0
  0
LINE
  5
3E5
  8
0
 10
136.80000000000001
 20
201.15842799999999
 30
0.0
 11
129.40000000000001
 21
201.15842799999999
 31
0.0
  0
LINE
  5
3E6
  8
0
 10
164.59999999999999
 20
201.15842799999999
 30
0.0
 11
157.19999999999999
 21
201.15842799999999
 31
0.0
  0
LINE
  5
3E7
  8
0
 10
163.59999999999999
 20
202.15842799999999
 30
0.0
 11
164.59999999999999
 21
201.15842799999999
 31
0.0
  0
LINE
  5
3E8
  8
0
 10
129.40000000000001
 20
201.15842799999999
 30
0.0
 11
130.40000000000001
 21
202.15842799999999
 31
0.0
  0
LINE
  5
3E9
  8
0
 10
136.80000000000001
 20
202.15842799999999
 30
0.0
 11
130.40000000000001
 21
202.15842799999999
 31
0.0
  0
LINE
  5
3EA
  8
0
 10
157.19999999999999
 20
202.15842799999999
 30
0.0
 11
157.19999999999999
 21
196.65842799999999
 31
0.0
  0
LINE
  5
3EB
  8
0
 10
136.80000000000001
 20
202.15842799999999
 30
0.0
 11
136.80000000000001
 21
196.65842799999999
 31
0.0
  0
LINE
  5
3EC
  8
0
 10
164.59999999999999
 20
201.15842799999999
 30
0.0
 11
164.59999999999999
 21
200.358428
 31
0.0
  0
LINE
  5
3ED
  8
0
 10
129.40000000000001
 20
201.15842799999999
 30
0.0
 11
129.40000000000001
 21
200.358428
 31
0.0
  0
LINE
  5
3EE
  8
0
 10
163.59999999999999
 20
202.15842799999999
 30
0.0
 11
157.19999999999999
 21
202.15842799999999
 31
0.0
  0
ARC
  5
3EF
  8
0
 10
133.0
 20
87.958344999999994
 30
0.0
 40
3.7000000000000002
 50
90.0
 51
270.0
  0
ARC
  5
3F0
  8
0
 10
133.0
 20
87.958344999999994
 30
0.0
 40
2.7000000000000002
 50
90.0
 51
270.0
  0
ARC
  5
3F1
  8
0
 10
161.0
 20
87.958344999999994
 30
0.0
 40
2.7000000000000002
 50
270.0
 51
90.0
  0
ARC
  5
3F2
  8
0
 10
161.0
 20
87.958344999999994
 30
0.0
 40
3.7000000000000002
 50
270.0
 51
90.0
  0
ARC
  5
3F3
  8
0
 10
156.69999999999999
 20
94.458344999999994
 30
0.0
 40
0.5
 50
0.0
 51
90.0
  0
ARC
  5
3F4
  8
0
 10
157.0
 20
94.358345
 30
0.0
 40
0.2
 50
270.0
 51
360.0
  0
ARC
  5
3F5
  8
0
 10
157.0
 20
81.058344999999974
 30
0.0
 40
0.2
 50
0.0
 51
90.0
  0
ARC
  5
3F6
  8
0
 10
157.0
 20
81.358344999999986
 30
0.0
 40
0.2
 50
0.0
 51
90.0
  0
ARC
  5
3F7
  8
0
 10
157.0
 20
94.158344999999997
 30
0.0
 40
0.2
 50
270.0
 51
0.0
  0
LINE
  5
3F8
  8
0
 10
157.19999999999999
 20
94.158344999999997
 30
0.0
 11
157.19999999999999
 21
94.458344999999994
 31
0.0
  0
LINE
  5
3F9
  8
0
 10
157.19999999999999
 20
84.328440999999998
 30
0.0
 11
157.19999999999999
 21
91.683203000000006
 31
0.0
  0
LINE
  5
3FA
  8
0
 10
157.19999999999999
 20
84.258344999999977
 30
0.0
 11
161.0
 21
84.258344999999977
 31
0.0
  0
LINE
  5
3FB
  8
0
 10
157.19999999999999
 20
91.658344999999997
 30
0.0
 11
161.0
 21
91.658344999999997
 31
0.0
  0
LINE
  5
3FC
  8
0
 10
157.19999999999999
 20
85.258345000000006
 30
0.0
 11
161.0
 21
85.258345000000006
 31
0.0
  0
LINE
  5
3FD
  8
0
 10
157.19999999999999
 20
90.658344999999997
 30
0.0
 11
161.0
 21
90.658344999999997
 31
0.0
  0
LINE
  5
3FE
  8
0
 10
136.80000000000001
 20
84.233486999999997
 30
0.0
 11
136.80000000000001
 21
91.683203000000006
 31
0.0
  0
LINE
  5
3FF
  8
0
 10
137.30000000000001
 20
76.158344999999997
 30
0.0
 11
156.69999999999999
 21
76.158344999999997
 31
0.0
  0
LINE
  5
400
  8
0
 10
156.5
 20
72.658344999999997
 30
0.0
 11
153.12008900000001
 21
76.158344999999997
 31
0.0
  0
LINE
  5
401
  8
0
 10
137.5
 20
72.658344999999997
 30
0.0
 11
140.87991099999999
 21
76.158344999999997
 31
0.0
  0
LINE
  5
402
  8
0
 10
156.5
 20
72.658344999999997
 30
0.0
 11
167.5
 21
72.658344999999997
 31
0.0
  0
LINE
  5
403
  8
0
 10
166.6999999999999
 20
66.658344999999997
 30
0.0
 11
127.3
 21
66.658344999999997
 31
0.0
  0
LINE
  5
404
  8
0
 10
166.6999999999999
 20
66.658344999999997
 30
0.0
 11
166.6999999999999
 21
69.158344999999997
 31
0.0
  0
LINE
  5
405
  8
0
 10
127.3
 20
66.658344999999997
 30
0.0
 11
127.3
 21
69.158344999999997
 31
0.0
  0
LINE
  5
406
  8
0
 10
166.6999999999999
 20
68.158344999999997
 30
0.0
 11
160.15051800000001
 21
68.158344999999997
 31
0.0
  0
LINE
  5
407
  8
0
 10
133.84948199999999
 20
68.158344999999997
 30
0.0
 11
141.57499300000001
 21
76.158344999999997
 31
0.0
  0
LINE
  5
408
  8
0
 10
160.15051800000001
 20
68.158344999999997
 30
0.0
 11
152.42500699999999
 21
76.158344999999997
 31
0.0
  0
LINE
  5
409
  8
0
 10
127.3
 20
69.158344999999997
 30
0.0
 11
130.679911
 21
72.658344999999997
 31
0.0
  0
LINE
  5
40A
  8
0
 10
166.6999999999999
 20
69.158344999999997
 30
0.0
 11
163.320089
 21
72.658344999999997
 31
0.0
  0
LINE
  5
40B
  8
0
 10
133.84948199999999
 20
68.158344999999997
 30
0.0
 11
133.84948199999999
 21
66.658344999999997
 31
0.0
  0
LINE
  5
40C
  8
0
 10
160.15051800000001
 20
68.158344999999997
 30
0.0
 11
160.15051800000001
 21
66.658344999999997
 31
0.0
  0
LINE
  5
40D
  8
0
 10
133.84948199999999
 20
68.158344999999997
 30
0.0
 11
127.3
 21
68.158344999999997
 31
0.0
  0
ARC
  5
40E
  8
3
 10
245.22409400000001
 20
80.866796999999991
 30
0.0
 40
0.1
 50
59.036242999999999
 51
120.963757
  0
LINE
  5
40F
  8
3
 10
247.28963100000001
 20
79.744093999999976
 30
0.0
 11
245.275544
 21
80.952546999999996
 31
0.0
  0
LINE
  5
410
  8
3
 10
245.17264499999999
 20
80.952546999999996
 30
0.0
 11
243.158557
 21
79.744093999999976
 31
0.0
  0
ARC
  5
411
  8
3
 10
258.21000700000002
 20
79.658344999999997
 30
0.0
 40
0.1
 50
120.963757
 51
239.03624300000001
  0
LINE
  5
412
  8
3
 10
257.28963099999999
 20
79.57259599999999
 30
0.0
 11
255.275544
 21
78.364142999999999
 31
0.0
  0
LINE
  5
413
  8
3
 10
255.17264499999999
 20
78.364142999999999
 30
0.0
 11
253.158557
 21
79.57259599999999
 31
0.0
  0
ARC
  5
414
  8
3
 10
253.21000699999999
 20
79.658344999999997
 30
0.0
 40
0.1
 50
120.963757
 51
239.03624300000001
  0
ARC
  5
415
  8
3
 10
255.22409400000001
 20
78.449893000000003
 30
0.0
 40
0.1
 50
239.03624300000001
 51
300.96375699999999
  0
ARC
  5
416
  8
3
 10
257.23818199999999
 20
79.658344999999997
 30
0.0
 40
0.1
 50
300.96375699999999
 51
59.036242999999999
  0
LINE
  5
417
  8
3
 10
252.28963100000001
 20
79.57259599999999
 30
0.0
 11
250.275544
 21
78.364142999999999
 31
0.0
  0
LINE
  5
418
  8
3
 10
250.17264499999999
 20
78.364142999999999
 30
0.0
 11
248.158557
 21
79.57259599999999
 31
0.0
  0
ARC
  5
419
  8
3
 10
248.21000699999999
 20
79.658344999999997
 30
0.0
 40
0.1
 50
120.963757
 51
239.03624300000001
  0
ARC
  5
41A
  8
3
 10
250.22409400000001
 20
78.449893000000003
 30
0.0
 40
0.1
 50
239.03624300000001
 51
300.96375699999999
  0
ARC
  5
41B
  8
3
 10
252.23818199999999
 20
79.658344999999997
 30
0.0
 40
0.1
 50
300.96375699999999
 51
59.036242999999999
  0
ARC
  5
41C
  8
3
 10
247.23818199999999
 20
79.658344999999997
 30
0.0
 40
0.1
 50
300.96375699999999
 51
59.036242999999999
  0
ARC
  5
41D
  8
3
 10
245.22409400000001
 20
78.449893000000003
 30
0.0
 40
0.1
 50
239.03624300000001
 51
300.96375699999999
  0
ARC
  5
41E
  8
3
 10
243.21000699999999
 20
79.658344999999997
 30
0.0
 40
0.1
 50
120.963757
 51
239.03624300000001
  0
LINE
  5
41F
  8
3
 10
245.17264499999999
 20
78.364142999999999
 30
0.0
 11
243.158557
 21
79.57259599999999
 31
0.0
  0
LINE
  5
420
  8
3
 10
247.28963100000001
 20
79.57259599999999
 30
0.0
 11
245.275544
 21
78.364142999999999
 31
0.0
  0
LINE
  5
421
  8
3
 10
250.17264499999999
 20
80.952546999999996
 30
0.0
 11
248.158557
 21
79.744093999999976
 31
0.0
  0
LINE
  5
422
  8
3
 10
252.28963100000001
 20
79.744093999999976
 30
0.0
 11
250.275544
 21
80.952546999999996
 31
0.0
  0
ARC
  5
423
  8
3
 10
250.22409400000001
 20
80.866796999999991
 30
0.0
 40
0.1
 50
59.036242999999999
 51
120.963757
  0
ARC
  5
424
  8
3
 10
255.22409400000001
 20
80.866796999999991
 30
0.0
 40
0.1
 50
59.036242999999999
 51
120.963757
  0
LINE
  5
425
  8
3
 10
255.17264499999999
 20
80.952546999999996
 30
0.0
 11
253.158557
 21
79.744093999999976
 31
0.0
  0
LINE
  5
426
  8
3
 10
257.28963099999999
 20
79.744093999999976
 30
0.0
 11
255.275544
 21
80.952546999999996
 31
0.0
  0
LINE
  5
427
  8
3
 10
272.28963099999999
 20
79.57259599999999
 30
0.0
 11
270.27554400000002
 21
78.364142999999999
 31
0.0
  0
LINE
  5
428
  8
3
 10
270.1726450000001
 20
78.364142999999999
 30
0.0
 11
268.15855699999997
 21
79.57259599999999
 31
0.0
  0
ARC
  5
429
  8
3
 10
270.22409399999998
 20
78.449893000000003
 30
0.0
 40
0.1
 50
239.03624300000001
 51
300.96375699999999
  0
LINE
  5
42A
  8
3
 10
267.28963099999999
 20
79.57259599999999
 30
0.0
 11
265.27554399999991
 21
78.364142999999999
 31
0.0
  0
LINE
  5
42B
  8
3
 10
265.17264499999999
 20
78.364142999999999
 30
0.0
 11
263.15855699999997
 21
79.57259599999999
 31
0.0
  0
ARC
  5
42C
  8
3
 10
265.22409399999998
 20
78.449893000000003
 30
0.0
 40
0.1
 50
239.03624300000001
 51
300.96375699999999
  0
LINE
  5
42D
  8
3
 10
262.28963099999999
 20
79.57259599999999
 30
0.0
 11
260.27554400000002
 21
78.364142999999999
 31
0.0
  0
LINE
  5
42E
  8
3
 10
260.1726450000001
 20
78.364142999999999
 30
0.0
 11
258.15855699999997
 21
79.57259599999999
 31
0.0
  0
ARC
  5
42F
  8
3
 10
260.22409399999998
 20
78.449893000000003
 30
0.0
 40
0.1
 50
239.03624300000001
 51
300.96375699999999
  0
LINE
  5
430
  8
3
 10
260.1726450000001
 20
80.952546999999996
 30
0.0
 11
258.15855699999997
 21
79.744093999999976
 31
0.0
  0
LINE
  5
431
  8
3
 10
262.28963099999999
 20
79.744093999999976
 30
0.0
 11
260.27554400000002
 21
80.952546999999996
 31
0.0
  0
ARC
  5
432
  8
3
 10
260.22409399999998
 20
80.866796999999991
 30
0.0
 40
0.1
 50
59.036242999999999
 51
120.963757
  0
ARC
  5
433
  8
3
 10
262.23818199999999
 20
79.658344999999997
 30
0.0
 40
0.1
 50
300.96375699999999
 51
59.036242999999999
  0
LINE
  5
434
  8
3
 10
267.28963099999999
 20
79.744093999999976
 30
0.0
 11
265.27554399999991
 21
80.952546999999996
 31
0.0
  0
LINE
  5
435
  8
3
 10
265.17264499999999
 20
80.952546999999996
 30
0.0
 11
263.15855699999997
 21
79.744093999999976
 31
0.0
  0
ARC
  5
436
  8
3
 10
263.21000699999991
 20
79.658344999999997
 30
0.0
 40
0.1
 50
120.963757
 51
239.03624300000001
  0
ARC
  5
437
  8
3
 10
265.22409399999998
 20
80.866796999999991
 30
0.0
 40
0.1
 50
59.036242999999999
 51
120.963757
  0
ARC
  5
438
  8
3
 10
267.23818199999999
 20
79.658344999999997
 30
0.0
 40
0.1
 50
300.96375699999999
 51
59.036242999999999
  0
ARC
  5
439
  8
3
 10
268.21000700000002
 20
79.658344999999997
 30
0.0
 40
0.1
 50
120.963757
 51
239.03624300000001
  0
LINE
  5
43A
  8
3
 10
270.1726450000001
 20
80.952546999999996
 30
0.0
 11
268.15855699999997
 21
79.744093999999976
 31
0.0
  0
LINE
  5
43B
  8
3
 10
272.28963099999999
 20
79.744093999999976
 30
0.0
 11
270.27554400000002
 21
80.952546999999996
 31
0.0
  0
ARC
  5
43C
  8
3
 10
272.23818199999999
 20
79.658344999999997
 30
0.0
 40
0.1
 50
300.96375699999999
 51
59.036242999999999
  0
ARC
  5
43D
  8
3
 10
270.22409399999998
 20
80.866796999999991
 30
0.0
 40
0.1
 50
59.036242999999999
 51
120.963757
  0
ARC
  5
43E
  8
3
 10
245.22409400000001
 20
77.866796999999991
 30
0.0
 40
0.1
 50
59.036242999999999
 51
120.963757
  0
LINE
  5
43F
  8
3
 10
247.28963100000001
 20
76.74409399999999
 30
0.0
 11
245.275544
 21
77.952546999999996
 31
0.0
  0
LINE
  5
440
  8
3
 10
245.17264499999999
 20
77.952546999999996
 30
0.0
 11
243.158557
 21
76.74409399999999
 31
0.0
  0
ARC
  5
441
  8
3
 10
258.21000700000002
 20
76.658344999999997
 30
0.0
 40
0.1
 50
120.963757
 51
239.03624300000001
  0
LINE
  5
442
  8
3
 10
257.28963099999999
 20
76.57259599999999
 30
0.0
 11
255.275544
 21
75.364142999999999
 31
0.0
  0
LINE
  5
443
  8
3
 10
255.17264499999999
 20
75.364142999999999
 30
0.0
 11
253.158557
 21
76.57259599999999
 31
0.0
  0
ARC
  5
444
  8
3
 10
253.21000699999999
 20
76.658344999999997
 30
0.0
 40
0.1
 50
120.963757
 51
239.03624300000001
  0
ARC
  5
445
  8
3
 10
255.22409400000001
 20
75.449893000000003
 30
0.0
 40
0.1
 50
239.03624300000001
 51
300.96375699999999
  0
ARC
  5
446
  8
3
 10
257.23818199999999
 20
76.658344999999997
 30
0.0
 40
0.1
 50
300.96375699999999
 51
59.036242999999999
  0
LINE
  5
447
  8
3
 10
252.28963100000001
 20
76.57259599999999
 30
0.0
 11
250.275544
 21
75.364142999999999
 31
0.0
  0
LINE
  5
448
  8
3
 10
250.17264499999999
 20
75.364142999999999
 30
0.0
 11
248.158557
 21
76.57259599999999
 31
0.0
  0
ARC
  5
449
  8
3
 10
248.21000699999999
 20
76.658344999999997
 30
0.0
 40
0.1
 50
120.963757
 51
239.03624300000001
  0
ARC
  5
44A
  8
3
 10
250.22409400000001
 20
75.449893000000003
 30
0.0
 40
0.1
 50
239.03624300000001
 51
300.96375699999999
  0
ARC
  5
44B
  8
3
 10
252.23818199999999
 20
76.658344999999997
 30
0.0
 40
0.1
 50
300.96375699999999
 51
59.036242999999999
  0
ARC
  5
44C
  8
3
 10
247.23818199999999
 20
76.658344999999997
 30
0.0
 40
0.1
 50
300.96375699999999
 51
59.036242999999999
  0
ARC
  5
44D
  8
3
 10
245.22409400000001
 20
75.449893000000003
 30
0.0
 40
0.1
 50
239.03624300000001
 51
300.96375699999999
  0
ARC
  5
44E
  8
3
 10
243.21000699999999
 20
76.658344999999997
 30
0.0
 40
0.1
 50
120.963757
 51
239.03624300000001
  0
LINE
  5
44F
  8
3
 10
245.17264499999999
 20
75.364142999999999
 30
0.0
 11
243.158557
 21
76.57259599999999
 31
0.0
  0
LINE
  5
450
  8
3
 10
247.28963100000001
 20
76.57259599999999
 30
0.0
 11
245.275544
 21
75.364142999999999
 31
0.0
  0
LINE
  5
451
  8
3
 10
250.17264499999999
 20
77.952546999999996
 30
0.0
 11
248.158557
 21
76.74409399999999
 31
0.0
  0
LINE
  5
452
  8
3
 10
252.28963100000001
 20
76.74409399999999
 30
0.0
 11
250.275544
 21
77.952546999999996
 31
0.0
  0
ARC
  5
453
  8
3
 10
250.22409400000001
 20
77.866796999999991
 30
0.0
 40
0.1
 50
59.036242999999999
 51
120.963757
  0
ARC
  5
454
  8
3
 10
255.22409400000001
 20
77.866796999999991
 30
0.0
 40
0.1
 50
59.036242999999999
 51
120.963757
  0
LINE
  5
455
  8
3
 10
255.17264499999999
 20
77.952546999999996
 30
0.0
 11
253.158557
 21
76.74409399999999
 31
0.0
  0
LINE
  5
456
  8
3
 10
257.28963099999999
 20
76.74409399999999
 30
0.0
 11
255.275544
 21
77.952546999999996
 31
0.0
  0
LINE
  5
457
  8
3
 10
272.28963099999999
 20
76.57259599999999
 30
0.0
 11
270.27554400000002
 21
75.364142999999999
 31
0.0
  0
LINE
  5
458
  8
3
 10
270.1726450000001
 20
75.364142999999999
 30
0.0
 11
268.15855699999997
 21
76.57259599999999
 31
0.0
  0
ARC
  5
459
  8
3
 10
270.22409399999998
 20
75.449893000000003
 30
0.0
 40
0.1
 50
239.03624300000001
 51
300.96375699999999
  0
LINE
  5
45A
  8
3
 10
267.28963099999999
 20
76.57259599999999
 30
0.0
 11
265.27554399999991
 21
75.364142999999999
 31
0.0
  0
LINE
  5
45B
  8
3
 10
265.17264499999999
 20
75.364142999999999
 30
0.0
 11
263.15855699999997
 21
76.57259599999999
 31
0.0
  0
ARC
  5
45C
  8
3
 10
265.22409399999998
 20
75.449893000000003
 30
0.0
 40
0.1
 50
239.03624300000001
 51
300.96375699999999
  0
LINE
  5
45D
  8
3
 10
262.28963099999999
 20
76.57259599999999
 30
0.0
 11
260.27554400000002
 21
75.364142999999999
 31
0.0
  0
LINE
  5
45E
  8
3
 10
260.1726450000001
 20
75.364142999999999
 30
0.0
 11
258.15855699999997
 21
76.57259599999999
 31
0.0
  0
ARC
  5
45F
  8
3
 10
260.22409399999998
 20
75.449893000000003
 30
0.0
 40
0.1
 50
239.03624300000001
 51
300.96375699999999
  0
LINE
  5
460
  8
3
 10
260.1726450000001
 20
77.952546999999996
 30
0.0
 11
258.15855699999997
 21
76.74409399999999
 31
0.0
  0
LINE
  5
461
  8
3
 10
262.28963099999999
 20
76.74409399999999
 30
0.0
 11
260.27554400000002
 21
77.952546999999996
 31
0.0
  0
ARC
  5
462
  8
3
 10
260.22409399999998
 20
77.866796999999991
 30
0.0
 40
0.1
 50
59.036242999999999
 51
120.963757
  0
ARC
  5
463
  8
3
 10
262.23818199999999
 20
76.658344999999997
 30
0.0
 40
0.1
 50
300.96375699999999
 51
59.036242999999999
  0
LINE
  5
464
  8
3
 10
267.28963099999999
 20
76.74409399999999
 30
0.0
 11
265.27554399999991
 21
77.952546999999996
 31
0.0
  0
LINE
  5
465
  8
3
 10
265.17264499999999
 20
77.952546999999996
 30
0.0
 11
263.15855699999997
 21
76.74409399999999
 31
0.0
  0
ARC
  5
466
  8
3
 10
263.21000699999991
 20
76.658344999999997
 30
0.0
 40
0.1
 50
120.963757
 51
239.03624300000001
  0
ARC
  5
467
  8
3
 10
265.22409399999998
 20
77.866796999999991
 30
0.0
 40
0.1
 50
59.036242999999999
 51
120.963757
  0
ARC
  5
468
  8
3
 10
267.23818199999999
 20
76.658344999999997
 30
0.0
 40
0.1
 50
300.96375699999999
 51
59.036242999999999
  0
ARC
  5
469
  8
3
 10
268.21000700000002
 20
76.658344999999997
 30
0.0
 40
0.1
 50
120.963757
 51
239.03624300000001
  0
LINE
  5
46A
  8
3
 10
270.1726450000001
 20
77.952546999999996
 30
0.0
 11
268.15855699999997
 21
76.74409399999999
 31
0.0
  0
LINE
  5
46B
  8
3
 10
272.28963099999999
 20
76.74409399999999
 30
0.0
 11
270.27554400000002
 21
77.952546999999996
 31
0.0
  0
ARC
  5
46C
  8
3
 10
272.23818199999999
 20
76.658344999999997
 30
0.0
 40
0.1
 50
300.96375699999999
 51
59.036242999999999
  0
ARC
  5
46D
  8
3
 10
270.22409399999998
 20
77.866796999999991
 30
0.0
 40
0.1
 50
59.036242999999999
 51
120.963757
  0
ARC
  5
46E
  8
3
 10
245.22409400000001
 20
74.866796999999991
 30
0.0
 40
0.1
 50
59.036242999999999
 51
120.963757
  0
LINE
  5
46F
  8
3
 10
247.28963100000001
 20
73.74409399999999
 30
0.0
 11
245.275544
 21
74.952546999999996
 31
0.0
  0
LINE
  5
470
  8
3
 10
245.17264499999999
 20
74.952546999999996
 30
0.0
 11
243.158557
 21
73.74409399999999
 31
0.0
  0
ARC
  5
471
  8
3
 10
258.21000700000002
 20
73.658344999999997
 30
0.0
 40
0.1
 50
120.963757
 51
239.03624300000001
  0
LINE
  5
472
  8
3
 10
257.28963099999999
 20
73.57259599999999
 30
0.0
 11
255.76588000000001
 21
72.658344999999997
 31
0.0
  0
LINE
  5
473
  8
3
 10
254.68230800000001
 20
72.658344999999997
 30
0.0
 11
253.158557
 21
73.57259599999999
 31
0.0
  0
ARC
  5
474
  8
3
 10
253.21000699999999
 20
73.658344999999997
 30
0.0
 40
0.1
 50
120.963757
 51
239.03624300000001
  0
ARC
  5
475
  8
3
 10
257.23818199999999
 20
73.658344999999997
 30
0.0
 40
0.1
 50
300.96375699999999
 51
59.036242999999999
  0
LINE
  5
476
  8
3
 10
252.28963100000001
 20
73.57259599999999
 30
0.0
 11
250.76588000000001
 21
72.658344999999997
 31
0.0
  0
LINE
  5
477
  8
3
 10
249.68230800000001
 20
72.658344999999997
 30
0.0
 11
248.158557
 21
73.57259599999999
 31
0.0
  0
ARC
  5
478
  8
3
 10
248.21000699999999
 20
73.658344999999997
 30
0.0
 40
0.1
 50
120.963757
 51
239.03624300000001
  0
ARC
  5
479
  8
3
 10
252.23818199999999
 20
73.658344999999997
 30
0.0
 40
0.1
 50
300.96375699999999
 51
59.036242999999999
  0
ARC
  5
47A
  8
3
 10
247.23818199999999
 20
73.658344999999997
 30
0.0
 40
0.1
 50
300.96375699999999
 51
59.036242999999999
  0
ARC
  5
47B
  8
3
 10
243.21000699999999
 20
73.658344999999997
 30
0.0
 40
0.1
 50
120.963757
 51
239.03624300000001
  0
LINE
  5
47C
  8
3
 10
244.68230800000001
 20
72.658344999999997
 30
0.0
 11
243.158557
 21
73.57259599999999
 31
0.0
  0
LINE
  5
47D
  8
3
 10
247.28963100000001
 20
73.57259599999999
 30
0.0
 11
245.76588000000001
 21
72.658344999999997
 31
0.0
  0
LINE
  5
47E
  8
3
 10
250.17264499999999
 20
74.952546999999996
 30
0.0
 11
248.158557
 21
73.74409399999999
 31
0.0
  0
LINE
  5
47F
  8
3
 10
252.28963100000001
 20
73.74409399999999
 30
0.0
 11
250.275544
 21
74.952546999999996
 31
0.0
  0
ARC
  5
480
  8
3
 10
250.22409400000001
 20
74.866796999999991
 30
0.0
 40
0.1
 50
59.036242999999999
 51
120.963757
  0
ARC
  5
481
  8
3
 10
255.22409400000001
 20
74.866796999999991
 30
0.0
 40
0.1
 50
59.036242999999999
 51
120.963757
  0
LINE
  5
482
  8
3
 10
255.17264499999999
 20
74.952546999999996
 30
0.0
 11
253.158557
 21
73.74409399999999
 31
0.0
  0
LINE
  5
483
  8
3
 10
257.28963099999999
 20
73.74409399999999
 30
0.0
 11
255.275544
 21
74.952546999999996
 31
0.0
  0
LINE
  5
484
  8
3
 10
272.28963099999999
 20
73.57259599999999
 30
0.0
 11
270.76587999999998
 21
72.658344999999997
 31
0.0
  0
LINE
  5
485
  8
3
 10
269.68230800000009
 20
72.658344999999997
 30
0.0
 11
268.15855699999997
 21
73.57259599999999
 31
0.0
  0
LINE
  5
486
  8
3
 10
267.28963099999999
 20
73.57259599999999
 30
0.0
 11
265.76587999999998
 21
72.658344999999997
 31
0.0
  0
LINE
  5
487
  8
3
 10
264.68230799999998
 20
72.658344999999997
 30
0.0
 11
263.15855699999997
 21
73.57259599999999
 31
0.0
  0
LINE
  5
488
  8
3
 10
262.28963099999999
 20
73.57259599999999
 30
0.0
 11
260.76587999999998
 21
72.658344999999997
 31
0.0
  0
LINE
  5
489
  8
3
 10
259.68230799999998
 20
72.658344999999997
 30
0.0
 11
258.15855699999997
 21
73.57259599999999
 31
0.0
  0
LINE
  5
48A
  8
3
 10
260.1726450000001
 20
74.952546999999996
 30
0.0
 11
258.15855699999997
 21
73.74409399999999
 31
0.0
  0
LINE
  5
48B
  8
3
 10
262.28963099999999
 20
73.74409399999999
 30
0.0
 11
260.27554400000002
 21
74.952546999999996
 31
0.0
  0
ARC
  5
48C
  8
3
 10
260.22409399999998
 20
74.866796999999991
 30
0.0
 40
0.1
 50
59.036242999999999
 51
120.963757
  0
ARC
  5
48D
  8
3
 10
262.23818199999999
 20
73.658344999999997
 30
0.0
 40
0.1
 50
300.96375699999999
 51
59.036242999999999
  0
LINE
  5
48E
  8
3
 10
267.28963099999999
 20
73.74409399999999
 30
0.0
 11
265.27554399999991
 21
74.952546999999996
 31
0.0
  0
LINE
  5
48F
  8
3
 10
265.17264499999999
 20
74.952546999999996
 30
0.0
 11
263.15855699999997
 21
73.74409399999999
 31
0.0
  0
ARC
  5
490
  8
3
 10
263.21000699999991
 20
73.658344999999997
 30
0.0
 40
0.1
 50
120.963757
 51
239.03624300000001
  0
ARC
  5
491
  8
3
 10
265.22409399999998
 20
74.866796999999991
 30
0.0
 40
0.1
 50
59.036242999999999
 51
120.963757
  0
ARC
  5
492
  8
3
 10
267.23818199999999
 20
73.658344999999997
 30
0.0
 40
0.1
 50
300.96375699999999
 51
59.036242999999999
  0
ARC
  5
493
  8
3
 10
268.21000700000002
 20
73.658344999999997
 30
0.0
 40
0.1
 50
120.963757
 51
239.03624300000001
  0
LINE
  5
494
  8
3
 10
270.1726450000001
 20
74.952546999999996
 30
0.0
 11
268.15855699999997
 21
73.74409399999999
 31
0.0
  0
LINE
  5
495
  8
3
 10
272.28963099999999
 20
73.74409399999999
 30
0.0
 11
270.27554400000002
 21
74.952546999999996
 31
0.0
  0
ARC
  5
496
  8
3
 10
272.23818199999999
 20
73.658344999999997
 30
0.0
 40
0.1
 50
300.96375699999999
 51
59.036242999999999
  0
ARC
  5
497
  8
3
 10
270.22409399999998
 20
74.866796999999991
 30
0.0
 40
0.1
 50
59.036242999999999
 51
120.963757
  0
ARC
  5
498
  8
3
 10
242.72409400000001
 20
82.366796999999991
 30
0.0
 40
0.1
 50
59.036242999999999
 51
90.0
  0
LINE
  5
499
  8
3
 10
244.78963100000001
 20
81.24409399999999
 30
0.0
 11
242.775544
 21
82.452546999999996
 31
0.0
  0
ARC
  5
49A
  8
3
 10
255.71000699999999
 20
81.158344999999997
 30
0.0
 40
0.1
 50
120.963757
 51
239.03624300000001
  0
LINE
  5
49B
  8
3
 10
254.78963100000001
 20
81.07259599999999
 30
0.0
 11
252.775544
 21
79.864142999999984
 31
0.0
  0
LINE
  5
49C
  8
3
 10
252.67264499999999
 20
79.864142999999984
 30
0.0
 11
250.658557
 21
81.07259599999999
 31
0.0
  0
ARC
  5
49D
  8
3
 10
250.71000699999999
 20
81.158344999999997
 30
0.0
 40
0.1
 50
120.963757
 51
239.03624300000001
  0
ARC
  5
49E
  8
3
 10
252.72409400000001
 20
79.949893000000003
 30
0.0
 40
0.1
 50
239.03624300000001
 51
300.96375699999999
  0
ARC
  5
49F
  8
3
 10
254.73818199999999
 20
81.158344999999997
 30
0.0
 40
0.1
 50
300.96375699999999
 51
59.036242999999999
  0
LINE
  5
4A0
  8
3
 10
249.78963100000001
 20
81.07259599999999
 30
0.0
 11
247.775544
 21
79.864142999999984
 31
0.0
  0
LINE
  5
4A1
  8
3
 10
247.67264499999999
 20
79.864142999999984
 30
0.0
 11
245.658557
 21
81.07259599999999
 31
0.0
  0
ARC
  5
4A2
  8
3
 10
245.71000699999999
 20
81.158344999999997
 30
0.0
 40
0.1
 50
120.963757
 51
239.03624300000001
  0
ARC
  5
4A3
  8
3
 10
247.72409400000001
 20
79.949893000000003
 30
0.0
 40
0.1
 50
239.03624300000001
 51
300.96375699999999
  0
ARC
  5
4A4
  8
3
 10
249.73818199999999
 20
81.158344999999997
 30
0.0
 40
0.1
 50
300.96375699999999
 51
59.036242999999999
  0
ARC
  5
4A5
  8
3
 10
244.73818199999999
 20
81.158344999999997
 30
0.0
 40
0.1
 50
300.96375699999999
 51
59.036242999999999
  0
ARC
  5
4A6
  8
3
 10
242.72409400000001
 20
79.949893000000003
 30
0.0
 40
0.1
 50
270.0
 51
300.96375699999999
  0
LINE
  5
4A7
  8
3
 10
244.78963100000001
 20
81.07259599999999
 30
0.0
 11
242.775544
 21
79.864142999999984
 31
0.0
  0
LINE
  5
4A8
  8
3
 10
247.67264499999999
 20
82.452546999999996
 30
0.0
 11
245.658557
 21
81.24409399999999
 31
0.0
  0
LINE
  5
4A9
  8
3
 10
249.78963100000001
 20
81.24409399999999
 30
0.0
 11
247.775544
 21
82.452546999999996
 31
0.0
  0
ARC
  5
4AA
  8
3
 10
247.72409400000001
 20
82.366796999999991
 30
0.0
 40
0.1
 50
59.036242999999999
 51
120.963757
  0
ARC
  5
4AB
  8
3
 10
252.72409400000001
 20
82.366796999999991
 30
0.0
 40
0.1
 50
59.036242999999999
 51
120.963757
  0
LINE
  5
4AC
  8
3
 10
252.67264499999999
 20
82.452546999999996
 30
0.0
 11
250.658557
 21
81.24409399999999
 31
0.0
  0
LINE
  5
4AD
  8
3
 10
254.78963100000001
 20
81.24409399999999
 30
0.0
 11
252.775544
 21
82.452546999999996
 31
0.0
  0
LINE
  5
4AE
  8
3
 10
269.78963099999999
 20
81.07259599999999
 30
0.0
 11
267.77554400000002
 21
79.864142999999984
 31
0.0
  0
LINE
  5
4AF
  8
3
 10
267.67264499999999
 20
79.864142999999984
 30
0.0
 11
265.65855699999997
 21
81.07259599999999
 31
0.0
  0
ARC
  5
4B0
  8
3
 10
267.72409399999998
 20
79.949893000000003
 30
0.0
 40
0.1
 50
239.03624300000001
 51
300.96375699999999
  0
LINE
  5
4B1
  8
3
 10
264.78963099999999
 20
81.07259599999999
 30
0.0
 11
262.77554400000002
 21
79.864142999999984
 31
0.0
  0
LINE
  5
4B2
  8
3
 10
262.67264499999999
 20
79.864142999999984
 30
0.0
 11
260.65855699999997
 21
81.07259599999999
 31
0.0
  0
ARC
  5
4B3
  8
3
 10
262.72409399999998
 20
79.949893000000003
 30
0.0
 40
0.1
 50
239.03624300000001
 51
300.96375699999999
  0
LINE
  5
4B4
  8
3
 10
259.78963099999999
 20
81.07259599999999
 30
0.0
 11
257.77554400000002
 21
79.864142999999984
 31
0.0
  0
LINE
  5
4B5
  8
3
 10
257.6726450000001
 20
79.864142999999984
 30
0.0
 11
255.658557
 21
81.07259599999999
 31
0.0
  0
ARC
  5
4B6
  8
3
 10
257.72409399999998
 20
79.949893000000003
 30
0.0
 40
0.1
 50
239.03624300000001
 51
300.96375699999999
  0
LINE
  5
4B7
  8
3
 10
257.6726450000001
 20
82.452546999999996
 30
0.0
 11
255.658557
 21
81.24409399999999
 31
0.0
  0
LINE
  5
4B8
  8
3
 10
259.78963099999999
 20
81.24409399999999
 30
0.0
 11
257.77554400000002
 21
82.452546999999996
 31
0.0
  0
ARC
  5
4B9
  8
3
 10
257.72409399999998
 20
82.366796999999991
 30
0.0
 40
0.1
 50
59.036242999999999
 51
120.963757
  0
ARC
  5
4BA
  8
3
 10
259.73818199999999
 20
81.158344999999997
 30
0.0
 40
0.1
 50
300.96375699999999
 51
59.036242999999999
  0
LINE
  5
4BB
  8
3
 10
264.78963099999999
 20
81.24409399999999
 30
0.0
 11
262.77554400000002
 21
82.452546999999996
 31
0.0
  0
LINE
  5
4BC
  8
3
 10
262.67264499999999
 20
82.452546999999996
 30
0.0
 11
260.65855699999997
 21
81.24409399999999
 31
0.0
  0
ARC
  5
4BD
  8
3
 10
260.71000699999991
 20
81.158344999999997
 30
0.0
 40
0.1
 50
120.963757
 51
239.03624300000001
  0
ARC
  5
4BE
  8
3
 10
262.72409399999998
 20
82.366796999999991
 30
0.0
 40
0.1
 50
59.036242999999999
 51
120.963757
  0
ARC
  5
4BF
  8
3
 10
264.73818199999999
 20
81.158344999999997
 30
0.0
 40
0.1
 50
300.96375699999999
 51
59.036242999999999
  0
ARC
  5
4C0
  8
3
 10
265.71000700000002
 20
81.158344999999997
 30
0.0
 40
0.1
 50
120.963757
 51
239.03624300000001
  0
LINE
  5
4C1
  8
3
 10
267.67264499999999
 20
82.452546999999996
 30
0.0
 11
265.65855699999997
 21
81.24409399999999
 31
0.0
  0
LINE
  5
4C2
  8
3
 10
269.78963099999999
 20
81.24409399999999
 30
0.0
 11
267.77554400000002
 21
82.452546999999996
 31
0.0
  0
ARC
  5
4C3
  8
3
 10
269.73818199999999
 20
81.158344999999997
 30
0.0
 40
0.1
 50
300.96375699999999
 51
59.036242999999999
  0
ARC
  5
4C4
  8
3
 10
267.72409399999998
 20
82.366796999999991
 30
0.0
 40
0.1
 50
59.036242999999999
 51
120.963757
  0
ARC
  5
4C5
  8
3
 10
242.72409400000001
 20
79.366796999999991
 30
0.0
 40
0.1
 50
59.036242999999999
 51
90.0
  0
LINE
  5
4C6
  8
3
 10
244.78963100000001
 20
78.24409399999999
 30
0.0
 11
242.775544
 21
79.452546999999996
 31
0.0
  0
ARC
  5
4C7
  8
3
 10
255.71000699999999
 20
78.158344999999997
 30
0.0
 40
0.1
 50
120.963757
 51
239.03624300000001
  0
LINE
  5
4C8
  8
3
 10
254.78963100000001
 20
78.07259599999999
 30
0.0
 11
252.775544
 21
76.864142999999999
 31
0.0
  0
LINE
  5
4C9
  8
3
 10
252.67264499999999
 20
76.864142999999999
 30
0.0
 11
250.658557
 21
78.07259599999999
 31
0.0
  0
ARC
  5
4CA
  8
3
 10
250.71000699999999
 20
78.158344999999997
 30
0.0
 40
0.1
 50
120.963757
 51
239.03624300000001
  0
ARC
  5
4CB
  8
3
 10
252.72409400000001
 20
76.949893000000003
 30
0.0
 40
0.1
 50
239.03624300000001
 51
300.96375699999999
  0
ARC
  5
4CC
  8
3
 10
254.73818199999999
 20
78.158344999999997
 30
0.0
 40
0.1
 50
300.96375699999999
 51
59.036242999999999
  0
LINE
  5
4CD
  8
3
 10
249.78963100000001
 20
78.07259599999999
 30
0.0
 11
247.775544
 21
76.864142999999999
 31
0.0
  0
LINE
  5
4CE
  8
3
 10
247.67264499999999
 20
76.864142999999999
 30
0.0
 11
245.658557
 21
78.07259599999999
 31
0.0
  0
ARC
  5
4CF
  8
3
 10
245.71000699999999
 20
78.158344999999997
 30
0.0
 40
0.1
 50
120.963757
 51
239.03624300000001
  0
ARC
  5
4D0
  8
3
 10
247.72409400000001
 20
76.949893000000003
 30
0.0
 40
0.1
 50
239.03624300000001
 51
300.96375699999999
  0
ARC
  5
4D1
  8
3
 10
249.73818199999999
 20
78.158344999999997
 30
0.0
 40
0.1
 50
300.96375699999999
 51
59.036242999999999
  0
ARC
  5
4D2
  8
3
 10
244.73818199999999
 20
78.158344999999997
 30
0.0
 40
0.1
 50
300.96375699999999
 51
59.036242999999999
  0
ARC
  5
4D3
  8
3
 10
242.72409400000001
 20
76.949893000000003
 30
0.0
 40
0.1
 50
270.0
 51
300.96375699999999
  0
LINE
  5
4D4
  8
3
 10
244.78963100000001
 20
78.07259599999999
 30
0.0
 11
242.775544
 21
76.864142999999999
 31
0.0
  0
LINE
  5
4D5
  8
3
 10
247.67264499999999
 20
79.452546999999996
 30
0.0
 11
245.658557
 21
78.24409399999999
 31
0.0
  0
LINE
  5
4D6
  8
3
 10
249.78963100000001
 20
78.24409399999999
 30
0.0
 11
247.775544
 21
79.452546999999996
 31
0.0
  0
ARC
  5
4D7
  8
3
 10
247.72409400000001
 20
79.366796999999991
 30
0.0
 40
0.1
 50
59.036242999999999
 51
120.963757
  0
ARC
  5
4D8
  8
3
 10
252.72409400000001
 20
79.366796999999991
 30
0.0
 40
0.1
 50
59.036242999999999
 51
120.963757
  0
LINE
  5
4D9
  8
3
 10
252.67264499999999
 20
79.452546999999996
 30
0.0
 11
250.658557
 21
78.24409399999999
 31
0.0
  0
LINE
  5
4DA
  8
3
 10
254.78963100000001
 20
78.24409399999999
 30
0.0
 11
252.775544
 21
79.452546999999996
 31
0.0
  0
LINE
  5
4DB
  8
3
 10
269.78963099999999
 20
78.07259599999999
 30
0.0
 11
267.77554400000002
 21
76.864142999999999
 31
0.0
  0
LINE
  5
4DC
  8
3
 10
267.67264499999999
 20
76.864142999999999
 30
0.0
 11
265.65855699999997
 21
78.07259599999999
 31
0.0
  0
ARC
  5
4DD
  8
3
 10
267.72409399999998
 20
76.949893000000003
 30
0.0
 40
0.1
 50
239.03624300000001
 51
300.96375699999999
  0
LINE
  5
4DE
  8
3
 10
264.78963099999999
 20
78.07259599999999
 30
0.0
 11
262.77554400000002
 21
76.864142999999999
 31
0.0
  0
LINE
  5
4DF
  8
3
 10
262.67264499999999
 20
76.864142999999999
 30
0.0
 11
260.65855699999997
 21
78.07259599999999
 31
0.0
  0
ARC
  5
4E0
  8
3
 10
262.72409399999998
 20
76.949893000000003
 30
0.0
 40
0.1
 50
239.03624300000001
 51
300.96375699999999
  0
LINE
  5
4E1
  8
3
 10
259.78963099999999
 20
78.07259599999999
 30
0.0
 11
257.77554400000002
 21
76.864142999999999
 31
0.0
  0
LINE
  5
4E2
  8
3
 10
257.6726450000001
 20
76.864142999999999
 30
0.0
 11
255.658557
 21
78.07259599999999
 31
0.0
  0
ARC
  5
4E3
  8
3
 10
257.72409399999998
 20
76.949893000000003
 30
0.0
 40
0.1
 50
239.03624300000001
 51
300.96375699999999
  0
LINE
  5
4E4
  8
3
 10
257.6726450000001
 20
79.452546999999996
 30
0.0
 11
255.658557
 21
78.24409399999999
 31
0.0
  0
LINE
  5
4E5
  8
3
 10
259.78963099999999
 20
78.24409399999999
 30
0.0
 11
257.77554400000002
 21
79.452546999999996
 31
0.0
  0
ARC
  5
4E6
  8
3
 10
257.72409399999998
 20
79.366796999999991
 30
0.0
 40
0.1
 50
59.036242999999999
 51
120.963757
  0
ARC
  5
4E7
  8
3
 10
259.73818199999999
 20
78.158344999999997
 30
0.0
 40
0.1
 50
300.96375699999999
 51
59.036242999999999
  0
LINE
  5
4E8
  8
3
 10
264.78963099999999
 20
78.24409399999999
 30
0.0
 11
262.77554400000002
 21
79.452546999999996
 31
0.0
  0
LINE
  5
4E9
  8
3
 10
262.67264499999999
 20
79.452546999999996
 30
0.0
 11
260.65855699999997
 21
78.24409399999999
 31
0.0
  0
ARC
  5
4EA
  8
3
 10
260.71000699999991
 20
78.158344999999997
 30
0.0
 40
0.1
 50
120.963757
 51
239.03624300000001
  0
ARC
  5
4EB
  8
3
 10
262.72409399999998
 20
79.366796999999991
 30
0.0
 40
0.1
 50
59.036242999999999
 51
120.963757
  0
ARC
  5
4EC
  8
3
 10
264.73818199999999
 20
78.158344999999997
 30
0.0
 40
0.1
 50
300.96375699999999
 51
59.036242999999999
  0
ARC
  5
4ED
  8
3
 10
265.71000700000002
 20
78.158344999999997
 30
0.0
 40
0.1
 50
120.963757
 51
239.03624300000001
  0
LINE
  5
4EE
  8
3
 10
267.67264499999999
 20
79.452546999999996
 30
0.0
 11
265.65855699999997
 21
78.24409399999999
 31
0.0
  0
LINE
  5
4EF
  8
3
 10
269.78963099999999
 20
78.24409399999999
 30
0.0
 11
267.77554400000002
 21
79.452546999999996
 31
0.0
  0
ARC
  5
4F0
  8
3
 10
269.73818199999999
 20
78.158344999999997
 30
0.0
 40
0.1
 50
300.96375699999999
 51
59.036242999999999
  0
ARC
  5
4F1
  8
3
 10
267.72409399999998
 20
79.366796999999991
 30
0.0
 40
0.1
 50
59.036242999999999
 51
120.963757
  0
ARC
  5
4F2
  8
3
 10
242.72409400000001
 20
76.366796999999991
 30
0.0
 40
0.1
 50
59.036242999999999
 51
90.0
  0
LINE
  5
4F3
  8
3
 10
244.78963100000001
 20
75.24409399999999
 30
0.0
 11
242.775544
 21
76.452546999999996
 31
0.0
  0
ARC
  5
4F4
  8
3
 10
255.71000699999999
 20
75.158344999999997
 30
0.0
 40
0.1
 50
120.963757
 51
239.03624300000001
  0
LINE
  5
4F5
  8
3
 10
254.78963100000001
 20
75.07259599999999
 30
0.0
 11
252.775544
 21
73.864142999999999
 31
0.0
  0
LINE
  5
4F6
  8
3
 10
252.67264499999999
 20
73.864142999999999
 30
0.0
 11
250.658557
 21
75.07259599999999
 31
0.0
  0
ARC
  5
4F7
  8
3
 10
250.71000699999999
 20
75.158344999999997
 30
0.0
 40
0.1
 50
120.963757
 51
239.03624300000001
  0
ARC
  5
4F8
  8
3
 10
252.72409400000001
 20
73.949893000000003
 30
0.0
 40
0.1
 50
239.03624300000001
 51
300.96375699999999
  0
ARC
  5
4F9
  8
3
 10
254.73818199999999
 20
75.158344999999997
 30
0.0
 40
0.1
 50
300.96375699999999
 51
59.036242999999999
  0
LINE
  5
4FA
  8
3
 10
249.78963100000001
 20
75.07259599999999
 30
0.0
 11
247.775544
 21
73.864142999999999
 31
0.0
  0
LINE
  5
4FB
  8
3
 10
247.67264499999999
 20
73.864142999999999
 30
0.0
 11
245.658557
 21
75.07259599999999
 31
0.0
  0
ARC
  5
4FC
  8
3
 10
245.71000699999999
 20
75.158344999999997
 30
0.0
 40
0.1
 50
120.963757
 51
239.03624300000001
  0
ARC
  5
4FD
  8
3
 10
247.72409400000001
 20
73.949893000000003
 30
0.0
 40
0.1
 50
239.03624300000001
 51
300.96375699999999
  0
ARC
  5
4FE
  8
3
 10
249.73818199999999
 20
75.158344999999997
 30
0.0
 40
0.1
 50
300.96375699999999
 51
59.036242999999999
  0
ARC
  5
4FF
  8
3
 10
244.73818199999999
 20
75.158344999999997
 30
0.0
 40
0.1
 50
300.96375699999999
 51
59.036242999999999
  0
ARC
  5
500
  8
3
 10
242.72409400000001
 20
73.949893000000003
 30
0.0
 40
0.1
 50
270.0
 51
300.96375699999999
  0
LINE
  5
501
  8
3
 10
244.78963100000001
 20
75.07259599999999
 30
0.0
 11
242.775544
 21
73.864142999999999
 31
0.0
  0
LINE
  5
502
  8
3
 10
247.67264499999999
 20
76.452546999999996
 30
0.0
 11
245.658557
 21
75.24409399999999
 31
0.0
  0
LINE
  5
503
  8
3
 10
249.78963100000001
 20
75.24409399999999
 30
0.0
 11
247.775544
 21
76.452546999999996
 31
0.0
  0
ARC
  5
504
  8
3
 10
247.72409400000001
 20
76.366796999999991
 30
0.0
 40
0.1
 50
59.036242999999999
 51
120.963757
  0
ARC
  5
505
  8
3
 10
252.72409400000001
 20
76.366796999999991
 30
0.0
 40
0.1
 50
59.036242999999999
 51
120.963757
  0
LINE
  5
506
  8
3
 10
252.67264499999999
 20
76.452546999999996
 30
0.0
 11
250.658557
 21
75.24409399999999
 31
0.0
  0
LINE
  5
507
  8
3
 10
254.78963100000001
 20
75.24409399999999
 30
0.0
 11
252.775544
 21
76.452546999999996
 31
0.0
  0
LINE
  5
508
  8
3
 10
269.78963099999999
 20
75.07259599999999
 30
0.0
 11
267.77554400000002
 21
73.864142999999999
 31
0.0
  0
LINE
  5
509
  8
3
 10
267.67264499999999
 20
73.864142999999999
 30
0.0
 11
265.65855699999997
 21
75.07259599999999
 31
0.0
  0
ARC
  5
50A
  8
3
 10
267.72409399999998
 20
73.949893000000003
 30
0.0
 40
0.1
 50
239.03624300000001
 51
300.96375699999999
  0
LINE
  5
50B
  8
3
 10
264.78963099999999
 20
75.07259599999999
 30
0.0
 11
262.77554400000002
 21
73.864142999999999
 31
0.0
  0
LINE
  5
50C
  8
3
 10
262.67264499999999
 20
73.864142999999999
 30
0.0
 11
260.65855699999997
 21
75.07259599999999
 31
0.0
  0
ARC
  5
50D
  8
3
 10
262.72409399999998
 20
73.949893000000003
 30
0.0
 40
0.1
 50
239.03624300000001
 51
300.96375699999999
  0
LINE
  5
50E
  8
3
 10
259.78963099999999
 20
75.07259599999999
 30
0.0
 11
257.77554400000002
 21
73.864142999999999
 31
0.0
  0
LINE
  5
50F
  8
3
 10
257.6726450000001
 20
73.864142999999999
 30
0.0
 11
255.658557
 21
75.07259599999999
 31
0.0
  0
ARC
  5
510
  8
3
 10
257.72409399999998
 20
73.949893000000003
 30
0.0
 40
0.1
 50
239.03624300000001
 51
300.96375699999999
  0
LINE
  5
511
  8
3
 10
257.6726450000001
 20
76.452546999999996
 30
0.0
 11
255.658557
 21
75.24409399999999
 31
0.0
  0
LINE
  5
512
  8
3
 10
259.78963099999999
 20
75.24409399999999
 30
0.0
 11
257.77554400000002
 21
76.452546999999996
 31
0.0
  0
ARC
  5
513
  8
3
 10
257.72409399999998
 20
76.366796999999991
 30
0.0
 40
0.1
 50
59.036242999999999
 51
120.963757
  0
ARC
  5
514
  8
3
 10
259.73818199999999
 20
75.158344999999997
 30
0.0
 40
0.1
 50
300.96375699999999
 51
59.036242999999999
  0
LINE
  5
515
  8
3
 10
264.78963099999999
 20
75.24409399999999
 30
0.0
 11
262.77554400000002
 21
76.452546999999996
 31
0.0
  0
LINE
  5
516
  8
3
 10
262.67264499999999
 20
76.452546999999996
 30
0.0
 11
260.65855699999997
 21
75.24409399999999
 31
0.0
  0
ARC
  5
517
  8
3
 10
260.71000699999991
 20
75.158344999999997
 30
0.0
 40
0.1
 50
120.963757
 51
239.03624300000001
  0
ARC
  5
518
  8
3
 10
262.72409399999998
 20
76.366796999999991
 30
0.0
 40
0.1
 50
59.036242999999999
 51
120.963757
  0
ARC
  5
519
  8
3
 10
264.73818199999999
 20
75.158344999999997
 30
0.0
 40
0.1
 50
300.96375699999999
 51
59.036242999999999
  0
ARC
  5
51A
  8
3
 10
265.71000700000002
 20
75.158344999999997
 30
0.0
 40
0.1
 50
120.963757
 51
239.03624300000001
  0
LINE
  5
51B
  8
3
 10
267.67264499999999
 20
76.452546999999996
 30
0.0
 11
265.65855699999997
 21
75.24409399999999
 31
0.0
  0
LINE
  5
51C
  8
3
 10
269.78963099999999
 20
75.24409399999999
 30
0.0
 11
267.77554400000002
 21
76.452546999999996
 31
0.0
  0
ARC
  5
51D
  8
3
 10
269.73818199999999
 20
75.158344999999997
 30
0.0
 40
0.1
 50
300.96375699999999
 51
59.036242999999999
  0
ARC
  5
51E
  8
3
 10
267.72409399999998
 20
76.366796999999991
 30
0.0
 40
0.1
 50
59.036242999999999
 51
120.963757
  0
ARC
  5
51F
  8
3
 10
242.72409400000001
 20
73.366796999999991
 30
0.0
 40
0.1
 50
59.036242999999999
 51
90.0
  0
LINE
  5
520
  8
3
 10
244.09921299999999
 20
72.658344999999997
 30
0.0
 11
242.775544
 21
73.452546999999996
 31
0.0
  0
LINE
  5
521
  8
3
 10
247.67264499999999
 20
73.452546999999996
 30
0.0
 11
246.348975
 21
72.658344999999997
 31
0.0
  0
LINE
  5
522
  8
3
 10
249.09921299999999
 20
72.658344999999997
 30
0.0
 11
247.775544
 21
73.452546999999996
 31
0.0
  0
ARC
  5
523
  8
3
 10
247.72409400000001
 20
73.366796999999991
 30
0.0
 40
0.1
 50
59.036242999999999
 51
120.963757
  0
ARC
  5
524
  8
3
 10
252.72409400000001
 20
73.366796999999991
 30
0.0
 40
0.1
 50
59.036242999999999
 51
120.963757
  0
LINE
  5
525
  8
3
 10
252.67264499999999
 20
73.452546999999996
 30
0.0
 11
251.348975
 21
72.658344999999997
 31
0.0
  0
LINE
  5
526
  8
3
 10
254.09921299999999
 20
72.658344999999997
 30
0.0
 11
252.775544
 21
73.452546999999996
 31
0.0
  0
LINE
  5
527
  8
3
 10
257.6726450000001
 20
73.452546999999996
 30
0.0
 11
256.348975
 21
72.658344999999997
 31
0.0
  0
LINE
  5
528
  8
3
 10
259.09921300000002
 20
72.658344999999997
 30
0.0
 11
257.77554400000002
 21
73.452546999999996
 31
0.0
  0
ARC
  5
529
  8
3
 10
257.72409399999998
 20
73.366796999999991
 30
0.0
 40
0.1
 50
59.036242999999999
 51
120.963757
  0
LINE
  5
52A
  8
3
 10
264.09921300000002
 20
72.658344999999997
 30
0.0
 11
262.77554400000002
 21
73.452546999999996
 31
0.0
  0
LINE
  5
52B
  8
3
 10
262.67264499999999
 20
73.452546999999996
 30
0.0
 11
261.348975
 21
72.658344999999997
 31
0.0
  0
ARC
  5
52C
  8
3
 10
262.72409399999998
 20
73.366796999999991
 30
0.0
 40
0.1
 50
59.036242999999999
 51
120.963757
  0
LINE
  5
52D
  8
3
 10
267.67264499999999
 20
73.452546999999996
 30
0.0
 11
266.348975
 21
72.658344999999997
 31
0.0
  0
LINE
  5
52E
  8
3
 10
269.09921300000002
 20
72.658344999999997
 30
0.0
 11
267.77554400000002
 21
73.452546999999996
 31
0.0
  0
ARC
  5
52F
  8
3
 10
267.72409399999998
 20
73.366796999999991
 30
0.0
 40
0.1
 50
59.036242999999999
 51
120.963757
  0
ARC
  5
530
  8
3
 10
272.72409399999998
 20
79.366796999999991
 30
0.0
 40
0.1
 50
90.0
 51
120.963757
  0
LINE
  5
531
  8
3
 10
272.6726450000001
 20
79.452546999999996
 30
0.0
 11
270.65855699999997
 21
78.24409399999999
 31
0.0
  0
ARC
  5
532
  8
3
 10
272.72409399999998
 20
79.949893000000003
 30
0.0
 40
0.1
 50
239.03624300000001
 51
270.0
  0
LINE
  5
533
  8
3
 10
272.6726450000001
 20
79.864142999999984
 30
0.0
 11
270.65855699999997
 21
81.07259599999999
 31
0.0
  0
ARC
  5
534
  8
3
 10
272.72409399999998
 20
82.366796999999991
 30
0.0
 40
0.1
 50
90.0
 51
120.963757
  0
LINE
  5
535
  8
3
 10
272.6726450000001
 20
82.452546999999996
 30
0.0
 11
270.65855699999997
 21
81.24409399999999
 31
0.0
  0
ARC
  5
536
  8
3
 10
270.71000700000002
 20
81.158344999999997
 30
0.0
 40
0.1
 50
120.963757
 51
239.03624300000001
  0
ARC
  5
537
  8
3
 10
272.72409399999998
 20
76.949893000000003
 30
0.0
 40
0.1
 50
239.03624300000001
 51
270.0
  0
LINE
  5
538
  8
3
 10
272.6726450000001
 20
76.864142999999999
 30
0.0
 11
270.65855699999997
 21
78.07259599999999
 31
0.0
  0
ARC
  5
539
  8
3
 10
270.71000700000002
 20
78.158344999999997
 30
0.0
 40
0.1
 50
120.963757
 51
239.03624300000001
  0
LINE
  5
53A
  8
3
 10
272.6726450000001
 20
76.452546999999996
 30
0.0
 11
270.65855699999997
 21
75.24409399999999
 31
0.0
  0
ARC
  5
53B
  8
3
 10
272.72409399999998
 20
76.366796999999991
 30
0.0
 40
0.1
 50
90.0
 51
120.963757
  0
ARC
  5
53C
  8
3
 10
272.72409399999998
 20
73.949893000000003
 30
0.0
 40
0.1
 50
239.03624300000001
 51
270.0
  0
LINE
  5
53D
  8
3
 10
272.6726450000001
 20
73.864142999999999
 30
0.0
 11
270.65855699999997
 21
75.07259599999999
 31
0.0
  0
ARC
  5
53E
  8
3
 10
270.71000700000002
 20
75.158344999999997
 30
0.0
 40
0.1
 50
120.963757
 51
239.03624300000001
  0
ARC
  5
53F
  8
3
 10
272.72409399999998
 20
73.366796999999991
 30
0.0
 40
0.1
 50
90.0
 51
120.963757
  0
LINE
  5
540
  8
3
 10
272.6726450000001
 20
73.452546999999996
 30
0.0
 11
271.348975
 21
72.658344999999997
 31
0.0
  0
LINE
  5
541
  8
0
 10
276.42409400000003
 20
84.358345
 30
0.0
 11
276.22409399999998
 21
84.558344999999989
 31
0.0
  0
LINE
  5
542
  8
0
 10
276.42409400000003
 20
91.558344999999989
 30
0.0
 11
276.22409399999998
 21
91.358344999999986
 31
0.0
  0
ARC
  5
543
  8
0
 10
274.72409399999998
 20
82.995800000000003
 30
0.0
 40
1.5
 50
180.0
 51
0.0
  0
ARC
  5
544
  8
0
 10
274.72409399999998
 20
83.275619999999975
 30
0.0
 40
1.5
 50
180.0
 51
0.0
  0
ARC
  5
545
  8
0
 10
274.72409399999998
 20
83.692893999999995
 30
0.0
 40
1.5
 50
180.0
 51
0.0
  0
ARC
  5
546
  8
0
 10
274.72409399999998
 20
84.247624000000002
 30
0.0
 40
1.5
 50
180.0
 51
0.0
  0
ARC
  5
547
  8
0
 10
274.72409399999998
 20
85.037991000000005
 30
0.0
 40
1.5
 50
180.0
 51
0.0
  0
ARC
  5
548
  8
0
 10
274.72409399999998
 20
85.965812999999997
 30
0.0
 40
1.5
 50
180.0
 51
0.0
  0
ARC
  5
549
  8
0
 10
274.72409399999998
 20
86.986908999999997
 30
0.0
 40
1.5
 50
180.0
 51
0.0
  0
ARC
  5
54A
  8
0
 10
274.72409399999998
 20
83.182345999999995
 30
0.0
 40
1.5
 50
180.0
 51
0.0
  0
ARC
  5
54B
  8
0
 10
274.72409399999998
 20
83.506347999999988
 30
0.0
 40
1.5
 50
180.0
 51
0.0
  0
ARC
  5
54C
  8
0
 10
274.72409399999998
 20
83.830348999999998
 30
0.0
 40
1.5
 50
180.0
 51
0.0
  0
ARC
  5
54D
  8
0
 10
274.72409399999998
 20
84.571624999999997
 30
0.0
 40
1.5
 50
180.0
 51
0.0
  0
ARC
  5
54E
  8
0
 10
274.72409399999998
 20
85.499448000000001
 30
0.0
 40
1.5
 50
180.0
 51
0.0
  0
ARC
  5
54F
  8
0
 10
274.72409399999998
 20
86.579452999999987
 30
0.0
 40
1.5
 50
180.0
 51
0.0
  0
ARC
  5
550
  8
0
 10
274.72409399999998
 20
86.509156000000004
 30
0.0
 40
2.9258310000000001
 50
61.581410999999989
 51
118.418589
  0
ARC
  5
551
  8
0
 10
276.009094
 20
88.896171999999993
 30
0.0
 40
0.215
 50
241.71234799999999
 51
63.389071999999999
  0
ARC
  5
552
  8
0
 10
273.43909400000001
 20
88.896171999999993
 30
0.0
 40
0.215
 50
116.610928
 51
298.28765199999998
  0
ARC
  5
553
  8
0
 10
274.72409399999998
 20
86.508435999999989
 30
0.0
 40
2.4965509999999989
 50
61.712347999999999
 51
118.28765199999999
  0
ARC
  5
554
  8
0
 10
274.72409399999998
 20
89.408253999999985
 30
0.0
 40
2.4965509999999989
 50
241.71234799999999
 51
298.28765199999998
  0
ARC
  5
555
  8
0
 10
273.43909400000001
 20
87.02051800000001
 30
0.0
 40
0.215
 50
61.712347999999999
 51
243.389072
  0
ARC
  5
556
  8
0
 10
276.009094
 20
87.02051800000001
 30
0.0
 40
0.215
 50
296.610928
 51
118.28765199999999
  0
ARC
  5
557
  8
0
 10
274.72409399999998
 20
89.407533999999998
 30
0.0
 40
2.9258310000000001
 50
241.581411
 51
298.418589
  0
ARC
  5
558
  8
0
 10
273.43909400000001
 20
87.958344999999994
 30
0.0
 40
0.215
 50
90.0
 51
270.0
  0
ARC
  5
559
  8
0
 10
276.009094
 20
87.958344999999994
 30
0.0
 40
0.215
 50
270.0
 51
90.0
  0
LINE
  5
55A
  8
0
 10
276.009094
 20
87.743345000000005
 30
0.0
 11
273.43909400000001
 21
87.743345000000005
 31
0.0
  0
LINE
  5
55B
  8
0
 10
276.009094
 20
88.173344999999983
 30
0.0
 11
273.43909400000001
 21
88.173344999999983
 31
0.0
  0
ARC
  5
55C
  8
0
 10
274.72409399999998
 20
89.337237999999999
 30
0.0
 40
1.5
 50
0.0
 51
180.0
  0
ARC
  5
55D
  8
0
 10
274.72409399999998
 20
90.417242000000002
 30
0.0
 40
1.5
 50
0.0
 51
180.0
  0
ARC
  5
55E
  8
0
 10
274.72409399999998
 20
91.345065000000005
 30
0.0
 40
1.5
 50
0.0
 51
180.0
  0
ARC
  5
55F
  8
0
 10
274.72409399999998
 20
92.086341000000004
 30
0.0
 40
1.5
 50
0.0
 51
180.0
  0
ARC
  5
560
  8
0
 10
274.72409399999998
 20
92.410341999999986
 30
0.0
 40
1.5
 50
0.0
 51
180.0
  0
ARC
  5
561
  8
0
 10
274.72409399999998
 20
92.734343999999993
 30
0.0
 40
1.5
 50
0.0
 51
180.0
  0
ARC
  5
562
  8
0
 10
274.72409399999998
 20
88.929781000000006
 30
0.0
 40
1.5
 50
0.0
 51
180.0
  0
ARC
  5
563
  8
0
 10
274.72409399999998
 20
89.950877000000006
 30
0.0
 40
1.5
 50
0.0
 51
180.0
  0
ARC
  5
564
  8
0
 10
274.72409399999998
 20
90.878698999999983
 30
0.0
 40
1.5
 50
0.0
 51
180.0
  0
ARC
  5
565
  8
0
 10
274.72409399999998
 20
91.669066000000001
 30
0.0
 40
1.5
 50
0.0
 51
180.0
  0
ARC
  5
566
  8
0
 10
274.72409399999998
 20
92.223795999999993
 30
0.0
 40
1.5
 50
0.0
 51
180.0
  0
ARC
  5
567
  8
0
 10
274.72409399999998
 20
92.641069999999999
 30
0.0
 40
1.5
 50
0.0
 51
180.0
  0
ARC
  5
568
  8
0
 10
274.72409399999998
 20
92.92089
 30
0.0
 40
1.5
 50
0.0
 51
180.0
  0
LINE
  5
569
  8
0
 10
278.22409399999998
 20
85.358344999999986
 30
0.0
 11
277.22409399999998
 21
84.358345
 31
0.0
  0
LINE
  5
56A
  8
0
 10
278.22409399999998
 20
90.558344999999989
 30
0.0
 11
277.22409399999998
 21
91.558344999999989
 31
0.0
  0
LINE
  5
56B
  8
0
 10
277.22409399999998
 20
84.358345
 30
0.0
 11
277.22409399999998
 21
91.558344999999989
 31
0.0
  0
ARC
  5
56C
  8
0
 10
274.78571799999997
 20
93.858344999999986
 30
0.0
 40
1.0
 50
34.071453000000012
 51
90.0
  0
ARC
  5
56D
  8
0
 10
275.05117300000001
 20
94.358345
 30
0.0
 40
1.0
 50
34.071453000000012
 51
90.0
  0
ARC
  5
56E
  8
0
 10
273.22409399999998
 20
94.858345000000014
 30
0.0
 40
0.5
 50
90.0
 51
180.0
  0
ARC
  5
56F
  8
0
 10
273.72409399999998
 20
94.358345
 30
0.0
 40
0.5
 50
90.0
 51
180.0
  0
LINE
  5
570
  8
0
 10
275.992952
 20
93.858344999999986
 30
0.0
 11
276.46130399999998
 21
94.058344999999989
 31
0.0
  0
LINE
  5
571
  8
0
 10
276.46130399999998
 20
94.058344999999989
 30
0.0
 11
275.87951199999998
 21
94.918571
 31
0.0
  0
LINE
  5
572
  8
0
 10
275.992952
 20
93.858344999999986
 30
0.0
 11
275.614057
 21
94.418571
 31
0.0
  0
LINE
  5
573
  8
0
 10
274.78571799999997
 20
94.858345000000014
 30
0.0
 11
273.72409399999998
 21
94.858345000000014
 31
0.0
  0
LINE
  5
574
  8
0
 10
275.05117300000001
 20
95.358344999999986
 30
0.0
 11
273.22409399999998
 21
95.358344999999986
 31
0.0
  0
ARC
  5
575
  8
0
 10
274.72409399999998
 20
93.058344999999989
 30
0.0
 40
1.5
 50
0.0
 51
180.0
  0
LINE
  5
576
  8
0
 10
274.036181
 20
79.284618999999992
 30
0.0
 11
276.046312
 21
81.358344999999986
 31
0.0
  0
LINE
  5
577
  8
0
 10
273.536181
 20
79.499616000000003
 30
0.0
 11
275.70235600000001
 21
81.721241000000006
 31
0.0
  0
ARC
  5
578
  8
0
 10
274.72409399999998
 20
82.858344999999986
 30
0.0
 40
1.5
 50
180.0
 51
0.0
  0
LINE
  5
579
  8
0
 10
276.22409399999998
 20
82.858344999999986
 30
0.0
 11
276.22409399999998
 21
93.058344999999989
 31
0.0
  0
LINE
  5
57A
  8
0
 10
277.22409399999998
 20
91.558344999999989
 30
0.0
 11
276.42409400000003
 21
91.558344999999989
 31
0.0
  0
LINE
  5
57B
  8
0
 10
277.22409399999998
 20
84.358345
 30
0.0
 11
276.42409400000003
 21
84.358345
 31
0.0
  0
LINE
  5
57C
  8
0
 10
276.046312
 20
81.358344999999986
 30
0.0
 11
275.70235600000001
 21
81.721241000000006
 31
0.0
  0
ARC
  5
57D
  8
0
 10
274.22409399999998
 20
77.498979000000006
 30
0.0
 40
0.5
 50
180.0
 51
200.93474399999999
  0
ARC
  5
57E
  8
0
 10
273.73208399999999
 20
76.825974000000002
 30
0.0
 40
0.2
 50
353.80547300000001
 51
20.934743999999998
  0
ARC
  5
57F
  8
0
 10
273.22409399999998
 20
76.858345
 30
0.0
 40
0.5
 50
180.0
 51
270.0
  0
ARC
  5
580
  8
0
 10
273.43383499999999
 20
76.858345
 30
0.0
 40
0.5
 50
270.0
 51
353.80547300000001
  0
LINE
  5
581
  8
0
 10
273.75709999999998
 20
77.320327000000006
 30
0.0
 11
273.918881
 21
76.897435000000002
 31
0.0
  0
LINE
  5
582
  8
0
 10
273.22409399999998
 20
77.314228999999997
 30
0.0
 11
273.11200700000001
 21
77.021235000000004
 31
0.0
  0
LINE
  5
583
  8
0
 10
273.22409399999998
 20
77.314228999999997
 30
0.0
 11
273.33618200000001
 21
77.021235000000004
 31
0.0
  0
ARC
  5
584
  8
0
 10
273.22409399999998
 20
76.978354999999993
 30
0.0
 40
0.12001
 50
159.06525600000001
 51
20.934743999999998
  0
LINE
  5
585
  8
0
 10
273.43383499999999
 20
76.358345
 30
0.0
 11
273.22409399999998
 21
76.358345
 31
0.0
  0
ARC
  5
586
  8
0
 10
274.72409399999998
 20
78.558827000000008
 30
0.0
 40
1.0
 50
133.46516500000001
 51
180.0
  0
ARC
  5
587
  8
0
 10
274.22409399999998
 20
78.773824000000005
 30
0.0
 40
1.0
 50
133.46516500000001
 51
180.0
  0
LINE
  5
588
  8
0
 10
273.72409399999998
 20
78.558827000000008
 30
0.0
 11
273.72409399999998
 21
77.498979000000006
 31
0.0
  0
LINE
  5
589
  8
0
 10
273.22409399999998
 20
94.358345
 30
0.0
 11
273.22409399999998
 21
77.314228999999997
 31
0.0
  0
LINE
  5
58A
  8
0
 10
278.22409399999998
 20
85.358344999999986
 30
0.0
 11
278.22409399999998
 21
90.558344999999989
 31
0.0
  0
LINE
  5
58B
  8
0
 10
242.72409400000001
 20
66.658344999999997
 30
0.0
 11
272.72409399999998
 21
66.658344999999997
 31
0.0
  0
LINE
  5
58C
  8
0
 10
242.72409400000001
 20
68.158344999999997
 30
0.0
 11
254.22409400000001
 21
68.158344999999997
 31
0.0
  0
LINE
  5
58D
  8
0
 10
255.72409400000001
 20
69.158344999999997
 30
0.0
 11
259.72409399999998
 21
69.158344999999997
 31
0.0
  0
LINE
  5
58E
  8
0
 10
261.22409399999998
 20
66.658344999999997
 30
0.0
 11
261.22409399999998
 21
68.158344999999997
 31
0.0
  0
LINE
  5
58F
  8
0
 10
254.22409400000001
 20
66.658344999999997
 30
0.0
 11
254.22409400000001
 21
68.158344999999997
 31
0.0
  0
LINE
  5
590
  8
0
 10
259.72409399999998
 20
69.158344999999997
 30
0.0
 11
259.72409399999998
 21
72.658344999999997
 31
0.0
  0
LINE
  5
591
  8
0
 10
255.72409400000001
 20
69.158344999999997
 30
0.0
 11
255.72409400000001
 21
72.658344999999997
 31
0.0
  0
LINE
  5
592
  8
0
 10
255.72409400000001
 20
69.158344999999997
 30
0.0
 11
254.22409400000001
 21
68.158344999999997
 31
0.0
  0
LINE
  5
593
  8
0
 10
259.72409399999998
 20
69.158344999999997
 30
0.0
 11
261.22409399999998
 21
68.158344999999997
 31
0.0
  0
LINE
  5
594
  8
0
 10
261.22409399999998
 20
68.158344999999997
 30
0.0
 11
272.72409399999998
 21
68.158344999999997
 31
0.0
  0
LINE
  5
595
  8
0
 10
144.65218100000001
 20
92.519545999999991
 30
0.0
 11
145.4204
 21
93.958344999999994
 31
0.0
  0
LINE
  5
596
  8
0
 10
144.69098799999989
 20
91.672877000000014
 30
0.0
 11
145.40382700000001
 21
93.007953999999998
 31
0.0
  0
LINE
  5
597
  8
0
 10
145.83622099999999
 20
92.642776999999995
 30
0.0
 11
146.53864400000001
 21
93.958344999999994
 31
0.0
  0
LINE
  5
598
  8
0
 10
145.80923100000001
 20
91.672877000000014
 30
0.0
 11
146.757578
 21
93.449038000000002
 31
0.0
  0
LINE
  5
599
  8
0
 10
147.136461
 20
92.811419999999998
 30
0.0
 11
147.74884
 21
93.958344999999994
 31
0.0
  0
LINE
  5
59A
  8
0
 10
147.01942700000001
 20
91.672877000000014
 30
0.0
 11
147.92156800000001
 21
93.362496999999991
 31
0.0
  0
LINE
  5
59B
  8
0
 10
145.40543700000001
 20
93.958344999999994
 30
0.0
 11
145.40173799999999
 21
91.775217999999995
 31
0.0
  0
LINE
  5
59C
  8
0
 10
145.83844999999999
 20
93.958344999999994
 30
0.0
 11
145.83475000000001
 21
91.774484000000015
 31
0.0
  0
ARC
  5
59D
  8
0
 10
145.618244
 20
91.774850999999998
 30
0.0
 40
0.216506
 50
179.90290300000001
 51
359.90290299999998
  0
ARC
  5
59E
  8
0
 10
146.828439
 20
91.774850999999998
 30
0.0
 40
0.216506
 50
175.0
 51
355.0
  0
LINE
  5
59F
  8
0
 10
147.23680400000001
 20
93.958344999999994
 30
0.0
 11
147.04412199999999
 21
91.755981999999989
 31
0.0
  0
LINE
  5
5A0
  8
0
 10
146.80213699999999
 20
93.958344999999994
 30
0.0
 11
146.61275699999999
 21
91.793721000000005
 31
0.0
  0
ARC
  5
5A1
  8
0
 10
148.0
 20
91.774850999999998
 30
0.0
 40
0.216506
 50
175.0
 51
355.0
  0
LINE
  5
5A2
  8
0
 10
148.40836399999989
 20
93.958344999999994
 30
0.0
 11
148.21568199999999
 21
91.755981999999989
 31
0.0
  0
LINE
  5
5A3
  8
0
 10
147.97369800000001
 20
93.958344999999994
 30
0.0
 11
147.7843179999999
 21
91.793721000000005
 31
0.0
  0
LINE
  5
5A4
  8
0
 10
137.02630199999999
 20
93.958344999999994
 30
0.0
 11
137.21568199999999
 21
91.793721000000005
 31
0.0
  0
LINE
  5
5A5
  8
0
 10
146.669546
 20
81.558344999999989
 30
0.0
 11
146.78349399999999
 21
81.990849999999995
 31
0.0
  0
LINE
  5
5A6
  8
0
 10
145.993244
 20
81.558344999999989
 30
0.0
 11
146.23349400000001
 21
82.470241999999999
 31
0.0
  0
ARC
  5
5A7
  8
0
 10
146.44999999999999
 20
84.141839000000004
 30
0.0
 40
0.216506
 50
0.0
 51
180.0
  0
LINE
  5
5A8
  8
0
 10
146.23349400000001
 20
81.558344999999989
 30
0.0
 11
146.23349400000001
 21
84.141839000000004
 31
0.0
  0
LINE
  5
5A9
  8
0
 10
146.666506
 20
81.558344999999989
 30
0.0
 11
146.666506
 21
84.141839000000004
 31
0.0
  0
LINE
  5
5AA
  8
0
 10
145.809012
 20
84.243813000000003
 30
0.0
 11
144.51406900000001
 21
81.818511000000015
 31
0.0
  0
LINE
  5
5AB
  8
0
 10
145.691979
 20
83.105269999999976
 30
0.0
 11
144.866027
 21
81.558344999999989
 31
0.0
  0
ARC
  5
5AC
  8
0
 10
146.0
 20
84.141839000000004
 30
0.0
 40
0.216506
 50
355.0
 51
175.0
  0
LINE
  5
5AD
  8
0
 10
145.55663999999999
 20
81.558344999999989
 30
0.0
 11
145.78431800000001
 21
84.160707999999985
 31
0.0
  0
LINE
  5
5AE
  8
0
 10
145.99130700000001
 20
81.558344999999989
 30
0.0
 11
146.21568199999999
 21
84.122968999999983
 31
0.0
  0
LINE
  5
5AF
  8
0
 10
146.78349399999999
 20
81.558344999999989
 30
0.0
 11
146.78349399999999
 21
84.141839000000004
 31
0.0
  0
LINE
  5
5B0
  8
0
 10
144.49130700000001
 20
81.558344999999989
 30
0.0
 11
144.71568199999999
 21
84.122968999999983
 31
0.0
  0
LINE
  5
5B1
  8
0
 10
144.09163599999999
 20
93.958344999999994
 30
0.0
 11
144.28431800000001
 21
91.755981999999989
 31
0.0
  0
ARC
  5
5B2
  8
0
 10
144.5
 20
84.141839000000004
 30
0.0
 40
0.216506
 50
355.0
 51
175.0
  0
LINE
  5
5B3
  8
0
 10
144.191979
 20
92.811419999999998
 30
0.0
 11
143.5796
 21
93.958344999999994
 31
0.0
  0
LINE
  5
5B4
  8
0
 10
144.309012
 20
91.672877000000014
 30
0.0
 11
143.08873
 21
93.958344999999994
 31
0.0
  0
LINE
  5
5B5
  8
0
 10
142.59163599999999
 20
93.958344999999994
 30
0.0
 11
142.7843179999999
 21
91.755981999999989
 31
0.0
  0
LINE
  5
5B6
  8
0
 10
142.691979
 20
92.811419999999998
 30
0.0
 11
142.0796
 21
93.958344999999994
 31
0.0
  0
LINE
  5
5B7
  8
0
 10
142.809012
 20
91.672877000000014
 30
0.0
 11
141.58873
 21
93.958344999999994
 31
0.0
  0
ARC
  5
5B8
  8
0
 10
143.0
 20
91.774850999999998
 30
0.0
 40
0.216506
 50
185.0
 51
5.0
  0
LINE
  5
5B9
  8
0
 10
143.02630199999999
 20
93.958344999999994
 30
0.0
 11
143.21568199999999
 21
91.793721000000005
 31
0.0
  0
LINE
  5
5BA
  8
0
 10
141.09163599999999
 20
93.958344999999994
 30
0.0
 11
141.28431800000001
 21
91.755981999999989
 31
0.0
  0
LINE
  5
5BB
  8
0
 10
141.191979
 20
92.811419999999998
 30
0.0
 11
140.5796
 21
93.958344999999994
 31
0.0
  0
LINE
  5
5BC
  8
0
 10
141.309012
 20
91.672877000000014
 30
0.0
 11
140.08873
 21
93.958344999999994
 31
0.0
  0
ARC
  5
5BD
  8
0
 10
141.5
 20
91.774850999999998
 30
0.0
 40
0.216506
 50
185.0
 51
5.0
  0
LINE
  5
5BE
  8
0
 10
141.52630199999999
 20
93.958344999999994
 30
0.0
 11
141.71568199999999
 21
91.793721000000005
 31
0.0
  0
LINE
  5
5BF
  8
0
 10
139.59163599999999
 20
93.958344999999994
 30
0.0
 11
139.78431800000001
 21
91.755981999999989
 31
0.0
  0
LINE
  5
5C0
  8
0
 10
139.691979
 20
92.811419999999998
 30
0.0
 11
139.0796
 21
93.958344999999994
 31
0.0
  0
LINE
  5
5C1
  8
0
 10
139.809012
 20
91.672877000000014
 30
0.0
 11
138.58873
 21
93.958344999999994
 31
0.0
  0
ARC
  5
5C2
  8
0
 10
140.0
 20
91.774850999999998
 30
0.0
 40
0.216506
 50
185.0
 51
5.0
  0
LINE
  5
5C3
  8
0
 10
140.02630199999999
 20
93.958344999999994
 30
0.0
 11
140.21568199999999
 21
91.793721000000005
 31
0.0
  0
LINE
  5
5C4
  8
0
 10
138.52630199999999
 20
93.958344999999994
 30
0.0
 11
138.71568199999999
 21
91.793721000000005
 31
0.0
  0
LINE
  5
5C5
  8
0
 10
138.09163599999999
 20
93.958344999999994
 30
0.0
 11
138.28431800000001
 21
91.755981999999989
 31
0.0
  0
ARC
  5
5C6
  8
0
 10
138.5
 20
91.774850999999998
 30
0.0
 40
0.216506
 50
185.0
 51
5.0
  0
LINE
  5
5C7
  8
0
 10
138.191979
 20
92.811419999999998
 30
0.0
 11
137.5796
 21
93.958344999999994
 31
0.0
  0
LINE
  5
5C8
  8
0
 10
138.309012
 20
91.672877000000014
 30
0.0
 11
137.08873
 21
93.958344999999994
 31
0.0
  0
ARC
  5
5C9
  8
0
 10
137.0
 20
91.774850999999998
 30
0.0
 40
0.216506
 50
185.0
 51
5.0
  0
LINE
  5
5CA
  8
0
 10
136.56538900000001
 20
94.258344999999977
 30
0.0
 11
136.78431800000001
 21
91.755981999999989
 31
0.0
  0
ARC
  5
5CB
  8
0
 10
135.5
 20
91.774850999999998
 30
0.0
 40
0.216506
 50
185.0
 51
212.555736
  0
LINE
  5
5CC
  8
0
 10
135.500056
 20
94.258344999999977
 30
0.0
 11
135.71568199999999
 21
91.793721000000005
 31
0.0
  0
LINE
  5
5CD
  8
0
 10
135.06538900000001
 20
94.258344999999977
 30
0.0
 11
135.28431800000001
 21
91.755981999999989
 31
0.0
  0
ARC
  5
5CE
  8
0
 10
134.0
 20
91.774850999999998
 30
0.0
 40
0.216506
 50
185.0
 51
212.555736
  0
LINE
  5
5CF
  8
0
 10
134.000056
 20
94.258344999999977
 30
0.0
 11
134.21568199999999
 21
91.793721000000005
 31
0.0
  0
LINE
  5
5D0
  8
0
 10
133.56538900000001
 20
94.258344999999977
 30
0.0
 11
133.78431800000001
 21
91.755981999999989
 31
0.0
  0
ARC
  5
5D1
  8
0
 10
127.715
 20
87.958344999999994
 30
0.0
 40
0.215
 50
90.0
 51
270.0
  0
LINE
  5
5D2
  8
0
 10
129.40642600000001
 20
87.743345000000005
 30
0.0
 11
127.715
 21
87.743345000000005
 31
0.0
  0
LINE
  5
5D3
  8
0
 10
129.40642600000001
 20
88.173344999999983
 30
0.0
 11
127.715
 21
88.173344999999983
 31
0.0
  0
LINE
  5
5D4
  8
0
 10
129.70541
 20
89.642291
 30
0.0
 11
128.09846099999999
 21
90.164419999999993
 31
0.0
  0
LINE
  5
5D5
  8
0
 10
129.53153499999999
 20
89.246657999999996
 30
0.0
 11
127.965583
 21
89.755465999999984
 31
0.0
  0
ARC
  5
5D6
  8
0
 10
128.03202200000001
 20
89.95994300000001
 30
0.0
 40
0.215
 50
72.0
 51
252.0
  0
LINE
  5
5D7
  8
0
 10
130.63808800000001
 20
90.806392000000002
 30
0.0
 11
129.07843
 21
91.939549999999997
 31
0.0
  0
LINE
  5
5D8
  8
0
 10
130.31811099999999
 20
90.507358999999994
 30
0.0
 11
128.825682
 21
91.591672000000003
 31
0.0
  0
ARC
  5
5D9
  8
0
 10
128.952056
 20
91.765610999999979
 30
0.0
 40
0.215
 50
54.0
 51
234.0
  0
LINE
  5
5DA
  8
0
 10
131.89299299999999
 20
91.488860000000003
 30
0.0
 11
130.55897999999999
 21
93.324970999999991
 31
0.0
  0
LINE
  5
5DB
  8
0
 10
131.476731
 20
91.330235999999985
 30
0.0
 11
130.21110300000001
 21
93.072222999999994
 31
0.0
  0
ARC
  5
5DC
  8
0
 10
130.385042
 20
93.198597000000007
 30
0.0
 40
0.215
 50
36.0
 51
216.0
  0
LINE
  5
5DD
  8
0
 10
132.99867699999999
 20
91.716549999999984
 30
0.0
 11
132.23540499999999
 21
94.065659999999994
 31
0.0
  0
LINE
  5
5DE
  8
0
 10
132.58972299999999
 20
91.583673000000005
 30
0.0
 11
131.82645099999999
 21
93.932783000000001
 31
0.0
  0
ARC
  5
5DF
  8
0
 10
132.03092799999999
 20
93.999220999999991
 30
0.0
 40
0.215
 50
18.0
 51
198.0
  0
ARC
  5
5E0
  8
0
 10
133.78437299999999
 20
94.239474999999999
 30
0.0
 40
0.216506
 50
5.0
 51
185.0
  0
ARC
  5
5E1
  8
0
 10
135.28437299999999
 20
94.239474999999999
 30
0.0
 40
0.216506
 50
5.0
 51
185.0
  0
ARC
  5
5E2
  8
0
 10
136.78437299999999
 20
94.239474999999999
 30
0.0
 40
0.216506
 50
85.855304000000004
 51
185.0
  0
LINE
  5
5E3
  8
0
 10
136.713504
 20
92.565387000000001
 30
0.0
 11
135.46206699999999
 21
94.363168000000002
 31
0.0
  0
LINE
  5
5E4
  8
0
 10
136.822306
 20
91.651158999999993
 30
0.0
 11
135.57087000000001
 21
93.448938999999996
 31
0.0
  0
LINE
  5
5E5
  8
0
 10
135.322306
 20
91.651158999999993
 30
0.0
 11
134.07087000000001
 21
93.448938999999996
 31
0.0
  0
LINE
  5
5E6
  8
0
 10
135.213504
 20
92.565387000000001
 30
0.0
 11
133.96206699999999
 21
94.363168000000002
 31
0.0
  0
LINE
  5
5E7
  8
0
 10
133.813985
 20
91.658344999999997
 30
0.0
 11
132.55576300000001
 21
93.079701
 31
0.0
  0
LINE
  5
5E8
  8
0
 10
133.7271199999999
 20
92.409750000000003
 30
0.0
 11
132.19304099999999
 21
94.142728000000005
 31
0.0
  0
LINE
  5
5E9
  8
0
 10
132.445887
 20
91.616618000000003
 30
0.0
 11
131.23444799999999
 21
92.395269999999996
 31
0.0
  0
LINE
  5
5EA
  8
0
 10
132.402762
 20
92.159080000000003
 30
0.0
 11
130.502105
 21
93.380725999999996
 31
0.0
  0
LINE
  5
5EB
  8
0
 10
131.08851299999989
 20
91.126343999999989
 30
0.0
 11
129.86873
 21
91.365363000000016
 31
0.0
  0
LINE
  5
5EC
  8
0
 10
131.34010000000001
 20
91.518291999999988
 30
0.0
 11
128.99368899999999
 21
91.978076999999999
 31
0.0
  0
LINE
  5
5ED
  8
0
 10
129.89302000000001
 20
89.967493000000005
 30
0.0
 11
129.027514
 21
89.862551999999994
 31
0.0
  0
LINE
  5
5EE
  8
0
 10
130.26345599999999
 20
90.448592000000005
 30
0.0
 11
128.00596200000001
 21
90.174874999999986
 31
0.0
  0
LINE
  5
5EF
  8
0
 10
129.335894
 20
88.472474000000005
 30
0.0
 11
128.69186500000001
 21
88.173344999999983
 31
0.0
  0
LINE
  5
5F0
  8
0
 10
129.450591
 20
89.003186999999997
 30
0.0
 11
127.62379799999999
 21
88.154705000000007
 31
0.0
  0
ARC
  5
5F1
  8
0
 10
132.79419999999999
 20
91.650111999999993
 30
0.0
 40
0.215
 50
2.1946560000000002
 51
18.0
  0
ARC
  5
5F2
  8
0
 10
132.79419999999999
 20
84.266577999999996
 30
0.0
 40
0.215
 50
342.0
 51
357.80534399999999
  0
LINE
  5
5F3
  8
0
 10
129.450591
 20
86.913503000000006
 30
0.0
 11
127.62379799999999
 21
87.761984999999996
 31
0.0
  0
LINE
  5
5F4
  8
0
 10
129.335894
 20
87.444215999999997
 30
0.0
 11
128.69186500000001
 21
87.743345000000005
 31
0.0
  0
LINE
  5
5F5
  8
0
 10
130.26345599999999
 20
85.468097999999998
 30
0.0
 11
128.00596200000001
 21
85.741814999999988
 31
0.0
  0
LINE
  5
5F6
  8
0
 10
129.89302000000001
 20
85.949196999999998
 30
0.0
 11
129.027514
 21
86.054137999999995
 31
0.0
  0
LINE
  5
5F7
  8
0
 10
131.34010000000001
 20
84.398397999999986
 30
0.0
 11
128.99368899999999
 21
83.938613000000004
 31
0.0
  0
LINE
  5
5F8
  8
0
 10
131.08851299999989
 20
84.790346
 30
0.0
 11
129.86873
 21
84.551327000000001
 31
0.0
  0
LINE
  5
5F9
  8
0
 10
132.402762
 20
83.75761
 30
0.0
 11
130.502105
 21
82.535964000000007
 31
0.0
  0
LINE
  5
5FA
  8
0
 10
132.445887
 20
84.300072
 30
0.0
 11
131.23444799999999
 21
83.521419999999978
 31
0.0
  0
LINE
  5
5FB
  8
0
 10
133.7271199999999
 20
83.50694
 30
0.0
 11
132.19304099999999
 21
81.773961999999997
 31
0.0
  0
LINE
  5
5FC
  8
0
 10
133.813985
 20
84.258344999999977
 30
0.0
 11
132.55576300000001
 21
82.836989000000003
 31
0.0
  0
LINE
  5
5FD
  8
0
 10
135.213504
 20
83.351303000000016
 30
0.0
 11
133.96206699999999
 21
81.553522000000015
 31
0.0
  0
LINE
  5
5FE
  8
0
 10
135.322306
 20
84.26553100000001
 30
0.0
 11
134.07087000000001
 21
82.467751000000007
 31
0.0
  0
LINE
  5
5FF
  8
0
 10
136.822306
 20
84.26553100000001
 30
0.0
 11
135.57087000000001
 21
82.467751000000007
 31
0.0
  0
LINE
  5
600
  8
0
 10
136.713504
 20
83.351303000000016
 30
0.0
 11
135.46206699999999
 21
81.553522000000015
 31
0.0
  0
ARC
  5
601
  8
0
 10
136.78437299999999
 20
81.677215000000004
 30
0.0
 40
0.216506
 50
175.0
 51
282.53488399999998
  0
ARC
  5
602
  8
0
 10
135.28437299999999
 20
81.677215000000004
 30
0.0
 40
0.216506
 50
175.0
 51
355.0
  0
ARC
  5
603
  8
0
 10
133.78437299999999
 20
81.677215000000004
 30
0.0
 40
0.216506
 50
175.0
 51
355.0
  0
ARC
  5
604
  8
0
 10
132.03092799999999
 20
81.917468999999997
 30
0.0
 40
0.215
 50
162.0
 51
342.0
  0
LINE
  5
605
  8
0
 10
132.573475
 20
84.283011000000002
 30
0.0
 11
131.82645099999999
 21
81.983906999999988
 31
0.0
  0
LINE
  5
606
  8
0
 10
132.99867699999999
 20
84.200140000000005
 30
0.0
 11
132.23540499999999
 21
81.851030000000009
 31
0.0
  0
ARC
  5
607
  8
0
 10
130.385042
 20
82.71809300000001
 30
0.0
 40
0.215
 50
144.0
 51
324.0
  0
LINE
  5
608
  8
0
 10
131.476731
 20
84.586453999999989
 30
0.0
 11
130.21110300000001
 21
82.844467000000009
 31
0.0
  0
LINE
  5
609
  8
0
 10
131.89299299999999
 20
84.42783
 30
0.0
 11
130.55897999999999
 21
82.591718999999998
 31
0.0
  0
ARC
  5
60A
  8
0
 10
128.952056
 20
84.151078999999996
 30
0.0
 40
0.215
 50
126.0
 51
306.0
  0
LINE
  5
60B
  8
0
 10
130.31811099999999
 20
85.409331000000009
 30
0.0
 11
128.825682
 21
84.325018
 31
0.0
  0
LINE
  5
60C
  8
0
 10
130.63808800000001
 20
85.110298000000014
 30
0.0
 11
129.07843
 21
83.977140000000006
 31
0.0
  0
ARC
  5
60D
  8
0
 10
128.03202200000001
 20
85.956746999999993
 30
0.0
 40
0.215
 50
108.0
 51
288.0
  0
LINE
  5
60E
  8
0
 10
129.53153499999999
 20
86.670031999999992
 30
0.0
 11
127.965583
 21
86.161224000000004
 31
0.0
  0
LINE
  5
60F
  8
0
 10
129.70541
 20
86.274399000000003
 30
0.0
 11
128.09846099999999
 21
85.752269999999996
 31
0.0
  0
LINE
  5
610
  8
0
 10
129.306252
 20
87.743345000000005
 30
0.0
 11
127.715
 21
87.743345000000005
 31
0.0
  0
LINE
  5
611
  8
0
 10
129.306252
 20
88.173344999999983
 30
0.0
 11
127.715
 21
88.173344999999983
 31
0.0
  0
ARC
  5
612
  8
0
 10
127.715
 20
87.958344999999994
 30
0.0
 40
0.215
 50
90.0
 51
270.0
  0
LINE
  5
613
  8
0
 10
133.56538900000001
 20
81.658344999999997
 30
0.0
 11
133.78431800000001
 21
84.160707999999985
 31
0.0
  0
LINE
  5
614
  8
0
 10
134.000056
 20
81.658344999999997
 30
0.0
 11
134.21568199999999
 21
84.122968999999983
 31
0.0
  0
ARC
  5
615
  8
0
 10
134.0
 20
84.141839000000004
 30
0.0
 40
0.216506
 50
355.0
 51
32.555736000000003
  0
LINE
  5
616
  8
0
 10
135.06538900000001
 20
81.658344999999997
 30
0.0
 11
135.28431800000001
 21
84.160707999999985
 31
0.0
  0
LINE
  5
617
  8
0
 10
135.500056
 20
81.658344999999997
 30
0.0
 11
135.71568199999999
 21
84.122968999999983
 31
0.0
  0
ARC
  5
618
  8
0
 10
135.5
 20
84.141839000000004
 30
0.0
 40
0.216506
 50
355.0
 51
32.555736000000003
  0
LINE
  5
619
  8
0
 10
136.568691
 20
81.696084999999997
 30
0.0
 11
136.78431800000001
 21
84.160707999999985
 31
0.0
  0
LINE
  5
61A
  8
0
 10
137.000056
 20
81.658344999999997
 30
0.0
 11
137.21568199999999
 21
84.122968999999983
 31
0.0
  0
ARC
  5
61B
  8
0
 10
137.0
 20
84.141839000000004
 30
0.0
 40
0.216506
 50
355.0
 51
175.0
  0
LINE
  5
61C
  8
0
 10
138.309012
 20
84.243813000000003
 30
0.0
 11
137.01406900000001
 21
81.818511000000015
 31
0.0
  0
LINE
  5
61D
  8
0
 10
138.191979
 20
83.105269999999976
 30
0.0
 11
137.366027
 21
81.558344999999989
 31
0.0
  0
ARC
  5
61E
  8
0
 10
138.5
 20
84.141839000000004
 30
0.0
 40
0.216506
 50
355.0
 51
175.0
  0
LINE
  5
61F
  8
0
 10
138.05663999999999
 20
81.558344999999989
 30
0.0
 11
138.28431800000001
 21
84.160707999999985
 31
0.0
  0
LINE
  5
620
  8
0
 10
138.49130700000001
 20
81.558344999999989
 30
0.0
 11
138.71568199999999
 21
84.122968999999983
 31
0.0
  0
LINE
  5
621
  8
0
 10
139.99130700000001
 20
81.558344999999989
 30
0.0
 11
140.21568199999999
 21
84.122968999999983
 31
0.0
  0
ARC
  5
622
  8
0
 10
140.0
 20
84.141839000000004
 30
0.0
 40
0.216506
 50
355.0
 51
175.0
  0
LINE
  5
623
  8
0
 10
139.809012
 20
84.243813000000003
 30
0.0
 11
138.51406900000001
 21
81.818511000000015
 31
0.0
  0
LINE
  5
624
  8
0
 10
139.691979
 20
83.105269999999976
 30
0.0
 11
138.866027
 21
81.558344999999989
 31
0.0
  0
LINE
  5
625
  8
0
 10
139.55663999999999
 20
81.558344999999989
 30
0.0
 11
139.78431800000001
 21
84.160707999999985
 31
0.0
  0
LINE
  5
626
  8
0
 10
141.49130700000001
 20
81.558344999999989
 30
0.0
 11
141.71568199999999
 21
84.122968999999983
 31
0.0
  0
ARC
  5
627
  8
0
 10
141.5
 20
84.141839000000004
 30
0.0
 40
0.216506
 50
355.0
 51
175.0
  0
LINE
  5
628
  8
0
 10
141.309012
 20
84.243813000000003
 30
0.0
 11
140.01406900000001
 21
81.818511000000015
 31
0.0
  0
LINE
  5
629
  8
0
 10
141.191979
 20
83.105269999999976
 30
0.0
 11
140.366027
 21
81.558344999999989
 31
0.0
  0
LINE
  5
62A
  8
0
 10
141.05663999999999
 20
81.558344999999989
 30
0.0
 11
141.28431800000001
 21
84.160707999999985
 31
0.0
  0
LINE
  5
62B
  8
0
 10
142.99130700000001
 20
81.558344999999989
 30
0.0
 11
143.21568199999999
 21
84.122968999999983
 31
0.0
  0
ARC
  5
62C
  8
0
 10
143.0
 20
84.141839000000004
 30
0.0
 40
0.216506
 50
355.0
 51
175.0
  0
LINE
  5
62D
  8
0
 10
142.809012
 20
84.243813000000003
 30
0.0
 11
141.51406900000001
 21
81.818511000000015
 31
0.0
  0
LINE
  5
62E
  8
0
 10
142.691979
 20
83.105269999999976
 30
0.0
 11
141.866027
 21
81.558344999999989
 31
0.0
  0
LINE
  5
62F
  8
0
 10
142.55663999999999
 20
81.558344999999989
 30
0.0
 11
142.7843179999999
 21
84.160707999999985
 31
0.0
  0
LINE
  5
630
  8
0
 10
144.309012
 20
84.243813000000003
 30
0.0
 11
143.01406900000001
 21
81.818511000000015
 31
0.0
  0
LINE
  5
631
  8
0
 10
144.191979
 20
83.105269999999976
 30
0.0
 11
143.366027
 21
81.558344999999989
 31
0.0
  0
ARC
  5
632
  8
0
 10
144.5
 20
91.774850999999998
 30
0.0
 40
0.216506
 50
185.0
 51
5.0
  0
LINE
  5
633
  8
0
 10
144.0566399999999
 20
81.558344999999989
 30
0.0
 11
144.28431800000001
 21
84.160707999999985
 31
0.0
  0
LINE
  5
634
  8
0
 10
144.52630199999999
 20
93.958344999999994
 30
0.0
 11
144.71568199999999
 21
91.793721000000005
 31
0.0
  0
LINE
  5
635
  8
0
 10
148.19098799999989
 20
91.672877000000014
 30
0.0
 11
149.41127
 21
93.958344999999994
 31
0.0
  0
LINE
  5
636
  8
0
 10
148.308021
 20
92.811419999999998
 30
0.0
 11
148.9204
 21
93.958344999999994
 31
0.0
  0
LINE
  5
637
  8
0
 10
149.47369800000001
 20
93.958344999999994
 30
0.0
 11
149.28431800000001
 21
91.793721000000005
 31
0.0
  0
LINE
  5
638
  8
0
 10
149.90836400000001
 20
93.958344999999994
 30
0.0
 11
149.71568199999999
 21
91.755981999999989
 31
0.0
  0
ARC
  5
639
  8
0
 10
149.5
 20
91.774850999999998
 30
0.0
 40
0.216506
 50
175.0
 51
355.0
  0
LINE
  5
63A
  8
0
 10
149.808021
 20
92.811419999999998
 30
0.0
 11
150.4204
 21
93.958344999999994
 31
0.0
  0
LINE
  5
63B
  8
0
 10
149.690988
 20
91.672877000000014
 30
0.0
 11
150.91127
 21
93.958344999999994
 31
0.0
  0
LINE
  5
63C
  8
0
 10
151.40836399999989
 20
93.958344999999994
 30
0.0
 11
151.21568199999999
 21
91.755981999999989
 31
0.0
  0
LINE
  5
63D
  8
0
 10
151.308021
 20
92.811419999999998
 30
0.0
 11
151.9204
 21
93.958344999999994
 31
0.0
  0
LINE
  5
63E
  8
0
 10
151.19098799999989
 20
91.672877000000014
 30
0.0
 11
152.41127
 21
93.958344999999994
 31
0.0
  0
ARC
  5
63F
  8
0
 10
151.0
 20
91.774850999999998
 30
0.0
 40
0.216506
 50
175.0
 51
355.0
  0
LINE
  5
640
  8
0
 10
150.97369800000001
 20
93.958344999999994
 30
0.0
 11
150.78431800000001
 21
91.793721000000005
 31
0.0
  0
LINE
  5
641
  8
0
 10
152.90836400000001
 20
93.958344999999994
 30
0.0
 11
152.71568199999999
 21
91.755981999999989
 31
0.0
  0
LINE
  5
642
  8
0
 10
152.808021
 20
92.811419999999998
 30
0.0
 11
153.4204
 21
93.958344999999994
 31
0.0
  0
LINE
  5
643
  8
0
 10
152.690988
 20
91.672877000000014
 30
0.0
 11
153.91127
 21
93.958344999999994
 31
0.0
  0
ARC
  5
644
  8
0
 10
152.5
 20
91.774850999999998
 30
0.0
 40
0.216506
 50
175.0
 51
355.0
  0
LINE
  5
645
  8
0
 10
152.47369800000001
 20
93.958344999999994
 30
0.0
 11
152.28431800000001
 21
91.793721000000005
 31
0.0
  0
LINE
  5
646
  8
0
 10
154.40836400000001
 20
93.958344999999994
 30
0.0
 11
154.21568199999999
 21
91.755981999999989
 31
0.0
  0
LINE
  5
647
  8
0
 10
154.308021
 20
92.811419999999998
 30
0.0
 11
154.9204
 21
93.958344999999994
 31
0.0
  0
LINE
  5
648
  8
0
 10
154.19098799999989
 20
91.672877000000014
 30
0.0
 11
155.41127
 21
93.958344999999994
 31
0.0
  0
ARC
  5
649
  8
0
 10
154.0
 20
91.774850999999998
 30
0.0
 40
0.216506
 50
175.0
 51
355.0
  0
LINE
  5
64A
  8
0
 10
153.9736979999999
 20
93.958344999999994
 30
0.0
 11
153.78431800000001
 21
91.793721000000005
 31
0.0
  0
LINE
  5
64B
  8
0
 10
155.47369800000001
 20
93.958344999999994
 30
0.0
 11
155.28431800000001
 21
91.793721000000005
 31
0.0
  0
LINE
  5
64C
  8
0
 10
155.90836400000001
 20
93.958344999999994
 30
0.0
 11
155.71568199999999
 21
91.755981999999989
 31
0.0
  0
ARC
  5
64D
  8
0
 10
155.5
 20
91.774850999999998
 30
0.0
 40
0.216506
 50
175.0
 51
355.0
  0
LINE
  5
64E
  8
0
 10
155.808021
 20
92.811419999999998
 30
0.0
 11
156.4204
 21
93.958344999999994
 31
0.0
  0
LINE
  5
64F
  8
0
 10
155.690988
 20
91.672877000000014
 30
0.0
 11
156.91127
 21
93.958344999999994
 31
0.0
  0
ARC
  5
650
  8
0
 10
157.0
 20
91.774850999999998
 30
0.0
 40
0.216506
 50
175.0
 51
355.0
  0
LINE
  5
651
  8
0
 10
156.97369800000001
 20
93.958344999999994
 30
0.0
 11
156.78431800000001
 21
91.793721000000005
 31
0.0
  0
LINE
  5
652
  8
0
 10
157.43461099999999
 20
94.258344999999977
 30
0.0
 11
157.21568199999999
 21
91.755981999999989
 31
0.0
  0
ARC
  5
653
  8
0
 10
158.5
 20
91.774850999999998
 30
0.0
 40
0.216506
 50
175.0
 51
212.555736
  0
LINE
  5
654
  8
0
 10
158.499944
 20
94.258344999999977
 30
0.0
 11
158.28431800000001
 21
91.793721000000005
 31
0.0
  0
LINE
  5
655
  8
0
 10
158.93461099999999
 20
94.258344999999977
 30
0.0
 11
158.71568199999999
 21
91.755981999999989
 31
0.0
  0
ARC
  5
656
  8
0
 10
160.0
 20
91.774850999999998
 30
0.0
 40
0.216506
 50
175.0
 51
212.555736
  0
LINE
  5
657
  8
0
 10
159.999944
 20
94.258344999999977
 30
0.0
 11
159.78431800000001
 21
91.793721000000005
 31
0.0
  0
LINE
  5
658
  8
0
 10
160.43461099999999
 20
94.258344999999977
 30
0.0
 11
160.21568199999999
 21
91.755981999999989
 31
0.0
  0
ARC
  5
659
  8
0
 10
166.285
 20
87.958344999999994
 30
0.0
 40
0.215
 50
270.0
 51
90.0
  0
LINE
  5
65A
  8
0
 10
164.59357399999999
 20
87.743345000000005
 30
0.0
 11
166.285
 21
87.743345000000005
 31
0.0
  0
LINE
  5
65B
  8
0
 10
164.59357399999999
 20
88.173344999999983
 30
0.0
 11
166.285
 21
88.173344999999983
 31
0.0
  0
LINE
  5
65C
  8
0
 10
164.29459
 20
89.642291
 30
0.0
 11
165.90153900000001
 21
90.164419999999993
 31
0.0
  0
LINE
  5
65D
  8
0
 10
164.46846500000001
 20
89.246657999999996
 30
0.0
 11
166.03441699999999
 21
89.755465999999984
 31
0.0
  0
ARC
  5
65E
  8
0
 10
165.96797799999999
 20
89.95994300000001
 30
0.0
 40
0.215
 50
288.0
 51
108.0
  0
LINE
  5
65F
  8
0
 10
163.36191199999999
 20
90.806392000000002
 30
0.0
 11
164.92157
 21
91.939549999999997
 31
0.0
  0
LINE
  5
660
  8
0
 10
163.6818889999999
 20
90.507358999999994
 30
0.0
 11
165.174318
 21
91.591672000000003
 31
0.0
  0
ARC
  5
661
  8
0
 10
165.047944
 20
91.765610999999979
 30
0.0
 40
0.215
 50
306.0
 51
126.0
  0
LINE
  5
662
  8
0
 10
162.10700700000001
 20
91.488860000000003
 30
0.0
 11
163.44102000000001
 21
93.324970999999991
 31
0.0
  0
LINE
  5
663
  8
0
 10
162.523269
 20
91.330235999999985
 30
0.0
 11
163.78889699999999
 21
93.072222999999994
 31
0.0
  0
ARC
  5
664
  8
0
 10
163.614958
 20
93.198597000000007
 30
0.0
 40
0.215
 50
324.0
 51
144.0
  0
LINE
  5
665
  8
0
 10
161.00132300000001
 20
91.716549999999984
 30
0.0
 11
161.76459500000001
 21
94.065659999999994
 31
0.0
  0
LINE
  5
666
  8
0
 10
161.426525
 20
91.633679000000001
 30
0.0
 11
162.17354900000001
 21
93.932783000000001
 31
0.0
  0
ARC
  5
667
  8
0
 10
161.96907200000001
 20
93.999220999999991
 30
0.0
 40
0.215
 50
342.0
 51
162.0
  0
ARC
  5
668
  8
0
 10
160.21562700000001
 20
94.239474999999999
 30
0.0
 40
0.216506
 50
355.0
 51
175.0
  0
ARC
  5
669
  8
0
 10
158.71562700000001
 20
94.239474999999999
 30
0.0
 40
0.216506
 50
355.0
 51
175.0
  0
ARC
  5
66A
  8
0
 10
157.21562700000001
 20
94.239474999999999
 30
0.0
 40
0.216506
 50
355.0
 51
94.139002000000005
  0
LINE
  5
66B
  8
0
 10
157.286496
 20
92.565387000000001
 30
0.0
 11
158.53793300000001
 21
94.363168000000002
 31
0.0
  0
LINE
  5
66C
  8
0
 10
157.177694
 20
91.651158999999993
 30
0.0
 11
158.42912999999999
 21
93.448938999999996
 31
0.0
  0
LINE
  5
66D
  8
0
 10
158.677694
 20
91.651158999999993
 30
0.0
 11
159.92912999999999
 21
93.448938999999996
 31
0.0
  0
LINE
  5
66E
  8
0
 10
158.786496
 20
92.565387000000001
 30
0.0
 11
160.03793300000001
 21
94.363168000000002
 31
0.0
  0
LINE
  5
66F
  8
0
 10
160.186015
 20
91.658344999999997
 30
0.0
 11
161.44423699999999
 21
93.079701
 31
0.0
  0
LINE
  5
670
  8
0
 10
160.27287999999999
 20
92.409750000000003
 30
0.0
 11
161.80695900000001
 21
94.142728000000005
 31
0.0
  0
LINE
  5
671
  8
0
 10
161.554113
 20
91.616618000000003
 30
0.0
 11
162.76555200000001
 21
92.395269999999996
 31
0.0
  0
LINE
  5
672
  8
0
 10
161.597238
 20
92.159080000000003
 30
0.0
 11
163.497895
 21
93.380725999999996
 31
0.0
  0
LINE
  5
673
  8
0
 10
162.91148699999999
 20
91.126343999999989
 30
0.0
 11
164.13127
 21
91.365363000000016
 31
0.0
  0
LINE
  5
674
  8
0
 10
162.65989999999999
 20
91.518291999999988
 30
0.0
 11
165.00631100000001
 21
91.978076999999999
 31
0.0
  0
LINE
  5
675
  8
0
 10
164.10697999999999
 20
89.967493000000005
 30
0.0
 11
164.972486
 21
89.862551999999994
 31
0.0
  0
LINE
  5
676
  8
0
 10
163.73654400000001
 20
90.448592000000005
 30
0.0
 11
165.99403799999999
 21
90.174874999999986
 31
0.0
  0
LINE
  5
677
  8
0
 10
164.664106
 20
88.472474000000005
 30
0.0
 11
165.30813499999999
 21
88.173344999999983
 31
0.0
  0
LINE
  5
678
  8
0
 10
164.549409
 20
89.003186999999997
 30
0.0
 11
166.37620200000001
 21
88.154705000000007
 31
0.0
  0
ARC
  5
679
  8
0
 10
161.20580000000001
 20
91.650111999999993
 30
0.0
 40
0.215
 50
162.0
 51
177.80534399999999
  0
ARC
  5
67A
  8
0
 10
161.20580000000001
 20
84.266577999999996
 30
0.0
 40
0.215
 50
182.19465600000001
 51
198.0
  0
LINE
  5
67B
  8
0
 10
164.549409
 20
86.913503000000006
 30
0.0
 11
166.37620200000001
 21
87.761984999999996
 31
0.0
  0
LINE
  5
67C
  8
0
 10
164.664106
 20
87.444215999999997
 30
0.0
 11
165.30813499999999
 21
87.743345000000005
 31
0.0
  0
LINE
  5
67D
  8
0
 10
163.73654400000001
 20
85.468097999999998
 30
0.0
 11
165.99403799999999
 21
85.741814999999988
 31
0.0
  0
LINE
  5
67E
  8
0
 10
164.10697999999999
 20
85.949196999999998
 30
0.0
 11
164.972486
 21
86.054137999999995
 31
0.0
  0
LINE
  5
67F
  8
0
 10
162.65989999999999
 20
84.398397999999986
 30
0.0
 11
165.00631100000001
 21
83.938613000000004
 31
0.0
  0
LINE
  5
680
  8
0
 10
162.91148699999999
 20
84.790346
 30
0.0
 11
164.13127
 21
84.551327000000001
 31
0.0
  0
LINE
  5
681
  8
0
 10
161.597238
 20
83.75761
 30
0.0
 11
163.497895
 21
82.535964000000007
 31
0.0
  0
LINE
  5
682
  8
0
 10
161.554113
 20
84.300072
 30
0.0
 11
162.76555200000001
 21
83.521419999999978
 31
0.0
  0
LINE
  5
683
  8
0
 10
160.27287999999999
 20
83.50694
 30
0.0
 11
161.80695900000001
 21
81.773961999999997
 31
0.0
  0
LINE
  5
684
  8
0
 10
160.186015
 20
84.258344999999977
 30
0.0
 11
161.44423699999999
 21
82.836989000000003
 31
0.0
  0
LINE
  5
685
  8
0
 10
158.786496
 20
83.351303000000016
 30
0.0
 11
160.03793300000001
 21
81.553522000000015
 31
0.0
  0
LINE
  5
686
  8
0
 10
158.68269599999999
 20
84.258344999999977
 30
0.0
 11
159.92912999999999
 21
82.467751000000007
 31
0.0
  0
LINE
  5
687
  8
0
 10
157.177694
 20
84.26553100000001
 30
0.0
 11
158.42912999999999
 21
82.467751000000007
 31
0.0
  0
LINE
  5
688
  8
0
 10
157.286496
 20
83.351303000000016
 30
0.0
 11
158.53793300000001
 21
81.553522000000015
 31
0.0
  0
ARC
  5
689
  8
0
 10
157.21562700000001
 20
81.677215000000004
 30
0.0
 40
0.216506
 50
185.0
 51
214.40006500000001
  0
ARC
  5
68A
  8
0
 10
158.71562700000001
 20
81.677215000000004
 30
0.0
 40
0.216506
 50
185.0
 51
5.0
  0
ARC
  5
68B
  8
0
 10
160.21562700000001
 20
81.677215000000004
 30
0.0
 40
0.216506
 50
185.0
 51
5.0
  0
ARC
  5
68C
  8
0
 10
161.96907200000001
 20
81.917468999999997
 30
0.0
 40
0.215
 50
198.0
 51
18.0
  0
LINE
  5
68D
  8
0
 10
161.426525
 20
84.283011000000002
 30
0.0
 11
162.17354900000001
 21
81.983906999999988
 31
0.0
  0
LINE
  5
68E
  8
0
 10
161.00132300000001
 20
84.200140000000005
 30
0.0
 11
161.76459500000001
 21
81.851030000000009
 31
0.0
  0
ARC
  5
68F
  8
0
 10
163.614958
 20
82.71809300000001
 30
0.0
 40
0.215
 50
216.0
 51
36.0
  0
LINE
  5
690
  8
0
 10
162.523269
 20
84.586453999999989
 30
0.0
 11
163.78889699999999
 21
82.844467000000009
 31
0.0
  0
LINE
  5
691
  8
0
 10
162.10700700000001
 20
84.42783
 30
0.0
 11
163.44102000000001
 21
82.591718999999998
 31
0.0
  0
ARC
  5
692
  8
0
 10
165.047944
 20
84.151078999999996
 30
0.0
 40
0.215
 50
234.0
 51
54.0
  0
LINE
  5
693
  8
0
 10
163.6818889999999
 20
85.409331000000009
 30
0.0
 11
165.174318
 21
84.325018
 31
0.0
  0
LINE
  5
694
  8
0
 10
163.36191199999999
 20
85.110298000000014
 30
0.0
 11
164.92157
 21
83.977140000000006
 31
0.0
  0
ARC
  5
695
  8
0
 10
165.96797799999999
 20
85.956746999999993
 30
0.0
 40
0.215
 50
252.0
 51
72.0
  0
LINE
  5
696
  8
0
 10
164.46846500000001
 20
86.670031999999992
 30
0.0
 11
166.03441699999999
 21
86.161224000000004
 31
0.0
  0
LINE
  5
697
  8
0
 10
164.29459
 20
86.274399000000003
 30
0.0
 11
165.90153900000001
 21
85.752269999999996
 31
0.0
  0
LINE
  5
698
  8
0
 10
164.693748
 20
87.743345000000005
 30
0.0
 11
166.285
 21
87.743345000000005
 31
0.0
  0
LINE
  5
699
  8
0
 10
164.693748
 20
88.173344999999983
 30
0.0
 11
166.285
 21
88.173344999999983
 31
0.0
  0
ARC
  5
69A
  8
0
 10
166.285
 20
87.958344999999994
 30
0.0
 40
0.215
 50
270.0
 51
90.0
  0
LINE
  5
69B
  8
0
 10
160.43461099999999
 20
81.658344999999997
 30
0.0
 11
160.21568199999999
 21
84.160707999999985
 31
0.0
  0
LINE
  5
69C
  8
0
 10
159.999944
 20
81.658344999999997
 30
0.0
 11
159.78431800000001
 21
84.122968999999983
 31
0.0
  0
ARC
  5
69D
  8
0
 10
160.0
 20
84.141839000000004
 30
0.0
 40
0.216506
 50
5.0
 51
32.555736000000003
  0
LINE
  5
69E
  8
0
 10
158.93461099999999
 20
81.658344999999997
 30
0.0
 11
158.71568199999999
 21
84.160707999999985
 31
0.0
  0
LINE
  5
69F
  8
0
 10
158.499944
 20
81.658344999999997
 30
0.0
 11
158.28431800000001
 21
84.122968999999983
 31
0.0
  0
ARC
  5
6A0
  8
0
 10
158.5
 20
84.141839000000004
 30
0.0
 40
0.216506
 50
5.0
 51
32.555736000000003
  0
LINE
  5
6A1
  8
0
 10
157.43461099999999
 20
81.658344999999997
 30
0.0
 11
157.21568199999999
 21
84.160707999999985
 31
0.0
  0
LINE
  5
6A2
  8
0
 10
156.999944
 20
81.658344999999997
 30
0.0
 11
156.78431800000001
 21
84.122968999999983
 31
0.0
  0
ARC
  5
6A3
  8
0
 10
157.0
 20
84.141839000000004
 30
0.0
 40
0.216506
 50
5.0
 51
185.0
  0
LINE
  5
6A4
  8
0
 10
155.690988
 20
84.243813000000003
 30
0.0
 11
156.98593099999999
 21
81.818511000000015
 31
0.0
  0
LINE
  5
6A5
  8
0
 10
155.808021
 20
83.105269999999976
 30
0.0
 11
156.633973
 21
81.558344999999989
 31
0.0
  0
ARC
  5
6A6
  8
0
 10
155.5
 20
84.141839000000004
 30
0.0
 40
0.216506
 50
5.0
 51
185.0
  0
LINE
  5
6A7
  8
0
 10
155.94336000000001
 20
81.558344999999989
 30
0.0
 11
155.71568199999999
 21
84.160707999999985
 31
0.0
  0
LINE
  5
6A8
  8
0
 10
155.50869299999999
 20
81.558344999999989
 30
0.0
 11
155.28431800000001
 21
84.122968999999983
 31
0.0
  0
LINE
  5
6A9
  8
0
 10
154.00869299999999
 20
81.558344999999989
 30
0.0
 11
153.78431800000001
 21
84.122968999999983
 31
0.0
  0
ARC
  5
6AA
  8
0
 10
154.0
 20
84.141839000000004
 30
0.0
 40
0.216506
 50
5.0
 51
185.0
  0
LINE
  5
6AB
  8
0
 10
154.19098799999989
 20
84.243813000000003
 30
0.0
 11
155.48593099999999
 21
81.818511000000015
 31
0.0
  0
LINE
  5
6AC
  8
0
 10
154.308021
 20
83.105269999999976
 30
0.0
 11
155.133973
 21
81.558344999999989
 31
0.0
  0
LINE
  5
6AD
  8
0
 10
154.44336000000001
 20
81.558344999999989
 30
0.0
 11
154.21568199999999
 21
84.160707999999985
 31
0.0
  0
LINE
  5
6AE
  8
0
 10
152.50869299999999
 20
81.558344999999989
 30
0.0
 11
152.28431800000001
 21
84.122968999999983
 31
0.0
  0
ARC
  5
6AF
  8
0
 10
152.5
 20
84.141839000000004
 30
0.0
 40
0.216506
 50
5.0
 51
185.0
  0
LINE
  5
6B0
  8
0
 10
152.690988
 20
84.243813000000003
 30
0.0
 11
153.98593099999999
 21
81.818511000000015
 31
0.0
  0
LINE
  5
6B1
  8
0
 10
152.808021
 20
83.105269999999976
 30
0.0
 11
153.633973
 21
81.558344999999989
 31
0.0
  0
LINE
  5
6B2
  8
0
 10
152.94336000000001
 20
81.558344999999989
 30
0.0
 11
152.71568199999999
 21
84.160707999999985
 31
0.0
  0
LINE
  5
6B3
  8
0
 10
151.00869299999999
 20
81.558344999999989
 30
0.0
 11
150.78431800000001
 21
84.122968999999983
 31
0.0
  0
ARC
  5
6B4
  8
0
 10
151.0
 20
84.141839000000004
 30
0.0
 40
0.216506
 50
5.0
 51
185.0
  0
LINE
  5
6B5
  8
0
 10
151.19098799999989
 20
84.243813000000003
 30
0.0
 11
152.48593099999999
 21
81.818511000000015
 31
0.0
  0
LINE
  5
6B6
  8
0
 10
151.308021
 20
83.105269999999976
 30
0.0
 11
152.133973
 21
81.558344999999989
 31
0.0
  0
LINE
  5
6B7
  8
0
 10
151.44336000000001
 20
81.558344999999989
 30
0.0
 11
151.21568199999999
 21
84.160707999999985
 31
0.0
  0
LINE
  5
6B8
  8
0
 10
149.690988
 20
84.243813000000003
 30
0.0
 11
150.98593099999999
 21
81.818511000000015
 31
0.0
  0
LINE
  5
6B9
  8
0
 10
149.808021
 20
83.105269999999976
 30
0.0
 11
150.633973
 21
81.558344999999989
 31
0.0
  0
ARC
  5
6BA
  8
0
 10
149.5
 20
84.141839000000004
 30
0.0
 40
0.216506
 50
5.0
 51
185.0
  0
LINE
  5
6BB
  8
0
 10
149.94336000000001
 20
81.558344999999989
 30
0.0
 11
149.71568199999999
 21
84.160707999999985
 31
0.0
  0
LINE
  5
6BC
  8
0
 10
149.50869299999999
 20
81.558344999999989
 30
0.0
 11
149.28431800000001
 21
84.122968999999983
 31
0.0
  0
ARC
  5
6BD
  8
0
 10
147.0
 20
84.141839000000004
 30
0.0
 40
0.216506
 50
0.0
 51
180.0
  0
LINE
  5
6BE
  8
0
 10
147.21650600000001
 20
81.558344999999989
 30
0.0
 11
147.21650600000001
 21
84.141839000000004
 31
0.0
  0
LINE
  5
6BF
  8
0
 10
148.00869299999999
 20
81.558344999999989
 30
0.0
 11
147.7843179999999
 21
84.122968999999983
 31
0.0
  0
LINE
  5
6C0
  8
0
 10
148.44336000000001
 20
81.558344999999989
 30
0.0
 11
148.21568199999999
 21
84.160707999999985
 31
0.0
  0
ARC
  5
6C1
  8
0
 10
148.0
 20
84.141839000000004
 30
0.0
 40
0.216506
 50
5.0
 51
185.0
  0
LINE
  5
6C2
  8
0
 10
148.308021
 20
83.105269999999976
 30
0.0
 11
149.133973
 21
81.558344999999989
 31
0.0
  0
LINE
  5
6C3
  8
0
 10
148.19098799999989
 20
84.243813000000003
 30
0.0
 11
149.48593099999999
 21
81.818511000000015
 31
0.0
  0
LINE
  5
6C4
  8
0
 10
147.333494
 20
81.558344999999989
 30
0.0
 11
147.333494
 21
84.141839000000004
 31
0.0
  0
LINE
  5
6C5
  8
0
 10
147.76650599999999
 20
81.558344999999989
 30
0.0
 11
147.76650599999999
 21
84.141839000000004
 31
0.0
  0
ARC
  5
6C6
  8
0
 10
147.55000000000001
 20
84.141839000000004
 30
0.0
 40
0.216506
 50
0.0
 51
180.0
  0
LINE
  5
6C7
  8
0
 10
148.006756
 20
81.558344999999989
 30
0.0
 11
147.76650599999999
 21
82.470241999999999
 31
0.0
  0
LINE
  5
6C8
  8
0
 10
147.330454
 20
81.558344999999989
 30
0.0
 11
147.21650600000001
 21
81.990849999999995
 31
0.0
  0
ARC
  5
6C9
  8
0
 10
135.5
 20
84.141839000000004
 30
0.0
 40
0.216506
 50
147.44426399999989
 51
175.0
  0
ARC
  5
6CA
  8
0
 10
134.0
 20
84.141839000000004
 30
0.0
 40
0.216506
 50
147.44426399999989
 51
175.0
  0
ARC
  5
6CB
  8
0
 10
134.0
 20
91.774850999999998
 30
0.0
 40
0.216506
 50
327.44426399999998
 51
5.0
  0
ARC
  5
6CC
  8
0
 10
135.5
 20
91.774850999999998
 30
0.0
 40
0.216506
 50
327.44426399999998
 51
5.0
  0
ARC
  5
6CD
  8
0
 10
158.5
 20
91.774850999999998
 30
0.0
 40
0.216506
 50
327.44426399999998
 51
355.0
  0
ARC
  5
6CE
  8
0
 10
160.0
 20
91.774850999999998
 30
0.0
 40
0.216506
 50
327.44426399999998
 51
355.0
  0
ARC
  5
6CF
  8
0
 10
160.0
 20
84.141839000000004
 30
0.0
 40
0.216506
 50
147.44426399999989
 51
185.0
  0
ARC
  5
6D0
  8
0
 10
158.5
 20
84.141839000000004
 30
0.0
 40
0.216506
 50
147.44426399999989
 51
185.0
  0
ARC
  5
6D1
  8
0
 10
157.21562700000001
 20
81.677215000000004
 30
0.0
 40
0.216506
 50
257.46511600000002
 51
5.0
  0
ARC
  5
6D2
  8
0
 10
136.78437299999999
 20
81.677215000000004
 30
0.0
 40
0.216506
 50
325.59993500000002
 51
355.0
  0
ARC
  5
6D3
  8
0
 10
148.0
 20
181.65842799999999
 30
0.0
 40
6.25
 50
270.0
 51
90.0
  0
ARC
  5
6D4
  8
0
 10
148.0
 20
181.65842799999999
 30
0.0
 40
9.25
 50
270.0
 51
90.0
  0
ARC
  5
6D5
  8
0
 10
146.0
 20
181.65842799999999
 30
0.0
 40
9.25
 50
90.0
 51
270.0
  0
ARC
  5
6D6
  8
0
 10
146.0
 20
181.65842799999999
 30
0.0
 40
6.25
 50
90.0
 51
270.0
  0
LINE
  5
6D7
  8
0
 10
146.0
 20
175.40842799999999
 30
0.0
 11
148.0
 21
175.40842799999999
 31
0.0
  0
LINE
  5
6D8
  8
0
 10
146.0
 20
172.40842799999999
 30
0.0
 11
148.0
 21
172.40842799999999
 31
0.0
  0
LINE
  5
6D9
  8
0
 10
146.0
 20
190.90842799999999
 30
0.0
 11
148.0
 21
190.90842799999999
 31
0.0
  0
LINE
  5
6DA
  8
0
 10
146.0
 20
187.90842799999999
 30
0.0
 11
148.0
 21
187.90842799999999
 31
0.0
  0
TEXT
  5
819
  8
0
 62
     3
 10
0.0
 20
0.0
 30
0.0
 40
10.0
  1
DK2-VT-W
  7
STANDARD1
  0
ENDSEC
  0
EOF
