  0
SECTION
  2
HEADER
  9
$ACADVER
  1
AC1009
  9
$INSBASE
 10
0.0
 20
0.0
 30
0.0
  9
$EXTMIN
 10
0.0
 20
-2.960436562073669
 30
0.0
  9
$EXTMAX
 10
218.6064995031158
 20
102.3944686223319
 30
0.0
  9
$LIMMIN
 10
0.0
 20
0.0
  9
$LIMMAX
 10
750.0
 20
540.0
  9
$ORTHOMODE
 70
     0
  9
$REGENMODE
 70
     1
  9
$FILLMODE
 70
     1
  9
$QTEXTMODE
 70
     0
  9
$MIRRTEXT
 70
     0
  9
$DRAGMODE
 70
     2
  9
$LTSCALE
 40
5.0
  9
$OSMODE
 70
  3071
  9
$ATTMODE
 70
     1
  9
$TEXTSIZE
 40
0.2
  9
$TRACEWID
 40
0.05
  9
$TEXTSTYLE
  7
STANDARD
  9
$CLAYER
  8
0
  9
$CELTYPE
  6
BYLAYER
  9
$CECOLOR
 62
   256
  9
$DIMSCALE
 40
1.0
  9
$DIMASZ
 40
3.0
  9
$DIMEXO
 40
2.0
  9
$DIMDLI
 40
0.38
  9
$DIMRND
 40
0.0
  9
$DIMDLE
 40
0.0
  9
$DIMEXE
 40
2.0
  9
$DIMTP
 40
0.0
  9
$DIMTM
 40
0.0
  9
$DIMTXT
 40
3.2000000000000002
  9
$DIMCEN
 40
0.0
  9
$DIMTSZ
 40
0.0
  9
$DIMTOL
 70
     0
  9
$DIMLIM
 70
     0
  9
$DIMTIH
 70
     0
  9
$DIMTOH
 70
     0
  9
$DIMSE1
 70
     0
  9
$DIMSE2
 70
     0
  9
$DIMTAD
 70
     1
  9
$DIMZIN
 70
     0
  9
$DIMBLK
  1

  9
$DIMASO
 70
     0
  9
$DIMSHO
 70
     0
  9
$DIMPOST
  1

  9
$DIMAPOST
  1

  9
$DIMALT
 70
     0
  9
$DIMALTD
 70
     2
  9
$DIMALTF
 40
25.399999999999999
  9
$DIMLFAC
 40
1.0
  9
$DIMTOFL
 70
     0
  9
$DIMTVP
 40
1.6000000000000001
  9
$DIMTIX
 70
     1
  9
$DIMSOXD
 70
     0
  9
$DIMSAH
 70
     0
  9
$DIMBLK1
  1

  9
$DIMBLK2
  1

  9
$DIMSTYLE
  2
STANDARD
  9
$DIMCLRD
 70
     0
  9
$DIMCLRE
 70
     0
  9
$DIMCLRT
 70
     0
  9
$DIMTFAC
 40
1.0
  9
$DIMGAP
 40
0.09
  9
$LUNITS
 70
     2
  9
$LUPREC
 70
     4
  9
$SKETCHINC
 40
0.1
  9
$FILLETRAD
 40
0.0
  9
$AUNITS
 70
     0
  9
$AUPREC
 70
     4
  9
$MENU
  1
E:\r13\win\SUPPORT\ACAD
  9
$ELEVATION
 40
0.0
  9
$PELEVATION
 40
0.0
  9
$THICKNESS
 40
0.0
  9
$LIMCHECK
 70
     0
  9
$BLIPMODE
 70
     0
  9
$CHAMFERA
 40
0.0
  9
$CHAMFERB
 40
0.0
  9
$SKPOLY
 70
     0
  9
$TDCREATE
 40
2449840.6227546302
  9
$TDUPDATE
 40
2456598.6101868292
  9
$TDINDWG
 40
0.0582062384
  9
$TDUSRTIMER
 40
2456422.3752105092
  9
$USRTIMER
 70
     1
  9
$ANGBASE
 50
0.0
  9
$ANGDIR
 70
     0
  9
$PDMODE
 70
     0
  9
$PDSIZE
 40
0.0
  9
$PLINEWID
 40
0.0
  9
$COORDS
 70
     1
  9
$SPLFRAME
 70
     0
  9
$SPLINETYPE
 70
     6
  9
$SPLINESEGS
 70
     8
  9
$ATTDIA
 70
     0
  9
$ATTREQ
 70
     1
  9
$HANDLING
 70
     1
  9
$HANDSEED
  5
2565
  9
$SURFTAB1
 70
     6
  9
$SURFTAB2
 70
     6
  9
$SURFTYPE
 70
     6
  9
$SURFU
 70
     6
  9
$SURFV
 70
     6
  9
$UCSNAME
  2

  9
$UCSORG
 10
0.0
 20
0.0
 30
0.0
  9
$UCSXDIR
 10
1.0
 20
0.0
 30
0.0
  9
$UCSYDIR
 10
0.0
 20
1.0
 30
0.0
  9
$PUCSNAME
  2

  9
$PUCSORG
 10
0.0
 20
0.0
 30
0.0
  9
$PUCSXDIR
 10
1.0
 20
0.0
 30
0.0
  9
$PUCSYDIR
 10
0.0
 20
1.0
 30
0.0
  9
$USERI1
 70
     0
  9
$USERI2
 70
     1
  9
$USERI3
 70
     0
  9
$USERI4
 70
     0
  9
$USERI5
 70
     0
  9
$USERR1
 40
0.0
  9
$USERR2
 40
0.0
  9
$USERR3
 40
0.0
  9
$USERR4
 40
0.0
  9
$USERR5
 40
0.0
  9
$WORLDVIEW
 70
     1
  9
$SHADEDGE
 70
     3
  9
$SHADEDIF
 70
    70
  9
$TILEMODE
 70
     1
  9
$MAXACTVP
 70
    16
  9
$PLIMCHECK
 70
     0
  9
$PEXTMIN
 10
1.0000000000000000E+020
 20
1.0000000000000000E+020
 30
1.0000000000000000E+020
  9
$PEXTMAX
 10
-1.0000000000000000E+020
 20
-1.0000000000000000E+020
 30
-1.0000000000000000E+020
  9
$PLIMMIN
 10
0.0
 20
0.0
  9
$PLIMMAX
 10
12.0
 20
9.0
  9
$UNITMODE
 70
     0
  9
$VISRETAIN
 70
     0
  9
$PLINEGEN
 70
     0
  9
$PSLTSCALE
 70
     0
  0
ENDSEC
  0
SECTION
  2
TABLES
  0
TABLE
  2
VPORT
 70
     1
  0
VPORT
  2
*ACTIVE
 70
     0
 10
0.0
 20
0.0
 11
1.0
 21
1.0
 12
390.03402345615979
 22
268.50860658393782
 13
0.0
 23
0.0
 14
20.0
 24
20.0
 15
20.0
 25
20.0
 16
0.0
 26
0.0
 36
1.0
 17
0.0
 27
0.0
 37
0.0
 40
547.85258761088789
 41
1.831871345029239
 42
50.0
 43
0.0
 44
0.0
 50
0.0
 51
0.0
 71
    16
 72
   100
 73
     1
 74
     0
 75
     0
 76
     0
 77
     0
 78
     2
  0
ENDTAB
  0
TABLE
  2
LTYPE
 70
     4
  0
LTYPE
  2
CONTINUOUS
 70
     0
  3
Solid Line
 72
    65
 73
     0
 40
0.0
  0
LTYPE
  2
PHANTOM2
 70
     0
  3
___ _ _ ___ _ _ ___ _ _ ___ _ _
 72
    65
 73
     6
 40
1.25
 49
0.625
 49
-0.125
 49
0.125
 49
-0.125
 49
0.125
 49
-0.125
  0
LTYPE
  2
CENTER
 70
     0
  3
____ _ ____ _ ____ _ ____ _ ____ _ ____ _ ____
 72
    65
 73
     4
 40
2.0
 49
1.25
 49
-0.25
 49
0.25
 49
-0.25
  0
LTYPE
  2
HIDDEN
 70
     0
  3
_ _ _ _ _ _ _ _ _ _ _ _ _ _ _ _ _ _ _ _ _ _ _
 72
    65
 73
     2
 40
0.375
 49
0.25
 49
-0.125
  0
ENDTAB
  0
TABLE
  2
LAYER
 70
     4
  0
LAYER
  2
0
 70
     0
 62
     7
  6
CONTINUOUS
  0
LAYER
  2
1
 70
     0
 62
     1
  6
CENTER
  0
LAYER
  2
2
 70
     0
 62
     2
  6
HIDDEN
  0
LAYER
  2
DEFPOINTS
 70
     0
 62
     7
  6
CONTINUOUS
  0
ENDTAB
  0
TABLE
  2
STYLE
 70
     2
  0
STYLE
  2
STANDARD
 70
     0
 40
0.0
 41
1.0
 50
0.0
 71
     0
 42
0.2
  3
TXT
  4
BIGFONT
  0
STYLE
  2
STANDARD1
 70
     0
 40
0.0
 41
1.0
 50
0.0
 71
     0
 42
3.0
  3
txt
  4

  0
ENDTAB
  0
TABLE
  2
VIEW
 70
     1
  0
VIEW
  2
ALL
 70
     0
 40
540.0
 10
441.98319299999991
 20
270.0
 41
0.0
 11
0.0
 21
0.0
 31
1.0
 12
0.0
 22
0.0
 32
0.0
 42
0.0
 43
0.0
 44
0.0
 50
0.0
 71
     0
  0
ENDTAB
  0
TABLE
  2
UCS
 70
     0
  0
ENDTAB
  0
TABLE
  2
APPID
 70
     7
  0
APPID
  2
ACAD
 70
     0
  0
APPID
  2
ACADANNOTATIVE
 70
     0
  0
APPID
  2
ACAD_NAV_VCDISPLAY
 70
     0
  0
APPID
  2
ACAD_EXEMPT_FROM_CAD_STANDARDS
 70
     0
  0
APPID
  2
ACAD_DSTYLE_DIMJAG
 70
     0
  0
APPID
  2
ACAD_DSTYLE_DIMTALN
 70
     0
  0
APPID
  2
ACAD_MLEADERVER
 70
     0
  0
ENDTAB
  0
TABLE
  2
DIMSTYLE
 70
     1
  0
DIMSTYLE
  2
STANDARD
 70
     0
  3

  4

  5

  6

  7

 40
1.0
 41
0.18
 42
0.0625
 43
0.38
 44
0.18
 45
0.0
 46
0.0
 47
0.0
 48
0.0
140
0.18
141
0.09
142
0.0
143
25.399999999999999
144
1.0
145
0.0
146
1.0
147
0.09
 71
     0
 72
     0
 73
     1
 74
     1
 75
     0
 76
     0
 77
     0
 78
     0
170
     0
171
     2
172
     0
173
     0
174
     0
175
     0
176
     0
177
     0
178
     0
  0
ENDTAB
  0
ENDSEC
  0
SECTION
  2
BLOCKS
  0
BLOCK
  8
0
  2
$MODEL_SPACE
 70
     0
 10
0.0
 20
0.0
 30
0.0
  3
$MODEL_SPACE
  1

  0
ENDBLK
  5
507
  8
0
  0
BLOCK
 67
     1
  8
0
  2
$PAPER_SPACE
 70
     0
 10
0.0
 20
0.0
 30
0.0
  3
$PAPER_SPACE
  1

  0
ENDBLK
  5
503
 67
     1
  8
0
  0
ENDSEC
  0
SECTION
  2
ENTITIES
  0
LINE
  5
1B68
  8
2
 10
213.6064995031158
 20
33.87235871356927
 30
0.0
 11
213.6064995031158
 21
37.37235871356927
 31
0.0
  0
LINE
  5
1B69
  8
2
 10
203.6064995031158
 20
37.37235871356927
 30
0.0
 11
203.6064995031158
 21
33.87235871356927
 31
0.0
  0
LINE
  5
1B6A
  8
2
 10
211.1064995031158
 20
23.87235871356927
 30
0.0
 11
211.1064995031158
 21
33.87235871356927
 31
0.0
  0
LINE
  5
1B6B
  8
2
 10
206.1064995031158
 20
33.87235871356927
 30
0.0
 11
206.1064995031158
 21
23.87235871356927
 31
0.0
  0
LINE
  5
1B6C
  8
2
 10
203.6064995031158
 20
33.87235871356927
 30
0.0
 11
213.6064995031158
 21
33.87235871356927
 31
0.0
  0
LINE
  5
1B6D
  8
1
 10
208.6064995031158
 20
40.372358713569263
 30
0.0
 11
208.6064995031158
 21
20.87235871356927
 31
0.0
  0
ARC
  5
1B6E
  8
0
 10
208.6064995031158
 20
32.572358713569272
 30
0.0
 40
7.0000000000000018
 50
136.70819240672861
 51
220.1191668984051
  0
ARC
  5
1B6F
  8
0
 10
208.6064995031158
 20
32.572358713569272
 30
0.0
 40
7.0000000000000018
 50
319.88083310159487
 51
43.291807593271407
  0
ARC
  5
1B70
  8
0
 10
202.1064995031158
 20
27.0951331385176
 30
0.0
 40
1.500000000000008
 50
0.0
 51
40.119166898405098
  0
ARC
  5
1B71
  8
0
 10
215.1064995031158
 20
27.0951331385176
 30
0.0
 40
1.5000000000000111
 50
139.8808331015949
 51
180.0
  0
LINE
  5
1B72
  8
0
 10
213.6064995031158
 20
24.072358713569269
 30
0.0
 11
213.6064995031158
 21
27.09513313851761
 31
0.0
  0
LINE
  5
1B73
  8
0
 10
203.6064995031158
 20
27.09513313851761
 30
0.0
 11
203.6064995031158
 21
24.072358713569269
 31
0.0
  0
ARC
  5
1B74
  8
0
 10
203.80649950311579
 20
24.072358713569269
 30
0.0
 40
0.2000000000000011
 50
180.0
 51
270.0
  0
ARC
  5
1B75
  8
0
 10
213.40649950311581
 20
24.072358713569269
 30
0.0
 40
0.2000000000000008
 50
270.0
 51
0.0
  0
LINE
  5
1B76
  8
0
 10
203.511403821973
 20
37.37235871356927
 30
0.0
 11
213.70159518425859
 21
37.37235871356927
 31
0.0
  0
LINE
  5
1B78
  8
0
 10
203.6064995031158
 20
27.09513313851761
 30
0.0
 11
213.6064995031158
 21
27.09513313851761
 31
0.0
  0
LINE
  5
1B7A
  8
0
 10
203.80649950311579
 20
23.87235871356927
 30
0.0
 11
213.40649950311581
 21
23.87235871356927
 31
0.0
  0
CIRCLE
  5
1B9B
  8
0
 10
208.6064995031158
 20
55.095232732019717
 30
0.0
 40
5.095095681142797
  0
LINE
  5
1B9C
  8
1
 10
198.6064995031158
 20
55.095232732019717
 30
0.0
 11
218.6064995031158
 21
55.095232732019717
 31
0.0
  0
LINE
  5
1B9D
  8
1
 10
208.6064995031158
 20
45.095232732019717
 30
0.0
 11
208.6064995031158
 21
65.095232732019724
 31
0.0
  0
CIRCLE
  5
1B9E
  8
0
 10
208.6064995031158
 20
55.095232732019717
 30
0.0
 40
7.0
  0
CIRCLE
  5
1BA0
  8
0
 10
208.6064995031158
 20
55.095232732019717
 30
0.0
 40
5.0
  0
CIRCLE
  5
1BA2
  8
0
 10
208.6064995031158
 20
55.095232732019717
 30
0.0
 40
2.5
  0
ARC
  5
1EC5
  8
0
 10
53.530553108608501
 20
50.830921730036202
 30
0.0
 40
4.0000000000000044
 50
20.92924104328586
 51
39.849590488346038
  0
CIRCLE
  5
1ECE
  8
0
 10
43.530553108608501
 20
48.99814362233235
 30
0.0
 40
5.0
  0
ARC
  5
1ED2
  8
0
 10
33.530553108608622
 20
50.830921730036039
 30
0.0
 40
4.0000000000000977
 50
140.1504095116573
 51
159.07075895673
  0
LINE
  5
1EDA
  8
0
 10
56.77266152681397
 20
38.098143622332429
 30
0.0
 11
30.288444690402908
 21
38.098143622332373
 31
0.0
  0
ARC
  5
1EDD
  8
0
 10
33.530553108611123
 20
50.830921730033019
 30
0.0
 40
4.0000000000039568
 50
104.4443035539922
 51
140.15040951164701
  0
ARC
  5
1EDE
  8
0
 10
43.530553108608501
 20
12.008143622332341
 30
0.0
 40
44.090000000000323
 50
75.555696446028008
 51
104.44430355397201
  0
ARC
  5
1EDF
  8
0
 10
53.530553108607812
 20
50.830921730034682
 30
0.0
 40
4.0000000000015641
 50
39.849590488356299
 51
75.555696446021287
  0
LINE
  5
1EE0
  8
0
 10
57.530553108608387
 20
38.882963329847371
 30
0.0
 11
57.530553108608501
 21
50.830921730036202
 31
0.0
  0
LINE
  5
1EE2
  8
0
 10
57.530553108608501
 20
38.882963329847371
 30
0.0
 11
56.550553108608369
 21
37.868143622332468
 31
0.0
  0
ARC
  5
1EE3
  8
0
 10
53.530553108608501
 20
50.830921730036202
 30
0.0
 40
4.0000000000000284
 50
0.0
 51
20.92924104328586
  0
LINE
  5
1EE5
  8
0
 10
29.530553108608501
 20
38.882963329847371
 30
0.0
 11
29.530553108608501
 21
50.83092173003638
 31
0.0
  0
LINE
  5
1EE6
  8
0
 10
30.510553108608519
 20
37.868143622332703
 30
0.0
 11
29.530553108608501
 21
38.882963329847371
 31
0.0
  0
ARC
  5
1EE7
  8
0
 10
33.530553108608622
 20
50.830921730036039
 30
0.0
 40
4.000000000000087
 50
159.07075895673
 51
179.99999999999511
  0
ARC
  5
1EEA
  8
0
 10
34.971040279109957
 20
22.398143622332441
 30
0.0
 40
0.3000000000001401
 50
269.99999999999022
 51
326.00000000000409
  0
LINE
  5
1EEB
  8
0
 10
34.971040279109957
 20
22.098143622332369
 30
0.0
 11
34.130553108608531
 21
22.098143622332369
 31
0.0
  0
LINE
  5
1EEC
  8
0
 10
35.332905663661222
 20
22.39814362233238
 30
0.0
 11
35.219751550876708
 21
22.23038575129118
 31
0.0
  0
ARC
  5
1EEE
  8
0
 10
53.730553108609342
 20
37.298143622331558
 30
0.0
 40
0.8000000000007929
 50
90.00000000005538
 51
180.0
  0
LINE
  5
1EEF
  8
0
 10
52.930553108608592
 20
37.298143622331558
 30
0.0
 11
52.930553108608478
 21
22.098143622332351
 31
0.0
  0
LINE
  5
1EF0
  8
0
 10
51.72820055355578
 20
22.39814362233238
 30
0.0
 11
49.76603432233059
 21
25.307174690479972
 31
0.0
  0
ARC
  5
1EF1
  8
0
 10
50.180553108602901
 20
25.58677114221291
 30
0.0
 40
0.4999999999943997
 50
180.0
 51
214.0000000001005
  0
LINE
  5
1EF2
  8
0
 10
49.680553108608592
 20
25.58677114221291
 30
0.0
 11
49.680553108608592
 21
25.94311077711447
 31
0.0
  0
ARC
  5
1EF3
  8
0
 10
50.180553108615868
 20
25.943110777113251
 30
0.0
 40
0.5000000000073328
 50
160.00000000016061
 51
179.99999999986159
  0
ARC
  5
1EF4
  8
0
 10
49.130553108607728
 20
37.298143622331558
 30
0.0
 40
0.8000000000008071
 50
0.0
 51
90.0
  0
LINE
  5
1EF5
  8
0
 10
49.710706798215597
 20
26.114120848777279
 30
0.0
 11
49.930553108608592
 21
26.718143622332381
 31
0.0
  0
LINE
  5
1EF6
  8
0
 10
49.930553108608592
 20
26.718143622332381
 30
0.0
 11
49.930553108608592
 21
37.298143622331558
 31
0.0
  0
LINE
  5
1EF7
  8
0
 10
54.34055310860856
 20
35.498143622331099
 30
0.0
 11
54.34055310860856
 21
37.698143622332402
 31
0.0
  0
LINE
  5
1EF8
  8
0
 10
56.55055310860849
 20
37.868143622332347
 30
0.0
 11
56.55055310860849
 21
35.49814362233235
 31
0.0
  0
ARC
  5
1EF9
  8
0
 10
56.15055310860987
 20
35.498143622331099
 30
0.0
 40
0.3999999999987125
 50
269.99999999981111
 51
0.0000000001872711
  0
LINE
  5
1EFA
  8
0
 10
56.150553108608499
 20
35.09814362233238
 30
0.0
 11
54.740553108608538
 21
35.09814362233238
 31
0.0
  0
ARC
  5
1EFB
  8
0
 10
54.740553108607173
 20
35.498143622331099
 30
0.0
 40
0.3999999999987125
 50
180.0
 51
270.00000000018559
  0
ARC
  5
1EFC
  8
0
 10
53.940553108609834
 20
37.698143622333653
 30
0.0
 40
0.3999999999987267
 50
359.9999999998127
 51
90.0
  0
LINE
  5
1EFE
  8
0
 10
52.930553108608592
 20
22.098143622332369
 30
0.0
 11
52.090065938106591
 21
22.098143622332369
 31
0.0
  0
ARC
  5
1EFF
  8
0
 10
52.0900659381075
 20
22.398143622332778
 30
0.0
 40
0.3000000000006215
 50
214.00000000001799
 51
269.99999999981111
  0
LINE
  5
1F01
  8
0
 10
51.841354666340287
 20
22.230385751291411
 30
0.0
 11
51.72820055355578
 21
22.39814362233238
 31
0.0
  0
LINE
  5
1F02
  8
0
 10
32.720553108608563
 20
37.698143622332957
 30
0.0
 11
32.720553108608563
 21
35.49814362233235
 31
0.0
  0
ARC
  5
1F03
  8
0
 10
32.320553108609147
 20
35.498143622331781
 30
0.0
 40
0.3999999999993946
 50
269.99999999991212
 51
0.0000000000895644
  0
ARC
  5
1F04
  8
0
 10
33.120553108607972
 20
37.698143622332957
 30
0.0
 40
0.3999999999993946
 50
89.999999999912063
 51
180.0
  0
LINE
  5
1F05
  8
0
 10
32.320553108608472
 20
35.09814362233238
 30
0.0
 11
30.91055310860861
 21
35.09814362233238
 31
0.0
  0
ARC
  5
1F06
  8
0
 10
30.910553108607932
 20
35.498143622331781
 30
0.0
 40
0.3999999999993946
 50
180.0
 51
270.00000000008788
  0
LINE
  5
1F07
  8
0
 10
30.510553108608519
 20
35.498143622331781
 30
0.0
 11
30.510553108608519
 21
37.868143622332347
 31
0.0
  0
LINE
  5
1F09
  8
0
 10
34.130553108608531
 20
22.098143622332369
 30
0.0
 11
34.130553108608531
 21
37.298143622331906
 31
0.0
  0
LINE
  5
1F0A
  8
0
 10
37.130553108608517
 20
26.718143622332381
 30
0.0
 11
37.350399419001519
 21
26.114120848777361
 31
0.0
  0
ARC
  5
1F0B
  8
0
 10
37.930553108609047
 20
37.298143622331906
 30
0.0
 40
0.8000000000004661
 50
90.000000000032571
 51
180.0
  0
LINE
  5
1F0C
  8
0
 10
37.130553108608517
 20
37.298143622331906
 30
0.0
 11
37.130553108608517
 21
26.718143622332381
 31
0.0
  0
ARC
  5
1F0D
  8
0
 10
36.880553108606591
 20
25.943110777114299
 30
0.0
 40
0.5000000000020181
 50
0.0000000000195413
 51
19.999999999944961
  0
LINE
  5
1F0E
  8
0
 10
37.380553108608531
 20
25.94311077711447
 30
0.0
 11
37.380553108608531
 21
25.586771142215412
 31
0.0
  0
ARC
  5
1F0F
  8
0
 10
36.88055310860841
 20
25.586771142215412
 30
0.0
 40
0.5000000000001421
 50
325.99999999999949
 51
0.0
  0
LINE
  5
1F10
  8
0
 10
37.295071894886057
 20
25.307174690479972
 30
0.0
 11
35.332905663661222
 21
22.39814362233238
 31
0.0
  0
ARC
  5
1F11
  8
0
 10
33.330553108608001
 20
37.298143622331906
 30
0.0
 40
0.8000000000004661
 50
0.0
 51
90.0
  0
CIRCLE
  5
1F12
  8
0
 10
43.530553108608501
 20
48.99814362233235
 30
0.0
 40
2.75
  0
LINE
  5
1F39
  8
0
 10
55.610553108608542
 20
72.394468622331942
 30
0.0
 11
56.601469948112481
 21
72.921348451888434
 31
0.0
  0
LINE
  5
1F3A
  8
0
 10
55.610553108608542
 20
72.394468622331942
 30
0.0
 11
31.450553108608581
 21
72.394468622331942
 31
0.0
  0
LINE
  5
1F3B
  8
0
 10
30.459636269104411
 20
72.921348451888321
 30
0.0
 11
31.450553108608581
 21
72.394468622331942
 31
0.0
  0
LINE
  5
1F3C
  8
0
 10
29.794463946431168
 20
73.275026849533901
 30
0.0
 11
30.459636269104411
 21
72.921348451888363
 31
0.0
  0
LINE
  5
1F3D
  8
0
 10
29.530553108608501
 20
88.394468622331829
 30
0.0
 11
29.794463946431168
 21
73.275026849533333
 31
0.0
  0
LINE
  5
1F3F
  8
0
 10
57.266642270785383
 20
73.27502684953447
 30
0.0
 11
57.530553108608387
 21
88.394468622332397
 31
0.0
  0
LINE
  5
1F40
  8
0
 10
56.601469948112481
 20
72.921348451888491
 30
0.0
 11
57.266642270785383
 21
73.275026849533901
 31
0.0
  0
LINE
  5
1F41
  8
0
 10
57.530553108608501
 20
88.394468622331885
 30
0.0
 11
29.530553108608501
 21
88.394468622331885
 31
0.0
  0
ARC
  5
1F42
  8
0
 10
37.030592033580213
 20
92.394468622331715
 30
0.0
 40
0.9999999999998011
 50
269.99999999999352
 51
343.00000000000961
  0
LINE
  5
1F43
  8
0
 10
40.000054879343558
 20
98.686840327054725
 30
0.0
 11
37.986896789543039
 21
92.102096917609231
 31
0.0
  0
ARC
  5
1F44
  8
0
 10
40.956359635305262
 20
98.394468622333662
 30
0.0
 40
0.9999999999983114
 50
89.999999999931603
 51
163.00000000007131
  0
LINE
  5
1F45
  8
0
 10
49.074209427673509
 20
92.102096917609231
 30
0.0
 11
47.06105133787355
 21
98.686840327054725
 31
0.0
  0
ARC
  5
1F46
  8
0
 10
50.030514183637138
 20
92.394468622332738
 30
0.0
 40
1.0000000000007949
 50
197.00000000003459
 51
269.99999999996419
  0
LINE
  5
1F47
  8
0
 10
56.530553108609183
 20
91.394468622331942
 30
0.0
 11
50.030514183636569
 21
91.394468622331942
 31
0.0
  0
ARC
  5
1F48
  8
0
 10
56.530553108609183
 20
90.394468622332624
 30
0.0
 40
0.9999999999993178
 50
359.9999999999593
 51
90.0
  0
LINE
  5
1F49
  8
0
 10
57.530553108608501
 20
90.394468622331942
 30
0.0
 11
57.530553108608501
 21
88.394468622331928
 31
0.0
  0
LINE
  5
1F4A
  8
0
 10
29.530553108608501
 20
90.394468622331942
 30
0.0
 11
29.530553108608501
 21
88.394468622331928
 31
0.0
  0
ARC
  5
1F4B
  8
0
 10
30.530553108608618
 20
90.394468622331942
 30
0.0
 40
1.0000000000000711
 50
90.000000000003254
 51
180.0
  0
LINE
  5
1F4C
  8
0
 10
37.030592033579978
 20
91.394468622331942
 30
0.0
 11
30.530553108608501
 21
91.394468622331942
 31
0.0
  0
LINE
  5
1F4D
  8
0
 10
46.104746581910597
 20
99.394468622331956
 30
0.0
 11
40.956359635306512
 21
99.394468622331956
 31
0.0
  0
ARC
  5
1F4E
  8
0
 10
46.104746581911741
 20
98.394468622333662
 30
0.0
 40
0.9999999999983033
 50
16.99999999992696
 51
90.000000000068383
  0
ARC
  5
2028
  8
0
 10
126.5745170537177
 20
42.448729700231397
 30
0.0
 40
3.6615742374554752
 50
291.35600426943262
 51
304.53527939226672
  0
POLYLINE
  5
2029
  8
0
 66
     1
 10
0.0
 20
0.0
 30
0.0
 70
   128
  0
VERTEX
  5
23CF
  8
0
 10
127.9079223236191
 20
39.038574823602403
 30
0.0
  0
VERTEX
  5
23D0
  8
0
 10
127.7268460818229
 20
38.988416952243881
 30
0.0
  0
VERTEX
  5
23D1
  8
0
 10
127.6940084507722
 20
38.972715684629861
 30
0.0
  0
SEQEND
  5
23D2
  8
0
  0
LINE
  5
202B
  8
0
 10
128.65031320673529
 20
40.598143622332373
 30
0.0
 11
128.65031320673529
 21
39.432408061626688
 31
0.0
  0
LINE
  5
202D
  8
0
 10
128.65031320673529
 20
39.432408061626688
 30
0.0
 11
133.7987001533393
 21
39.432408061626688
 31
0.0
  0
ARC
  5
202E
  8
0
 10
135.87449630494439
 20
42.448729697562889
 30
0.0
 40
3.6615742344558759
 50
235.4647206022818
 51
248.64399573594571
  0
LINE
  5
2030
  8
0
 10
133.7987001533393
 20
40.598143622332373
 30
0.0
 11
133.7987001533393
 21
39.432408061626688
 31
0.0
  0
POLYLINE
  5
2033
  8
0
 66
     1
 10
0.0
 20
0.0
 30
0.0
 70
   128
  0
VERTEX
  5
23D3
  8
0
 10
134.75500490930219
 20
38.972715684629861
 30
0.0
  0
VERTEX
  5
23D4
  8
0
 10
134.602736557546
 20
39.025230648835361
 30
0.0
  0
VERTEX
  5
23D5
  8
0
 10
134.5410910364553
 20
39.038574823602403
 30
0.0
  0
SEQEND
  5
23D6
  8
0
  0
LINE
  5
2035
  8
0
 10
125.6245066800379
 20
38.098143622332373
 30
0.0
 11
136.82450668003699
 21
38.098143622332373
 31
0.0
  0
LINE
  5
2037
  8
0
 10
118.22450668003709
 20
38.171958775421452
 30
0.0
 11
117.9134550811508
 21
38.169536375856531
 31
0.0
  0
LINE
  5
2038
  8
0
 10
124.7245456050092
 20
38.171958775421452
 30
0.0
 11
118.22450668003709
 21
38.171958775421452
 31
0.0
  0
ARC
  5
2039
  8
0
 10
124.885313906067
 20
45.980811809010163
 30
0.0
 40
7.8105078033897719
 50
268.82056379222399
 51
275.84597888129139
  0
POLYLINE
  5
203A
  8
0
 10
125.68085036097298
 20
38.210924171744878
 30
0.0
 66
     1
 70
     8
  0
VERTEX
  8
0
  5
23DF
 10
125.681
 20
38.2109
 30
0.000000
  70
    32
  0
VERTEX
  8
0
  5
23E0
 10
125.697
 20
38.2141
 30
0.000000
  70
    32
  0
VERTEX
  8
0
  5
23E1
 10
125.712
 20
38.2173
 30
0.000000
  70
    32
  0
VERTEX
  8
0
  5
23E2
 10
125.728
 20
38.2206
 30
0.000000
  70
    32
  0
VERTEX
  8
0
  5
23E3
 10
125.744
 20
38.2239
 30
0.000000
  70
    32
  0
VERTEX
  8
0
  5
23E4
 10
125.760
 20
38.2272
 30
0.000000
  70
    32
  0
VERTEX
  8
0
  5
23E5
 10
125.776
 20
38.2306
 30
0.000000
  70
    32
  0
VERTEX
  8
0
  5
23E6
 10
125.792
 20
38.2340
 30
0.000000
  70
    32
  0
VERTEX
  8
0
  5
23E7
 10
125.807
 20
38.2375
 30
0.000000
  70
    32
  0
VERTEX
  8
0
  5
23E8
 10
125.823
 20
38.2410
 30
0.000000
  70
    32
  0
VERTEX
  8
0
  5
23E9
 10
125.839
 20
38.2446
 30
0.000000
  70
    32
  0
VERTEX
  8
0
  5
23EA
 10
125.855
 20
38.2482
 30
0.000000
  70
    32
  0
VERTEX
  8
0
  5
23EB
 10
125.871
 20
38.2519
 30
0.000000
  70
    32
  0
VERTEX
  8
0
  5
23EC
 10
125.886
 20
38.2556
 30
0.000000
  70
    32
  0
VERTEX
  8
0
  5
23ED
 10
125.902
 20
38.2593
 30
0.000000
  70
    32
  0
VERTEX
  8
0
  5
23EE
 10
125.918
 20
38.2631
 30
0.000000
  70
    32
  0
VERTEX
  8
0
  5
23EF
 10
125.934
 20
38.2669
 30
0.000000
  70
    32
  0
VERTEX
  8
0
  5
23F0
 10
125.950
 20
38.2708
 30
0.000000
  70
    32
  0
VERTEX
  8
0
  5
23F1
 10
125.965
 20
38.2747
 30
0.000000
  70
    32
  0
VERTEX
  8
0
  5
23F2
 10
125.981
 20
38.2787
 30
0.000000
  70
    32
  0
VERTEX
  8
0
  5
23F3
 10
125.997
 20
38.2827
 30
0.000000
  70
    32
  0
VERTEX
  8
0
  5
23F4
 10
126.013
 20
38.2867
 30
0.000000
  70
    32
  0
VERTEX
  8
0
  5
23F5
 10
126.028
 20
38.2908
 30
0.000000
  70
    32
  0
VERTEX
  8
0
  5
23F6
 10
126.044
 20
38.2950
 30
0.000000
  70
    32
  0
VERTEX
  8
0
  5
23F7
 10
126.060
 20
38.2991
 30
0.000000
  70
    32
  0
VERTEX
  8
0
  5
23F8
 10
126.076
 20
38.3034
 30
0.000000
  70
    32
  0
VERTEX
  8
0
  5
23F9
 10
126.092
 20
38.3076
 30
0.000000
  70
    32
  0
VERTEX
  8
0
  5
23FA
 10
126.107
 20
38.3120
 30
0.000000
  70
    32
  0
VERTEX
  8
0
  5
23FB
 10
126.123
 20
38.3163
 30
0.000000
  70
    32
  0
VERTEX
  8
0
  5
23FC
 10
126.139
 20
38.3207
 30
0.000000
  70
    32
  0
VERTEX
  8
0
  5
23FD
 10
126.155
 20
38.3252
 30
0.000000
  70
    32
  0
VERTEX
  8
0
  5
23FE
 10
126.171
 20
38.3296
 30
0.000000
  70
    32
  0
VERTEX
  8
0
  5
23FF
 10
126.186
 20
38.3342
 30
0.000000
  70
    32
  0
VERTEX
  8
0
  5
2400
 10
126.202
 20
38.3387
 30
0.000000
  70
    32
  0
VERTEX
  8
0
  5
2401
 10
126.218
 20
38.3434
 30
0.000000
  70
    32
  0
VERTEX
  8
0
  5
2402
 10
126.234
 20
38.3480
 30
0.000000
  70
    32
  0
VERTEX
  8
0
  5
2403
 10
126.249
 20
38.3527
 30
0.000000
  70
    32
  0
VERTEX
  8
0
  5
2404
 10
126.265
 20
38.3575
 30
0.000000
  70
    32
  0
VERTEX
  8
0
  5
2405
 10
126.281
 20
38.3623
 30
0.000000
  70
    32
  0
VERTEX
  8
0
  5
2406
 10
126.297
 20
38.3671
 30
0.000000
  70
    32
  0
VERTEX
  8
0
  5
2407
 10
126.313
 20
38.3720
 30
0.000000
  70
    32
  0
VERTEX
  8
0
  5
2408
 10
126.328
 20
38.3769
 30
0.000000
  70
    32
  0
VERTEX
  8
0
  5
2409
 10
126.344
 20
38.3819
 30
0.000000
  70
    32
  0
VERTEX
  8
0
  5
240A
 10
126.360
 20
38.3869
 30
0.000000
  70
    32
  0
VERTEX
  8
0
  5
240B
 10
126.376
 20
38.3920
 30
0.000000
  70
    32
  0
VERTEX
  8
0
  5
240C
 10
126.391
 20
38.3971
 30
0.000000
  70
    32
  0
VERTEX
  8
0
  5
240D
 10
126.407
 20
38.4022
 30
0.000000
  70
    32
  0
VERTEX
  8
0
  5
240E
 10
126.423
 20
38.4074
 30
0.000000
  70
    32
  0
VERTEX
  8
0
  5
240F
 10
126.439
 20
38.4126
 30
0.000000
  70
    32
  0
VERTEX
  8
0
  5
2410
 10
126.454
 20
38.4179
 30
0.000000
  70
    32
  0
VERTEX
  8
0
  5
2411
 10
126.470
 20
38.4232
 30
0.000000
  70
    32
  0
VERTEX
  8
0
  5
2412
 10
126.486
 20
38.4286
 30
0.000000
  70
    32
  0
VERTEX
  8
0
  5
2413
 10
126.502
 20
38.4340
 30
0.000000
  70
    32
  0
VERTEX
  8
0
  5
2414
 10
126.517
 20
38.4395
 30
0.000000
  70
    32
  0
VERTEX
  8
0
  5
2415
 10
126.533
 20
38.4450
 30
0.000000
  70
    32
  0
VERTEX
  8
0
  5
2416
 10
126.549
 20
38.4505
 30
0.000000
  70
    32
  0
VERTEX
  8
0
  5
2417
 10
126.565
 20
38.4561
 30
0.000000
  70
    32
  0
VERTEX
  8
0
  5
2418
 10
126.580
 20
38.4617
 30
0.000000
  70
    32
  0
VERTEX
  8
0
  5
2419
 10
126.596
 20
38.4674
 30
0.000000
  70
    32
  0
VERTEX
  8
0
  5
241A
 10
126.612
 20
38.4731
 30
0.000000
  70
    32
  0
VERTEX
  8
0
  5
241B
 10
126.628
 20
38.4788
 30
0.000000
  70
    32
  0
VERTEX
  8
0
  5
241C
 10
126.643
 20
38.4846
 30
0.000000
  70
    32
  0
VERTEX
  8
0
  5
241D
 10
126.659
 20
38.4905
 30
0.000000
  70
    32
  0
VERTEX
  8
0
  5
241E
 10
126.675
 20
38.4964
 30
0.000000
  70
    32
  0
VERTEX
  8
0
  5
241F
 10
126.691
 20
38.5023
 30
0.000000
  70
    32
  0
VERTEX
  8
0
  5
2420
 10
126.706
 20
38.5083
 30
0.000000
  70
    32
  0
VERTEX
  8
0
  5
2421
 10
126.722
 20
38.5143
 30
0.000000
  70
    32
  0
VERTEX
  8
0
  5
2422
 10
126.738
 20
38.5204
 30
0.000000
  70
    32
  0
VERTEX
  8
0
  5
2423
 10
126.754
 20
38.5265
 30
0.000000
  70
    32
  0
VERTEX
  8
0
  5
2424
 10
126.769
 20
38.5326
 30
0.000000
  70
    32
  0
VERTEX
  8
0
  5
2425
 10
126.785
 20
38.5388
 30
0.000000
  70
    32
  0
VERTEX
  8
0
  5
2426
 10
126.801
 20
38.5451
 30
0.000000
  70
    32
  0
VERTEX
  8
0
  5
2427
 10
126.816
 20
38.5513
 30
0.000000
  70
    32
  0
VERTEX
  8
0
  5
2428
 10
126.832
 20
38.5577
 30
0.000000
  70
    32
  0
VERTEX
  8
0
  5
2429
 10
126.848
 20
38.5640
 30
0.000000
  70
    32
  0
VERTEX
  8
0
  5
242A
 10
126.864
 20
38.5705
 30
0.000000
  70
    32
  0
VERTEX
  8
0
  5
242B
 10
126.879
 20
38.5769
 30
0.000000
  70
    32
  0
VERTEX
  8
0
  5
242C
 10
126.895
 20
38.5834
 30
0.000000
  70
    32
  0
VERTEX
  8
0
  5
242D
 10
126.911
 20
38.5900
 30
0.000000
  70
    32
  0
VERTEX
  8
0
  5
242E
 10
126.926
 20
38.5965
 30
0.000000
  70
    32
  0
VERTEX
  8
0
  5
242F
 10
126.942
 20
38.6032
 30
0.000000
  70
    32
  0
VERTEX
  8
0
  5
2430
 10
126.958
 20
38.6098
 30
0.000000
  70
    32
  0
VERTEX
  8
0
  5
2431
 10
126.974
 20
38.6166
 30
0.000000
  70
    32
  0
VERTEX
  8
0
  5
2432
 10
126.989
 20
38.6233
 30
0.000000
  70
    32
  0
VERTEX
  8
0
  5
2433
 10
127.005
 20
38.6301
 30
0.000000
  70
    32
  0
VERTEX
  8
0
  5
2434
 10
127.021
 20
38.6370
 30
0.000000
  70
    32
  0
VERTEX
  8
0
  5
2435
 10
127.036
 20
38.6439
 30
0.000000
  70
    32
  0
VERTEX
  8
0
  5
2436
 10
127.052
 20
38.6508
 30
0.000000
  70
    32
  0
VERTEX
  8
0
  5
2437
 10
127.068
 20
38.6578
 30
0.000000
  70
    32
  0
VERTEX
  8
0
  5
2438
 10
127.083
 20
38.6648
 30
0.000000
  70
    32
  0
VERTEX
  8
0
  5
2439
 10
127.099
 20
38.6719
 30
0.000000
  70
    32
  0
VERTEX
  8
0
  5
243A
 10
127.115
 20
38.6790
 30
0.000000
  70
    32
  0
VERTEX
  8
0
  5
243B
 10
127.131
 20
38.6862
 30
0.000000
  70
    32
  0
VERTEX
  8
0
  5
243C
 10
127.146
 20
38.6934
 30
0.000000
  70
    32
  0
VERTEX
  8
0
  5
243D
 10
127.162
 20
38.7006
 30
0.000000
  70
    32
  0
VERTEX
  8
0
  5
243E
 10
127.178
 20
38.7079
 30
0.000000
  70
    32
  0
VERTEX
  8
0
  5
243F
 10
127.193
 20
38.7152
 30
0.000000
  70
    32
  0
VERTEX
  8
0
  5
2440
 10
127.209
 20
38.7226
 30
0.000000
  70
    32
  0
VERTEX
  8
0
  5
2441
 10
127.225
 20
38.7300
 30
0.000000
  70
    32
  0
VERTEX
  8
0
  5
2442
 10
127.240
 20
38.7375
 30
0.000000
  70
    32
  0
VERTEX
  8
0
  5
2443
 10
127.256
 20
38.7450
 30
0.000000
  70
    32
  0
VERTEX
  8
0
  5
2444
 10
127.272
 20
38.7525
 30
0.000000
  70
    32
  0
VERTEX
  8
0
  5
2445
 10
127.287
 20
38.7601
 30
0.000000
  70
    32
  0
VERTEX
  8
0
  5
2446
 10
127.303
 20
38.7677
 30
0.000000
  70
    32
  0
VERTEX
  8
0
  5
2447
 10
127.319
 20
38.7754
 30
0.000000
  70
    32
  0
VERTEX
  8
0
  5
2448
 10
127.334
 20
38.7831
 30
0.000000
  70
    32
  0
VERTEX
  8
0
  5
2449
 10
127.350
 20
38.7909
 30
0.000000
  70
    32
  0
VERTEX
  8
0
  5
244A
 10
127.366
 20
38.7987
 30
0.000000
  70
    32
  0
VERTEX
  8
0
  5
244B
 10
127.381
 20
38.8066
 30
0.000000
  70
    32
  0
VERTEX
  8
0
  5
244C
 10
127.397
 20
38.8145
 30
0.000000
  70
    32
  0
VERTEX
  8
0
  5
244D
 10
127.413
 20
38.8224
 30
0.000000
  70
    32
  0
VERTEX
  8
0
  5
244E
 10
127.428
 20
38.8304
 30
0.000000
  70
    32
  0
VERTEX
  8
0
  5
244F
 10
127.444
 20
38.8384
 30
0.000000
  70
    32
  0
VERTEX
  8
0
  5
2450
 10
127.460
 20
38.8465
 30
0.000000
  70
    32
  0
VERTEX
  8
0
  5
2451
 10
127.475
 20
38.8546
 30
0.000000
  70
    32
  0
VERTEX
  8
0
  5
2452
 10
127.491
 20
38.8627
 30
0.000000
  70
    32
  0
VERTEX
  8
0
  5
2453
 10
127.506
 20
38.8709
 30
0.000000
  70
    32
  0
VERTEX
  8
0
  5
2454
 10
127.522
 20
38.8792
 30
0.000000
  70
    32
  0
VERTEX
  8
0
  5
2455
 10
127.538
 20
38.8875
 30
0.000000
  70
    32
  0
VERTEX
  8
0
  5
2456
 10
127.553
 20
38.8958
 30
0.000000
  70
    32
  0
VERTEX
  8
0
  5
2457
 10
127.569
 20
38.9042
 30
0.000000
  70
    32
  0
VERTEX
  8
0
  5
2458
 10
127.585
 20
38.9126
 30
0.000000
  70
    32
  0
VERTEX
  8
0
  5
2459
 10
127.600
 20
38.9210
 30
0.000000
  70
    32
  0
VERTEX
  8
0
  5
245A
 10
127.616
 20
38.9295
 30
0.000000
  70
    32
  0
VERTEX
  8
0
  5
245B
 10
127.632
 20
38.9381
 30
0.000000
  70
    32
  0
VERTEX
  8
0
  5
245C
 10
127.647
 20
38.9467
 30
0.000000
  70
    32
  0
VERTEX
  8
0
  5
245D
 10
127.663
 20
38.9553
 30
0.000000
  70
    32
  0
VERTEX
  8
0
  5
245E
 10
127.678
 20
38.9640
 30
0.000000
  70
    32
  0
VERTEX
  8
0
  5
245F
 10
127.694
 20
38.9727
 30
0.000000
  70
    32
  0
SEQEND
  8
0
  5
2460
  0
POLYLINE
  5
203B
  8
0
 10
134.75500490930216
 20
38.972715684629826
 30
0.0
 66
     1
 70
     8
  0
VERTEX
  8
0
  5
2461
 10
134.755
 20
38.9727
 30
0.000000
  70
    32
  0
VERTEX
  8
0
  5
2462
 10
134.771
 20
38.9640
 30
0.000000
  70
    32
  0
VERTEX
  8
0
  5
2463
 10
134.786
 20
38.9553
 30
0.000000
  70
    32
  0
VERTEX
  8
0
  5
2464
 10
134.802
 20
38.9467
 30
0.000000
  70
    32
  0
VERTEX
  8
0
  5
2465
 10
134.817
 20
38.9381
 30
0.000000
  70
    32
  0
VERTEX
  8
0
  5
2466
 10
134.833
 20
38.9295
 30
0.000000
  70
    32
  0
VERTEX
  8
0
  5
2467
 10
134.849
 20
38.9210
 30
0.000000
  70
    32
  0
VERTEX
  8
0
  5
2468
 10
134.864
 20
38.9126
 30
0.000000
  70
    32
  0
VERTEX
  8
0
  5
2469
 10
134.880
 20
38.9042
 30
0.000000
  70
    32
  0
VERTEX
  8
0
  5
246A
 10
134.896
 20
38.8958
 30
0.000000
  70
    32
  0
VERTEX
  8
0
  5
246B
 10
134.911
 20
38.8875
 30
0.000000
  70
    32
  0
VERTEX
  8
0
  5
246C
 10
134.927
 20
38.8792
 30
0.000000
  70
    32
  0
VERTEX
  8
0
  5
246D
 10
134.943
 20
38.8709
 30
0.000000
  70
    32
  0
VERTEX
  8
0
  5
246E
 10
134.958
 20
38.8627
 30
0.000000
  70
    32
  0
VERTEX
  8
0
  5
246F
 10
134.974
 20
38.8546
 30
0.000000
  70
    32
  0
VERTEX
  8
0
  5
2470
 10
134.989
 20
38.8465
 30
0.000000
  70
    32
  0
VERTEX
  8
0
  5
2471
 10
135.005
 20
38.8384
 30
0.000000
  70
    32
  0
VERTEX
  8
0
  5
2472
 10
135.021
 20
38.8304
 30
0.000000
  70
    32
  0
VERTEX
  8
0
  5
2473
 10
135.036
 20
38.8224
 30
0.000000
  70
    32
  0
VERTEX
  8
0
  5
2474
 10
135.052
 20
38.8145
 30
0.000000
  70
    32
  0
VERTEX
  8
0
  5
2475
 10
135.068
 20
38.8066
 30
0.000000
  70
    32
  0
VERTEX
  8
0
  5
2476
 10
135.083
 20
38.7987
 30
0.000000
  70
    32
  0
VERTEX
  8
0
  5
2477
 10
135.099
 20
38.7909
 30
0.000000
  70
    32
  0
VERTEX
  8
0
  5
2478
 10
135.115
 20
38.7831
 30
0.000000
  70
    32
  0
VERTEX
  8
0
  5
2479
 10
135.130
 20
38.7754
 30
0.000000
  70
    32
  0
VERTEX
  8
0
  5
247A
 10
135.146
 20
38.7677
 30
0.000000
  70
    32
  0
VERTEX
  8
0
  5
247B
 10
135.162
 20
38.7601
 30
0.000000
  70
    32
  0
VERTEX
  8
0
  5
247C
 10
135.177
 20
38.7525
 30
0.000000
  70
    32
  0
VERTEX
  8
0
  5
247D
 10
135.193
 20
38.7450
 30
0.000000
  70
    32
  0
VERTEX
  8
0
  5
247E
 10
135.209
 20
38.7375
 30
0.000000
  70
    32
  0
VERTEX
  8
0
  5
247F
 10
135.224
 20
38.7300
 30
0.000000
  70
    32
  0
VERTEX
  8
0
  5
2480
 10
135.240
 20
38.7226
 30
0.000000
  70
    32
  0
VERTEX
  8
0
  5
2481
 10
135.256
 20
38.7152
 30
0.000000
  70
    32
  0
VERTEX
  8
0
  5
2482
 10
135.271
 20
38.7079
 30
0.000000
  70
    32
  0
VERTEX
  8
0
  5
2483
 10
135.287
 20
38.7006
 30
0.000000
  70
    32
  0
VERTEX
  8
0
  5
2484
 10
135.303
 20
38.6934
 30
0.000000
  70
    32
  0
VERTEX
  8
0
  5
2485
 10
135.318
 20
38.6862
 30
0.000000
  70
    32
  0
VERTEX
  8
0
  5
2486
 10
135.334
 20
38.6790
 30
0.000000
  70
    32
  0
VERTEX
  8
0
  5
2487
 10
135.350
 20
38.6719
 30
0.000000
  70
    32
  0
VERTEX
  8
0
  5
2488
 10
135.366
 20
38.6648
 30
0.000000
  70
    32
  0
VERTEX
  8
0
  5
2489
 10
135.381
 20
38.6578
 30
0.000000
  70
    32
  0
VERTEX
  8
0
  5
248A
 10
135.397
 20
38.6508
 30
0.000000
  70
    32
  0
VERTEX
  8
0
  5
248B
 10
135.413
 20
38.6439
 30
0.000000
  70
    32
  0
VERTEX
  8
0
  5
248C
 10
135.428
 20
38.6370
 30
0.000000
  70
    32
  0
VERTEX
  8
0
  5
248D
 10
135.444
 20
38.6301
 30
0.000000
  70
    32
  0
VERTEX
  8
0
  5
248E
 10
135.460
 20
38.6233
 30
0.000000
  70
    32
  0
VERTEX
  8
0
  5
248F
 10
135.475
 20
38.6166
 30
0.000000
  70
    32
  0
VERTEX
  8
0
  5
2490
 10
135.491
 20
38.6098
 30
0.000000
  70
    32
  0
VERTEX
  8
0
  5
2491
 10
135.507
 20
38.6032
 30
0.000000
  70
    32
  0
VERTEX
  8
0
  5
2492
 10
135.523
 20
38.5965
 30
0.000000
  70
    32
  0
VERTEX
  8
0
  5
2493
 10
135.538
 20
38.5900
 30
0.000000
  70
    32
  0
VERTEX
  8
0
  5
2494
 10
135.554
 20
38.5834
 30
0.000000
  70
    32
  0
VERTEX
  8
0
  5
2495
 10
135.570
 20
38.5769
 30
0.000000
  70
    32
  0
VERTEX
  8
0
  5
2496
 10
135.585
 20
38.5705
 30
0.000000
  70
    32
  0
VERTEX
  8
0
  5
2497
 10
135.601
 20
38.5640
 30
0.000000
  70
    32
  0
VERTEX
  8
0
  5
2498
 10
135.617
 20
38.5577
 30
0.000000
  70
    32
  0
VERTEX
  8
0
  5
2499
 10
135.633
 20
38.5513
 30
0.000000
  70
    32
  0
VERTEX
  8
0
  5
249A
 10
135.648
 20
38.5451
 30
0.000000
  70
    32
  0
VERTEX
  8
0
  5
249B
 10
135.664
 20
38.5388
 30
0.000000
  70
    32
  0
VERTEX
  8
0
  5
249C
 10
135.680
 20
38.5326
 30
0.000000
  70
    32
  0
VERTEX
  8
0
  5
249D
 10
135.695
 20
38.5265
 30
0.000000
  70
    32
  0
VERTEX
  8
0
  5
249E
 10
135.711
 20
38.5204
 30
0.000000
  70
    32
  0
VERTEX
  8
0
  5
249F
 10
135.727
 20
38.5143
 30
0.000000
  70
    32
  0
VERTEX
  8
0
  5
24A0
 10
135.743
 20
38.5083
 30
0.000000
  70
    32
  0
VERTEX
  8
0
  5
24A1
 10
135.758
 20
38.5023
 30
0.000000
  70
    32
  0
VERTEX
  8
0
  5
24A2
 10
135.774
 20
38.4964
 30
0.000000
  70
    32
  0
VERTEX
  8
0
  5
24A3
 10
135.790
 20
38.4905
 30
0.000000
  70
    32
  0
VERTEX
  8
0
  5
24A4
 10
135.806
 20
38.4846
 30
0.000000
  70
    32
  0
VERTEX
  8
0
  5
24A5
 10
135.821
 20
38.4788
 30
0.000000
  70
    32
  0
VERTEX
  8
0
  5
24A6
 10
135.837
 20
38.4731
 30
0.000000
  70
    32
  0
VERTEX
  8
0
  5
24A7
 10
135.853
 20
38.4674
 30
0.000000
  70
    32
  0
VERTEX
  8
0
  5
24A8
 10
135.869
 20
38.4617
 30
0.000000
  70
    32
  0
VERTEX
  8
0
  5
24A9
 10
135.884
 20
38.4561
 30
0.000000
  70
    32
  0
VERTEX
  8
0
  5
24AA
 10
135.900
 20
38.4505
 30
0.000000
  70
    32
  0
VERTEX
  8
0
  5
24AB
 10
135.916
 20
38.4450
 30
0.000000
  70
    32
  0
VERTEX
  8
0
  5
24AC
 10
135.932
 20
38.4395
 30
0.000000
  70
    32
  0
VERTEX
  8
0
  5
24AD
 10
135.947
 20
38.4340
 30
0.000000
  70
    32
  0
VERTEX
  8
0
  5
24AE
 10
135.963
 20
38.4286
 30
0.000000
  70
    32
  0
VERTEX
  8
0
  5
24AF
 10
135.979
 20
38.4232
 30
0.000000
  70
    32
  0
VERTEX
  8
0
  5
24B0
 10
135.995
 20
38.4179
 30
0.000000
  70
    32
  0
VERTEX
  8
0
  5
24B1
 10
136.010
 20
38.4126
 30
0.000000
  70
    32
  0
VERTEX
  8
0
  5
24B2
 10
136.026
 20
38.4074
 30
0.000000
  70
    32
  0
VERTEX
  8
0
  5
24B3
 10
136.042
 20
38.4022
 30
0.000000
  70
    32
  0
VERTEX
  8
0
  5
24B4
 10
136.058
 20
38.3971
 30
0.000000
  70
    32
  0
VERTEX
  8
0
  5
24B5
 10
136.073
 20
38.3920
 30
0.000000
  70
    32
  0
VERTEX
  8
0
  5
24B6
 10
136.089
 20
38.3869
 30
0.000000
  70
    32
  0
VERTEX
  8
0
  5
24B7
 10
136.105
 20
38.3819
 30
0.000000
  70
    32
  0
VERTEX
  8
0
  5
24B8
 10
136.121
 20
38.3769
 30
0.000000
  70
    32
  0
VERTEX
  8
0
  5
24B9
 10
136.136
 20
38.3720
 30
0.000000
  70
    32
  0
VERTEX
  8
0
  5
24BA
 10
136.152
 20
38.3671
 30
0.000000
  70
    32
  0
VERTEX
  8
0
  5
24BB
 10
136.168
 20
38.3623
 30
0.000000
  70
    32
  0
VERTEX
  8
0
  5
24BC
 10
136.184
 20
38.3575
 30
0.000000
  70
    32
  0
VERTEX
  8
0
  5
24BD
 10
136.200
 20
38.3527
 30
0.000000
  70
    32
  0
VERTEX
  8
0
  5
24BE
 10
136.215
 20
38.3480
 30
0.000000
  70
    32
  0
VERTEX
  8
0
  5
24BF
 10
136.231
 20
38.3434
 30
0.000000
  70
    32
  0
VERTEX
  8
0
  5
24C0
 10
136.247
 20
38.3387
 30
0.000000
  70
    32
  0
VERTEX
  8
0
  5
24C1
 10
136.263
 20
38.3342
 30
0.000000
  70
    32
  0
VERTEX
  8
0
  5
24C2
 10
136.278
 20
38.3296
 30
0.000000
  70
    32
  0
VERTEX
  8
0
  5
24C3
 10
136.294
 20
38.3252
 30
0.000000
  70
    32
  0
VERTEX
  8
0
  5
24C4
 10
136.310
 20
38.3207
 30
0.000000
  70
    32
  0
VERTEX
  8
0
  5
24C5
 10
136.326
 20
38.3163
 30
0.000000
  70
    32
  0
VERTEX
  8
0
  5
24C6
 10
136.342
 20
38.3120
 30
0.000000
  70
    32
  0
VERTEX
  8
0
  5
24C7
 10
136.357
 20
38.3076
 30
0.000000
  70
    32
  0
VERTEX
  8
0
  5
24C8
 10
136.373
 20
38.3034
 30
0.000000
  70
    32
  0
VERTEX
  8
0
  5
24C9
 10
136.389
 20
38.2991
 30
0.000000
  70
    32
  0
VERTEX
  8
0
  5
24CA
 10
136.405
 20
38.2950
 30
0.000000
  70
    32
  0
VERTEX
  8
0
  5
24CB
 10
136.421
 20
38.2908
 30
0.000000
  70
    32
  0
VERTEX
  8
0
  5
24CC
 10
136.436
 20
38.2867
 30
0.000000
  70
    32
  0
VERTEX
  8
0
  5
24CD
 10
136.452
 20
38.2827
 30
0.000000
  70
    32
  0
VERTEX
  8
0
  5
24CE
 10
136.468
 20
38.2787
 30
0.000000
  70
    32
  0
VERTEX
  8
0
  5
24CF
 10
136.484
 20
38.2747
 30
0.000000
  70
    32
  0
VERTEX
  8
0
  5
24D0
 10
136.499
 20
38.2708
 30
0.000000
  70
    32
  0
VERTEX
  8
0
  5
24D1
 10
136.515
 20
38.2669
 30
0.000000
  70
    32
  0
VERTEX
  8
0
  5
24D2
 10
136.531
 20
38.2631
 30
0.000000
  70
    32
  0
VERTEX
  8
0
  5
24D3
 10
136.547
 20
38.2593
 30
0.000000
  70
    32
  0
VERTEX
  8
0
  5
24D4
 10
136.563
 20
38.2556
 30
0.000000
  70
    32
  0
VERTEX
  8
0
  5
24D5
 10
136.578
 20
38.2519
 30
0.000000
  70
    32
  0
VERTEX
  8
0
  5
24D6
 10
136.594
 20
38.2482
 30
0.000000
  70
    32
  0
VERTEX
  8
0
  5
24D7
 10
136.610
 20
38.2446
 30
0.000000
  70
    32
  0
VERTEX
  8
0
  5
24D8
 10
136.626
 20
38.2410
 30
0.000000
  70
    32
  0
VERTEX
  8
0
  5
24D9
 10
136.642
 20
38.2375
 30
0.000000
  70
    32
  0
VERTEX
  8
0
  5
24DA
 10
136.658
 20
38.2340
 30
0.000000
  70
    32
  0
VERTEX
  8
0
  5
24DB
 10
136.673
 20
38.2306
 30
0.000000
  70
    32
  0
VERTEX
  8
0
  5
24DC
 10
136.689
 20
38.2272
 30
0.000000
  70
    32
  0
VERTEX
  8
0
  5
24DD
 10
136.705
 20
38.2239
 30
0.000000
  70
    32
  0
VERTEX
  8
0
  5
24DE
 10
136.721
 20
38.2206
 30
0.000000
  70
    32
  0
VERTEX
  8
0
  5
24DF
 10
136.737
 20
38.2173
 30
0.000000
  70
    32
  0
VERTEX
  8
0
  5
24E0
 10
136.752
 20
38.2141
 30
0.000000
  70
    32
  0
VERTEX
  8
0
  5
24E1
 10
136.768
 20
38.2109
 30
0.000000
  70
    32
  0
SEQEND
  8
0
  5
24E2
  0
ARC
  5
203C
  8
0
 10
137.54218166949269
 20
45.452713506124489
 30
0.0
 40
7.283036294406898
 50
263.89925959553022
 51
271.43419773095479
  0
LINE
  5
203D
  8
0
 10
144.22450668003711
 20
38.171958775421452
 30
0.0
 11
137.72446775506569
 21
38.171958775421452
 31
0.0
  0
POLYLINE
  5
203E
  8
0
 66
     1
 10
0.0
 20
0.0
 30
0.0
 70
   128
  0
VERTEX
  5
23D7
  8
0
 10
144.5355582789235
 20
38.169536375856467
 30
0.0
  0
VERTEX
  5
23D8
  8
0
 10
144.4432459095255
 20
38.17077117411646
 30
0.0
  0
VERTEX
  5
23D9
  8
0
 10
144.22450668003711
 20
38.171958775421452
 30
0.0
  0
SEQEND
  5
23DA
  8
0
  0
LINE
  5
2040
  8
0
 10
125.6808503609721
 20
40.598143622332373
 30
0.0
 11
125.6808503609721
 21
38.21092417174475
 31
0.0
  0
LINE
  5
2042
  8
0
 10
136.7681629991026
 20
40.598143622332373
 30
0.0
 11
136.7681629991026
 21
38.21092417174475
 31
0.0
  0
LINE
  5
2048
  8
0
 10
118.2045066800372
 20
37.868143622332347
 30
0.0
 11
117.22450668003709
 21
38.882963329847371
 31
0.0
  0
LINE
  5
204B
  8
0
 10
117.22450668003709
 20
40.598143622332373
 30
0.0
 11
145.224506680037
 21
40.598143622332373
 31
0.0
  0
LINE
  5
204D
  8
0
 10
145.22450668003711
 20
38.882963329847371
 30
0.0
 11
144.24450668003709
 21
37.868143622332347
 31
0.0
  0
ARC
  5
2052
  8
0
 10
141.224506680037
 20
50.830921730036039
 30
0.0
 40
4.0000000000000986
 50
0.0000000000048853
 51
75.555696446028008
  0
LINE
  5
2053
  8
0
 10
145.22450668003711
 20
38.882963329847321
 30
0.0
 11
145.22450668003711
 21
50.83092173003638
 31
0.0
  0
ARC
  5
2054
  8
0
 10
131.22450668003719
 20
12.008143622332049
 30
0.0
 40
44.090000000000302
 50
75.555696446028008
 51
104.44430355397201
  0
CIRCLE
  5
2055
  8
0
 10
131.22450668003719
 20
48.99814362233235
 30
0.0
 40
2.750000000000028
  0
ARC
  5
2056
  8
0
 10
121.22450668003709
 20
50.830921730036202
 30
0.0
 40
4.0
 50
104.44430355397201
 51
180.0
  0
LINE
  5
2057
  8
0
 10
117.22450668003709
 20
38.882963329847428
 30
0.0
 11
117.22450668003709
 21
50.830921730036202
 31
0.0
  0
ARC
  5
2058
  8
0
 10
120.81450668003301
 20
37.698143622336488
 30
0.0
 40
0.3999999999958561
 50
89.999999999592887
 51
180.00000000059279
  0
ARC
  5
205D
  8
0
 10
125.6245066800379
 20
37.298143622331558
 30
0.0
 40
0.8000000000008071
 50
90.0
 51
179.99999999994299
  0
ARC
  5
205F
  8
0
 10
121.0245066800363
 20
37.298143622331558
 30
0.0
 40
0.8000000000008071
 50
0.0000000000569955
 51
89.99999999994138
  0
ARC
  5
2060
  8
0
 10
141.42450668003761
 20
37.298143622331743
 30
0.0
 40
0.8000000000006367
 50
90.0
 51
179.99999999995441
  0
ARC
  5
2062
  8
0
 10
136.82450668003659
 20
37.298143622331743
 30
0.0
 40
0.8000000000006367
 50
0.0000000000455964
 51
89.999999999964174
  0
ARC
  5
2066
  8
0
 10
141.6345066800408
 20
37.698143622335976
 30
0.0
 40
0.3999999999963677
 50
359.99999999948221
 51
90.000000000429935
  0
ARC
  5
2068
  8
0
 10
120.01450668003849
 20
35.498143622331099
 30
0.0
 40
0.3999999999987125
 50
269.99999999981111
 51
0.0000000001872711
  0
LINE
  5
2069
  8
0
 10
120.0145066800371
 20
35.09814362233238
 30
0.0
 11
118.6045066800371
 21
35.09814362233238
 31
0.0
  0
ARC
  5
206A
  8
0
 10
118.6045066800358
 20
35.498143622331099
 30
0.0
 40
0.3999999999987125
 50
179.9999999998127
 51
270.00000000018559
  0
LINE
  5
206B
  8
0
 10
120.41450668003699
 20
37.698143622336488
 30
0.0
 11
120.41450668003711
 21
35.49814362233235
 31
0.0
  0
LINE
  5
206C
  8
0
 10
118.2045066800372
 20
35.49814362233235
 30
0.0
 11
118.2045066800372
 21
37.868143622332347
 31
0.0
  0
ARC
  5
206E
  8
0
 10
122.6649938505177
 20
22.398143622416342
 30
0.0
 40
0.3000000000839887
 50
270.0000000040809
 51
325.99999999115238
  0
LINE
  5
206F
  8
0
 10
121.8245066800371
 20
22.098143622332369
 30
0.0
 11
122.6649938505391
 21
22.098143622332369
 31
0.0
  0
LINE
  5
2072
  8
0
 10
124.8245066800371
 20
37.298143622332361
 30
0.0
 11
124.8245066800371
 21
26.718143622332381
 31
0.0
  0
LINE
  5
2073
  8
0
 10
124.8245066800371
 20
26.718143622332381
 30
0.0
 11
125.04435299043
 21
26.114120848777279
 31
0.0
  0
ARC
  5
2074
  8
0
 10
124.5745066800298
 20
25.943110777113251
 30
0.0
 40
0.5000000000073613
 50
0.0000000001384177
 51
19.99999999983665
  0
LINE
  5
2075
  8
0
 10
125.0745066800371
 20
25.94311077711447
 30
0.0
 11
125.0745066800371
 21
25.586771142215358
 31
0.0
  0
ARC
  5
2076
  8
0
 10
124.5745066800427
 20
25.58677114221291
 30
0.0
 40
0.499999999994401
 50
325.99999999990098
 51
0.0000000002800924
  0
LINE
  5
2077
  8
0
 10
124.989025466315
 20
25.307174690479972
 30
0.0
 11
122.913705122357
 21
22.23038575133279
 31
0.0
  0
LINE
  5
2078
  8
0
 10
121.8245066800371
 20
22.098143622332369
 30
0.0
 11
121.8245066800371
 21
37.298143622332361
 31
0.0
  0
LINE
  5
2079
  8
0
 10
140.62450668003709
 20
37.298143622332361
 30
0.0
 11
140.62450668003709
 21
22.098143622332369
 31
0.0
  0
LINE
  5
207B
  8
0
 10
137.37450668003709
 20
25.586771142215412
 30
0.0
 11
137.37450668003709
 21
25.943110777114299
 31
0.0
  0
ARC
  5
207C
  8
0
 10
137.8745066800391
 20
25.943110777114299
 30
0.0
 40
0.5000000000020127
 50
160.00000000005491
 51
180.0
  0
LINE
  5
207D
  8
0
 10
137.40466036964409
 20
26.114120848777361
 30
0.0
 11
137.62450668003709
 21
26.718143622332381
 31
0.0
  0
LINE
  5
207E
  8
0
 10
137.62450668003709
 20
26.718143622332381
 30
0.0
 11
137.62450668003709
 21
37.298143622332361
 31
0.0
  0
ARC
  5
207F
  8
0
 10
137.8745066800372
 20
25.586771142215412
 30
0.0
 40
0.5000000000001493
 50
180.0
 51
214.0000000000004
  0
LINE
  5
2080
  8
0
 10
139.5353082377689
 20
22.230385751291148
 30
0.0
 11
137.4599878937596
 21
25.307174690479972
 31
0.0
  0
LINE
  5
2082
  8
0
 10
139.78401950953571
 20
22.098143622332369
 30
0.0
 11
140.62450668003709
 21
22.098143622332369
 31
0.0
  0
ARC
  5
2083
  8
0
 10
139.7840195089677
 20
22.39814362126452
 30
0.0
 40
0.2999999989321627
 50
213.9999998915595
 51
270.00000010846412
  0
ARC
  5
2085
  8
0
 10
143.84450668003771
 20
35.498143622331781
 30
0.0
 40
0.3999999999993946
 50
269.99999999990882
 51
0.0000000000895644
  0
LINE
  5
2086
  8
0
 10
143.84450668003711
 20
35.09814362233238
 30
0.0
 11
142.43450668003709
 21
35.09814362233238
 31
0.0
  0
ARC
  5
2087
  8
0
 10
142.43450668003649
 20
35.498143622331781
 30
0.0
 40
0.3999999999993946
 50
179.99999999991039
 51
270.0000000000847
  0
LINE
  5
2088
  8
0
 10
142.03450668003711
 20
35.49814362233235
 30
0.0
 11
142.03450668003711
 21
37.698143622335976
 31
0.0
  0
LINE
  5
2089
  8
0
 10
144.24450668003709
 20
37.868143622332411
 30
0.0
 11
144.24450668003709
 21
35.49814362233235
 31
0.0
  0
LINE
  5
2098
  8
0
 10
79.686382096657326
 20
56.098143622332707
 30
0.0
 11
78.793110251465691
 21
54.418143622332373
 31
0.0
  0
LINE
  5
2099
  8
0
 10
94.793110251465706
 20
56.098143622332032
 30
0.0
 11
79.686382096657326
 21
56.098143622332032
 31
0.0
  0
LINE
  5
209A
  8
0
 10
94.593110251466456
 20
38.098143622332373
 30
0.0
 11
94.793110251465563
 21
38.098143622332373
 31
0.0
  0
ARC
  5
209B
  8
0
 10
94.593110251466456
 20
37.298143622331558
 30
0.0
 40
0.8000000000007929
 50
90.0
 51
134.56131204355009
  0
LINE
  5
209C
  8
0
 10
79.793110251465563
 20
37.868143622332347
 30
0.0
 11
94.031772563438608
 21
37.868143622332347
 31
0.0
  0
LINE
  5
209F
  8
0
 10
79.673668478667651
 20
38.609675657143733
 30
0.0
 11
79.594754519901016
 21
38.455986834606499
 31
0.0
  0
LINE
  5
20A0
  8
0
 10
94.793110251465563
 20
38.882963329847371
 30
0.0
 11
79.673668478667651
 21
38.609675657143733
 31
0.0
  0
LINE
  5
20A1
  8
0
 10
94.793110251465563
 20
38.882963329847371
 30
0.0
 11
96.793110251465578
 21
38.882963329847371
 31
0.0
  0
POLYLINE
  5
20A2
  8
0
 10
97.743503276919
 20
38.169536375856524
 30
0.0
 66
     1
 70
     8
  0
VERTEX
  8
0
  5
24E3
 10
97.7435
 20
38.1695
 30
0.000000
  70
    32
  0
VERTEX
  8
0
  5
24E4
 10
97.7404
 20
38.1792
 30
0.000000
  70
    32
  0
VERTEX
  8
0
  5
24E5
 10
97.7372
 20
38.1888
 30
0.000000
  70
    32
  0
VERTEX
  8
0
  5
24E6
 10
97.7339
 20
38.1983
 30
0.000000
  70
    32
  0
VERTEX
  8
0
  5
24E7
 10
97.7306
 20
38.2079
 30
0.000000
  70
    32
  0
VERTEX
  8
0
  5
24E8
 10
97.7271
 20
38.2174
 30
0.000000
  70
    32
  0
VERTEX
  8
0
  5
24E9
 10
97.7236
 20
38.2268
 30
0.000000
  70
    32
  0
VERTEX
  8
0
  5
24EA
 10
97.7199
 20
38.2362
 30
0.000000
  70
    32
  0
VERTEX
  8
0
  5
24EB
 10
97.7162
 20
38.2456
 30
0.000000
  70
    32
  0
VERTEX
  8
0
  5
24EC
 10
97.7124
 20
38.2550
 30
0.000000
  70
    32
  0
VERTEX
  8
0
  5
24ED
 10
97.7085
 20
38.2643
 30
0.000000
  70
    32
  0
VERTEX
  8
0
  5
24EE
 10
97.7045
 20
38.2736
 30
0.000000
  70
    32
  0
VERTEX
  8
0
  5
24EF
 10
97.7004
 20
38.2828
 30
0.000000
  70
    32
  0
VERTEX
  8
0
  5
24F0
 10
97.6963
 20
38.2920
 30
0.000000
  70
    32
  0
VERTEX
  8
0
  5
24F1
 10
97.6920
 20
38.3011
 30
0.000000
  70
    32
  0
VERTEX
  8
0
  5
24F2
 10
97.6877
 20
38.3102
 30
0.000000
  70
    32
  0
VERTEX
  8
0
  5
24F3
 10
97.6833
 20
38.3193
 30
0.000000
  70
    32
  0
VERTEX
  8
0
  5
24F4
 10
97.6788
 20
38.3283
 30
0.000000
  70
    32
  0
VERTEX
  8
0
  5
24F5
 10
97.6742
 20
38.3373
 30
0.000000
  70
    32
  0
VERTEX
  8
0
  5
24F6
 10
97.6695
 20
38.3462
 30
0.000000
  70
    32
  0
VERTEX
  8
0
  5
24F7
 10
97.6647
 20
38.3550
 30
0.000000
  70
    32
  0
VERTEX
  8
0
  5
24F8
 10
97.6599
 20
38.3639
 30
0.000000
  70
    32
  0
VERTEX
  8
0
  5
24F9
 10
97.6549
 20
38.3726
 30
0.000000
  70
    32
  0
VERTEX
  8
0
  5
24FA
 10
97.6499
 20
38.3814
 30
0.000000
  70
    32
  0
VERTEX
  8
0
  5
24FB
 10
97.6448
 20
38.3900
 30
0.000000
  70
    32
  0
VERTEX
  8
0
  5
24FC
 10
97.6397
 20
38.3986
 30
0.000000
  70
    32
  0
VERTEX
  8
0
  5
24FD
 10
97.6344
 20
38.4072
 30
0.000000
  70
    32
  0
VERTEX
  8
0
  5
24FE
 10
97.6291
 20
38.4157
 30
0.000000
  70
    32
  0
VERTEX
  8
0
  5
24FF
 10
97.6236
 20
38.4242
 30
0.000000
  70
    32
  0
VERTEX
  8
0
  5
2500
 10
97.6182
 20
38.4326
 30
0.000000
  70
    32
  0
VERTEX
  8
0
  5
2501
 10
97.6126
 20
38.4409
 30
0.000000
  70
    32
  0
VERTEX
  8
0
  5
2502
 10
97.6069
 20
38.4492
 30
0.000000
  70
    32
  0
VERTEX
  8
0
  5
2503
 10
97.6012
 20
38.4574
 30
0.000000
  70
    32
  0
VERTEX
  8
0
  5
2504
 10
97.5954
 20
38.4656
 30
0.000000
  70
    32
  0
VERTEX
  8
0
  5
2505
 10
97.5895
 20
38.4737
 30
0.000000
  70
    32
  0
VERTEX
  8
0
  5
2506
 10
97.5835
 20
38.4818
 30
0.000000
  70
    32
  0
VERTEX
  8
0
  5
2507
 10
97.5775
 20
38.4898
 30
0.000000
  70
    32
  0
VERTEX
  8
0
  5
2508
 10
97.5714
 20
38.4977
 30
0.000000
  70
    32
  0
VERTEX
  8
0
  5
2509
 10
97.5652
 20
38.5056
 30
0.000000
  70
    32
  0
VERTEX
  8
0
  5
250A
 10
97.5589
 20
38.5134
 30
0.000000
  70
    32
  0
VERTEX
  8
0
  5
250B
 10
97.5526
 20
38.5211
 30
0.000000
  70
    32
  0
VERTEX
  8
0
  5
250C
 10
97.5461
 20
38.5288
 30
0.000000
  70
    32
  0
VERTEX
  8
0
  5
250D
 10
97.5397
 20
38.5364
 30
0.000000
  70
    32
  0
VERTEX
  8
0
  5
250E
 10
97.5331
 20
38.5439
 30
0.000000
  70
    32
  0
VERTEX
  8
0
  5
250F
 10
97.5265
 20
38.5514
 30
0.000000
  70
    32
  0
VERTEX
  8
0
  5
2510
 10
97.5198
 20
38.5588
 30
0.000000
  70
    32
  0
VERTEX
  8
0
  5
2511
 10
97.5130
 20
38.5662
 30
0.000000
  70
    32
  0
VERTEX
  8
0
  5
2512
 10
97.5062
 20
38.5734
 30
0.000000
  70
    32
  0
VERTEX
  8
0
  5
2513
 10
97.4993
 20
38.5806
 30
0.000000
  70
    32
  0
VERTEX
  8
0
  5
2514
 10
97.4923
 20
38.5878
 30
0.000000
  70
    32
  0
VERTEX
  8
0
  5
2515
 10
97.4853
 20
38.5948
 30
0.000000
  70
    32
  0
VERTEX
  8
0
  5
2516
 10
97.4782
 20
38.6018
 30
0.000000
  70
    32
  0
VERTEX
  8
0
  5
2517
 10
97.4710
 20
38.6087
 30
0.000000
  70
    32
  0
VERTEX
  8
0
  5
2518
 10
97.4637
 20
38.6156
 30
0.000000
  70
    32
  0
VERTEX
  8
0
  5
2519
 10
97.4564
 20
38.6224
 30
0.000000
  70
    32
  0
VERTEX
  8
0
  5
251A
 10
97.4491
 20
38.6290
 30
0.000000
  70
    32
  0
VERTEX
  8
0
  5
251B
 10
97.4416
 20
38.6357
 30
0.000000
  70
    32
  0
VERTEX
  8
0
  5
251C
 10
97.4342
 20
38.6422
 30
0.000000
  70
    32
  0
VERTEX
  8
0
  5
251D
 10
97.4266
 20
38.6487
 30
0.000000
  70
    32
  0
VERTEX
  8
0
  5
251E
 10
97.4190
 20
38.6551
 30
0.000000
  70
    32
  0
VERTEX
  8
0
  5
251F
 10
97.4113
 20
38.6614
 30
0.000000
  70
    32
  0
VERTEX
  8
0
  5
2520
 10
97.4036
 20
38.6676
 30
0.000000
  70
    32
  0
VERTEX
  8
0
  5
2521
 10
97.3958
 20
38.6738
 30
0.000000
  70
    32
  0
VERTEX
  8
0
  5
2522
 10
97.3879
 20
38.6798
 30
0.000000
  70
    32
  0
VERTEX
  8
0
  5
2523
 10
97.3800
 20
38.6858
 30
0.000000
  70
    32
  0
VERTEX
  8
0
  5
2524
 10
97.3721
 20
38.6918
 30
0.000000
  70
    32
  0
VERTEX
  8
0
  5
2525
 10
97.3640
 20
38.6976
 30
0.000000
  70
    32
  0
VERTEX
  8
0
  5
2526
 10
97.3560
 20
38.7034
 30
0.000000
  70
    32
  0
VERTEX
  8
0
  5
2527
 10
97.3478
 20
38.7090
 30
0.000000
  70
    32
  0
VERTEX
  8
0
  5
2528
 10
97.3397
 20
38.7146
 30
0.000000
  70
    32
  0
VERTEX
  8
0
  5
2529
 10
97.3314
 20
38.7201
 30
0.000000
  70
    32
  0
VERTEX
  8
0
  5
252A
 10
97.3231
 20
38.7255
 30
0.000000
  70
    32
  0
VERTEX
  8
0
  5
252B
 10
97.3148
 20
38.7309
 30
0.000000
  70
    32
  0
VERTEX
  8
0
  5
252C
 10
97.3064
 20
38.7361
 30
0.000000
  70
    32
  0
VERTEX
  8
0
  5
252D
 10
97.2980
 20
38.7413
 30
0.000000
  70
    32
  0
VERTEX
  8
0
  5
252E
 10
97.2895
 20
38.7464
 30
0.000000
  70
    32
  0
VERTEX
  8
0
  5
252F
 10
97.2810
 20
38.7514
 30
0.000000
  70
    32
  0
VERTEX
  8
0
  5
2530
 10
97.2724
 20
38.7563
 30
0.000000
  70
    32
  0
VERTEX
  8
0
  5
2531
 10
97.2638
 20
38.7611
 30
0.000000
  70
    32
  0
VERTEX
  8
0
  5
2532
 10
97.2551
 20
38.7658
 30
0.000000
  70
    32
  0
VERTEX
  8
0
  5
2533
 10
97.2464
 20
38.7705
 30
0.000000
  70
    32
  0
VERTEX
  8
0
  5
2534
 10
97.2376
 20
38.7750
 30
0.000000
  70
    32
  0
VERTEX
  8
0
  5
2535
 10
97.2288
 20
38.7795
 30
0.000000
  70
    32
  0
VERTEX
  8
0
  5
2536
 10
97.2200
 20
38.7839
 30
0.000000
  70
    32
  0
VERTEX
  8
0
  5
2537
 10
97.2111
 20
38.7882
 30
0.000000
  70
    32
  0
VERTEX
  8
0
  5
2538
 10
97.2022
 20
38.7924
 30
0.000000
  70
    32
  0
VERTEX
  8
0
  5
2539
 10
97.1932
 20
38.7965
 30
0.000000
  70
    32
  0
VERTEX
  8
0
  5
253A
 10
97.1842
 20
38.8005
 30
0.000000
  70
    32
  0
VERTEX
  8
0
  5
253B
 10
97.1752
 20
38.8044
 30
0.000000
  70
    32
  0
VERTEX
  8
0
  5
253C
 10
97.1661
 20
38.8082
 30
0.000000
  70
    32
  0
VERTEX
  8
0
  5
253D
 10
97.1570
 20
38.8120
 30
0.000000
  70
    32
  0
VERTEX
  8
0
  5
253E
 10
97.1478
 20
38.8156
 30
0.000000
  70
    32
  0
VERTEX
  8
0
  5
253F
 10
97.1387
 20
38.8192
 30
0.000000
  70
    32
  0
VERTEX
  8
0
  5
2540
 10
97.1294
 20
38.8226
 30
0.000000
  70
    32
  0
VERTEX
  8
0
  5
2541
 10
97.1202
 20
38.8260
 30
0.000000
  70
    32
  0
VERTEX
  8
0
  5
2542
 10
97.1109
 20
38.8293
 30
0.000000
  70
    32
  0
VERTEX
  8
0
  5
2543
 10
97.1016
 20
38.8325
 30
0.000000
  70
    32
  0
VERTEX
  8
0
  5
2544
 10
97.0923
 20
38.8355
 30
0.000000
  70
    32
  0
VERTEX
  8
0
  5
2545
 10
97.0829
 20
38.8385
 30
0.000000
  70
    32
  0
VERTEX
  8
0
  5
2546
 10
97.0735
 20
38.8414
 30
0.000000
  70
    32
  0
VERTEX
  8
0
  5
2547
 10
97.0641
 20
38.8442
 30
0.000000
  70
    32
  0
VERTEX
  8
0
  5
2548
 10
97.0547
 20
38.8469
 30
0.000000
  70
    32
  0
VERTEX
  8
0
  5
2549
 10
97.0452
 20
38.8495
 30
0.000000
  70
    32
  0
VERTEX
  8
0
  5
254A
 10
97.0357
 20
38.8520
 30
0.000000
  70
    32
  0
VERTEX
  8
0
  5
254B
 10
97.0262
 20
38.8544
 30
0.000000
  70
    32
  0
VERTEX
  8
0
  5
254C
 10
97.0166
 20
38.8568
 30
0.000000
  70
    32
  0
VERTEX
  8
0
  5
254D
 10
97.0071
 20
38.8590
 30
0.000000
  70
    32
  0
VERTEX
  8
0
  5
254E
 10
96.9975
 20
38.8611
 30
0.000000
  70
    32
  0
VERTEX
  8
0
  5
254F
 10
96.9879
 20
38.8631
 30
0.000000
  70
    32
  0
VERTEX
  8
0
  5
2550
 10
96.9783
 20
38.8651
 30
0.000000
  70
    32
  0
VERTEX
  8
0
  5
2551
 10
96.9686
 20
38.8669
 30
0.000000
  70
    32
  0
VERTEX
  8
0
  5
2552
 10
96.9590
 20
38.8686
 30
0.000000
  70
    32
  0
VERTEX
  8
0
  5
2553
 10
96.9493
 20
38.8703
 30
0.000000
  70
    32
  0
VERTEX
  8
0
  5
2554
 10
96.9396
 20
38.8718
 30
0.000000
  70
    32
  0
VERTEX
  8
0
  5
2555
 10
96.9299
 20
38.8732
 30
0.000000
  70
    32
  0
VERTEX
  8
0
  5
2556
 10
96.9202
 20
38.8746
 30
0.000000
  70
    32
  0
VERTEX
  8
0
  5
2557
 10
96.9104
 20
38.8758
 30
0.000000
  70
    32
  0
VERTEX
  8
0
  5
2558
 10
96.9007
 20
38.8770
 30
0.000000
  70
    32
  0
VERTEX
  8
0
  5
2559
 10
96.8910
 20
38.8780
 30
0.000000
  70
    32
  0
VERTEX
  8
0
  5
255A
 10
96.8812
 20
38.8789
 30
0.000000
  70
    32
  0
VERTEX
  8
0
  5
255B
 10
96.8714
 20
38.8798
 30
0.000000
  70
    32
  0
VERTEX
  8
0
  5
255C
 10
96.8617
 20
38.8805
 30
0.000000
  70
    32
  0
VERTEX
  8
0
  5
255D
 10
96.8519
 20
38.8812
 30
0.000000
  70
    32
  0
VERTEX
  8
0
  5
255E
 10
96.8421
 20
38.8817
 30
0.000000
  70
    32
  0
VERTEX
  8
0
  5
255F
 10
96.8323
 20
38.8822
 30
0.000000
  70
    32
  0
VERTEX
  8
0
  5
2560
 10
96.8225
 20
38.8825
 30
0.000000
  70
    32
  0
VERTEX
  8
0
  5
2561
 10
96.8127
 20
38.8828
 30
0.000000
  70
    32
  0
VERTEX
  8
0
  5
2562
 10
96.8029
 20
38.8829
 30
0.000000
  70
    32
  0
VERTEX
  8
0
  5
2563
 10
96.7931
 20
38.8830
 30
0.000000
  70
    32
  0
SEQEND
  8
0
  5
2564
  0
ARC
  5
20A3
  8
0
 10
94.793110251454664
 20
99.098143622477224
 30
0.0
 40
61.00000000014488
 50
270.00000000000978
 51
272.77231225816149
  0
LINE
  5
20A5
  8
0
 10
97.793110251465578
 20
40.598143622332373
 30
0.0
 11
97.793110251465578
 21
38.171958775421452
 31
0.0
  0
LINE
  5
20A6
  8
0
 10
97.793110251465578
 20
38.171958775421452
 30
0.0
 11
97.743503276919114
 21
38.169536375856531
 31
0.0
  0
LINE
  5
20A9
  8
0
 10
105.79311025146561
 20
40.598143622332373
 30
0.0
 11
94.793110251465563
 21
40.598143622332373
 31
0.0
  0
LINE
  5
20B1
  8
0
 10
79.793110251465563
 20
38.098143622332373
 30
0.0
 11
78.793110251465578
 21
39.902191377603337
 31
0.0
  0
LINE
  5
20B2
  8
0
 10
78.793110251465691
 20
54.418143622332423
 30
0.0
 11
78.793110251465578
 21
39.902191377603337
 31
0.0
  0
LINE
  5
20B8
  8
0
 10
79.793110251465563
 20
35.09814362233238
 30
0.0
 11
93.793110251465578
 21
35.09814362233238
 31
0.0
  0
ARC
  5
20BC
  8
0
 10
94.593110251466456
 20
37.298143622331558
 30
0.0
 40
0.8000000000008071
 50
134.56131204355009
 51
179.99999999994299
  0
LINE
  5
20BD
  8
0
 10
94.793110251464441
 20
38.882963329847371
 30
0.0
 11
94.793110251465706
 21
56.098143622332032
 31
0.0
  0
LINE
  5
20BE
  8
0
 10
80.093110251465646
 20
22.098143622332369
 30
0.0
 11
92.793110251465578
 21
22.098143622332369
 31
0.0
  0
ARC
  5
20BF
  8
0
 10
80.093110251465646
 20
22.398143622332299
 30
0.0
 40
0.2999999999999829
 50
179.99999999998701
 51
270.0
  0
LINE
  5
20C0
  8
0
 10
93.793110251465578
 20
23.098143622332369
 30
0.0
 11
93.793110251465578
 21
37.298143622331558
 31
0.0
  0
ARC
  5
20C1
  8
0
 10
92.793110251466373
 20
23.09814362233158
 30
0.0
 40
0.9999999999992326
 50
269.99999999995441
 51
0.000000000043968
  0
LINE
  5
20C2
  8
0
 10
79.793110251465563
 20
38.098143622332373
 30
0.0
 11
79.793110251465563
 21
22.39814362233238
 31
0.0
  0
ARC
  5
20C4
  8
0
 10
94.793110251712406
 20
99.098143617805761
 30
0.0
 40
60.999999995466368
 50
272.8189623745572
 51
273.48463063930058
  0
ARC
  5
20C7
  8
0
 10
94.793110251454905
 20
99.098143622477224
 30
0.0
 40
61.000000000144858
 50
273.48463063927778
 51
279.71383594012161
  0
ARC
  5
20C9
  8
0
 10
105.3931102514712
 20
39.432408061622262
 30
0.0
 40
0.3999999999944961
 50
280.07385667415679
 51
0.0000000006350932
  0
LINE
  5
20CA
  8
0
 10
105.79311025146561
 20
40.598143622332373
 30
0.0
 11
105.79311025146561
 21
39.432408061626688
 31
0.0
  0
POLYLINE
  5
20CB
  8
0
 66
     1
 10
0.0
 20
0.0
 30
0.0
 70
   128
  0
VERTEX
  5
23DB
  8
0
 10
105.46307724816531
 20
39.038574823602403
 30
0.0
  0
VERTEX
  5
23DC
  8
0
 10
105.1767878103695
 20
38.988416952243881
 30
0.0
  0
VERTEX
  5
23DD
  8
0
 10
105.0854819561883
 20
38.972715684629861
 30
0.0
  0
SEQEND
  5
23DE
  8
0
  0
LINE
  5
20D9
  8
2
 10
82.293110251465805
 20
43.998143622332293
 30
0.0
 11
82.293110251465706
 21
53.99814362233235
 31
0.0
  0
LINE
  5
20E8
  8
2
 10
78.793110251465691
 20
43.99814362233235
 30
0.0
 11
82.293110251465706
 21
43.99814362233235
 31
0.0
  0
LINE
  5
20E9
  8
2
 10
82.293110251465706
 20
53.99814362233235
 30
0.0
 11
78.793110251465691
 21
53.99814362233235
 31
0.0
  0
LINE
  5
20EA
  8
2
 10
82.293110251465706
 20
46.24814362233235
 30
0.0
 11
94.793110251465706
 21
46.24814362233235
 31
0.0
  0
LINE
  5
20EB
  8
2
 10
94.793110251465706
 20
51.748143622332343
 30
0.0
 11
82.293110251465706
 21
51.748143622332343
 31
0.0
  0
LINE
  5
2215
  8
0
 10
120.81450668003301
 20
38.098143622332373
 30
0.0
 11
121.0245066800363
 21
38.098143622332373
 31
0.0
  0
LINE
  5
2216
  8
0
 10
141.42450668003761
 20
38.098143622332373
 30
0.0
 11
141.63450668003779
 21
38.098143622332373
 31
0.0
  0
LINE
  5
225F
  8
1
 10
131.22450668003719
 20
59.098143622332032
 30
0.0
 11
131.22450668003719
 21
19.09814362233238
 31
0.0
  0
LINE
  5
2260
  8
1
 10
43.530553108608501
 20
102.3944686223319
 30
0.0
 11
43.530553108608501
 21
69.394468622331942
 31
0.0
  0
LINE
  5
2261
  8
1
 10
35.530553108608501
 20
48.99814362233235
 30
0.0
 11
51.530553108608501
 21
48.99814362233235
 31
0.0
  0
LINE
  5
226C
  8
1
 10
75.793110251465635
 20
48.99814362233235
 30
0.0
 11
97.793110251465194
 21
48.99814362233235
 31
0.0
  0
LINE
  5
226D
  8
1
 10
125.47450668003709
 20
48.99814362233235
 30
0.0
 11
136.97450668003719
 21
48.99814362233235
 31
0.0
  0
LINE
  5
226E
  8
1
 10
43.530553108608501
 20
59.098143622332032
 30
0.0
 11
43.530553108608501
 21
19.098143622332369
 31
0.0
  0
TEXT
  5
2375
  8
0
 62
     3
 10
0.0
 20
0.0
 30
0.0
 40
10.0
  1
DLB30
  7
STANDARD1
  0
ENDSEC
  0
EOF
