  0
SECTION
  2
HEADER
  9
$ACADVER
  1
AC1009
  9
$INSBASE
 10
0.0
 20
0.0
 30
0.0
  9
$EXTMIN
 10
0.0
 20
-2.960436562073669
 30
0.0
  9
$EXTMAX
 10
133.1803929595757
 20
121.362148707033
 30
0.0
  9
$LIMMIN
 10
0.0
 20
0.0
  9
$LIMMAX
 10
192.5
 20
135.0
  9
$ORTHOMODE
 70
     1
  9
$REGENMODE
 70
     1
  9
$FILLMODE
 70
     1
  9
$QTEXTMODE
 70
     0
  9
$MIRRTEXT
 70
     0
  9
$DRAGMODE
 70
     2
  9
$LTSCALE
 40
5.0
  9
$OSMODE
 70
  3071
  9
$ATTMODE
 70
     1
  9
$TEXTSIZE
 40
0.2
  9
$TRACEWID
 40
0.05
  9
$TEXTSTYLE
  7
STANDARD
  9
$CLAYER
  8
0
  9
$CELTYPE
  6
BYLAYER
  9
$CECOLOR
 62
   256
  9
$DIMSCALE
 40
0.5
  9
$DIMASZ
 40
3.0
  9
$DIMEXO
 40
1.0
  9
$DIMDLI
 40
6.0
  9
$DIMRND
 40
0.0
  9
$DIMDLE
 40
0.0
  9
$DIMEXE
 40
1.0
  9
$DIMTP
 40
495.0
  9
$DIMTM
 40
0.0
  9
$DIMTXT
 40
3.0
  9
$DIMCEN
 40
0.0
  9
$DIMTSZ
 40
0.0
  9
$DIMTOL
 70
     0
  9
$DIMLIM
 70
     0
  9
$DIMTIH
 70
     0
  9
$DIMTOH
 70
     0
  9
$DIMSE1
 70
     0
  9
$DIMSE2
 70
     0
  9
$DIMTAD
 70
     1
  9
$DIMZIN
 70
     0
  9
$DIMBLK
  1

  9
$DIMASO
 70
     0
  9
$DIMSHO
 70
     0
  9
$DIMPOST
  1

  9
$DIMAPOST
  1

  9
$DIMALT
 70
     0
  9
$DIMALTD
 70
     2
  9
$DIMALTF
 40
25.399999999999999
  9
$DIMLFAC
 40
1.0
  9
$DIMTOFL
 70
     1
  9
$DIMTVP
 40
0.0
  9
$DIMTIX
 70
     1
  9
$DIMSOXD
 70
     0
  9
$DIMSAH
 70
     0
  9
$DIMBLK1
  1

  9
$DIMBLK2
  1

  9
$DIMSTYLE
  2
STANDARD
  9
$DIMCLRD
 70
     0
  9
$DIMCLRE
 70
     0
  9
$DIMCLRT
 70
     4
  9
$DIMTFAC
 40
1.0
  9
$DIMGAP
 40
1.0
  9
$LUNITS
 70
     2
  9
$LUPREC
 70
     4
  9
$SKETCHINC
 40
0.1
  9
$FILLETRAD
 40
0.0
  9
$AUNITS
 70
     0
  9
$AUPREC
 70
     0
  9
$MENU
  1
E:\r13\win\SUPPORT\ACAD
  9
$ELEVATION
 40
0.0
  9
$PELEVATION
 40
0.0
  9
$THICKNESS
 40
0.0
  9
$LIMCHECK
 70
     0
  9
$BLIPMODE
 70
     0
  9
$CHAMFERA
 40
0.0
  9
$CHAMFERB
 40
0.0
  9
$SKPOLY
 70
     0
  9
$TDCREATE
 40
2450539.3769769678
  9
$TDUPDATE
 40
2456598.6103488891
  9
$TDINDWG
 40
0.0101666898
  9
$TDUSRTIMER
 40
0.0101666898
  9
$USRTIMER
 70
     1
  9
$ANGBASE
 50
0.0
  9
$ANGDIR
 70
     0
  9
$PDMODE
 70
     0
  9
$PDSIZE
 40
0.0
  9
$PLINEWID
 40
0.0
  9
$COORDS
 70
     1
  9
$SPLFRAME
 70
     0
  9
$SPLINETYPE
 70
     6
  9
$SPLINESEGS
 70
     8
  9
$ATTDIA
 70
     0
  9
$ATTREQ
 70
     1
  9
$HANDLING
 70
     1
  9
$HANDSEED
  5
7F1
  9
$SURFTAB1
 70
     6
  9
$SURFTAB2
 70
     6
  9
$SURFTYPE
 70
     6
  9
$SURFU
 70
     6
  9
$SURFV
 70
     6
  9
$UCSNAME
  2

  9
$UCSORG
 10
0.0
 20
0.0
 30
0.0
  9
$UCSXDIR
 10
1.0
 20
0.0
 30
0.0
  9
$UCSYDIR
 10
0.0
 20
1.0
 30
0.0
  9
$PUCSNAME
  2

  9
$PUCSORG
 10
0.0
 20
0.0
 30
0.0
  9
$PUCSXDIR
 10
1.0
 20
0.0
 30
0.0
  9
$PUCSYDIR
 10
0.0
 20
1.0
 30
0.0
  9
$USERI1
 70
     3
  9
$USERI2
 70
     1
  9
$USERI3
 70
     0
  9
$USERI4
 70
     0
  9
$USERI5
 70
     0
  9
$USERR1
 40
0.5
  9
$USERR2
 40
3.0
  9
$USERR3
 40
3.0
  9
$USERR4
 40
3.0
  9
$USERR5
 40
10.0
  9
$WORLDVIEW
 70
     1
  9
$SHADEDGE
 70
     3
  9
$SHADEDIF
 70
    70
  9
$TILEMODE
 70
     1
  9
$MAXACTVP
 70
    16
  9
$PLIMCHECK
 70
     0
  9
$PEXTMIN
 10
1.0000000000000000E+020
 20
1.0000000000000000E+020
 30
1.0000000000000000E+020
  9
$PEXTMAX
 10
-1.0000000000000000E+020
 20
-1.0000000000000000E+020
 30
-1.0000000000000000E+020
  9
$PLIMMIN
 10
0.0
 20
0.0
  9
$PLIMMAX
 10
12.0
 20
9.0
  9
$UNITMODE
 70
     0
  9
$VISRETAIN
 70
     0
  9
$PLINEGEN
 70
     0
  9
$PSLTSCALE
 70
     0
  0
ENDSEC
  0
SECTION
  2
TABLES
  0
TABLE
  2
VPORT
 70
     1
  0
VPORT
  2
*ACTIVE
 70
     0
 10
0.0
 20
0.0
 11
1.0
 21
1.0
 12
100.0700744819264
 22
66.014785922033241
 13
0.0
 23
0.0
 14
2.5
 24
2.5
 15
10.0
 25
10.0
 16
0.0
 26
0.0
 36
1.0
 17
0.0
 27
0.0
 37
0.0
 40
139.20783109903601
 41
1.831871345029239
 42
50.0
 43
0.0
 44
0.0
 50
0.0
 51
0.0
 71
     0
 72
   100
 73
     1
 74
     0
 75
     0
 76
     0
 77
     0
 78
     0
  0
ENDTAB
  0
TABLE
  2
LTYPE
 70
     3
  0
LTYPE
  2
CONTINUOUS
 70
     0
  3
Solid Line
 72
    65
 73
     0
 40
0.0
  0
LTYPE
  2
CENTER
 70
     0
  3
____ _ ____ _ ____ _ ____ _ ____ _ ____ _ ____
 72
    65
 73
     4
 40
2.0
 49
1.25
 49
-0.25
 49
0.25
 49
-0.25
  0
LTYPE
  2
PHANTOM2
 70
     0
  3
___ _ _ ___ _ _ ___ _ _ ___ _ _
 72
    65
 73
     6
 40
1.25
 49
0.625
 49
-0.125
 49
0.125
 49
-0.125
 49
0.125
 49
-0.125
  0
ENDTAB
  0
TABLE
  2
LAYER
 70
     3
  0
LAYER
  2
0
 70
     0
 62
     7
  6
CONTINUOUS
  0
LAYER
  2
1
 70
     0
 62
     1
  6
CENTER
  0
LAYER
  2
11
 70
     0
 62
     3
  6
CONTINUOUS
  0
ENDTAB
  0
TABLE
  2
STYLE
 70
     2
  0
STYLE
  2
STANDARD
 70
     0
 40
0.0
 41
1.0
 50
0.0
 71
     0
 42
0.2
  3
simplex
  4
bigfont
  0
STYLE
  2
STANDARD1
 70
     0
 40
0.0
 41
1.0
 50
0.0
 71
     0
 42
3.0
  3
txt
  4

  0
ENDTAB
  0
TABLE
  2
VIEW
 70
     0
  0
ENDTAB
  0
TABLE
  2
UCS
 70
     0
  0
ENDTAB
  0
TABLE
  2
APPID
 70
     3
  0
APPID
  2
ACAD
 70
     0
  0
APPID
  2
ACAD_MLEADERVER
 70
     0
  0
APPID
  2
ACAD_NAV_VCDISPLAY
 70
     0
  0
ENDTAB
  0
TABLE
  2
DIMSTYLE
 70
     1
  0
DIMSTYLE
  2
STANDARD
 70
     0
  3

  4

  5

  6

  7

 40
1.0
 41
0.18
 42
0.0625
 43
0.38
 44
0.18
 45
0.0
 46
0.0
 47
0.0
 48
0.0
140
0.18
141
0.09
142
0.0
143
25.399999999999999
144
1.0
145
0.0
146
1.0
147
0.09
 71
     0
 72
     0
 73
     1
 74
     1
 75
     0
 76
     0
 77
     0
 78
     0
170
     0
171
     2
172
     0
173
     0
174
     0
175
     0
176
     0
177
     0
178
     0
  0
ENDTAB
  0
ENDSEC
  0
SECTION
  2
BLOCKS
  0
BLOCK
  8
0
  2
$MODEL_SPACE
 70
     0
 10
0.0
 20
0.0
 30
0.0
  3
$MODEL_SPACE
  1

  0
ENDBLK
  5
6B2
  8
0
  0
BLOCK
 67
     1
  8
0
  2
$PAPER_SPACE
 70
     0
 10
0.0
 20
0.0
 30
0.0
  3
$PAPER_SPACE
  1

  0
ENDBLK
  5
6B0
 67
     1
  8
0
  0
BLOCK
  8
0
  2
STDGX5
 70
     0
 10
0.0
 20
0.0
 30
0.0
  3
STDGX5
  1

  0
ENDBLK
  5
4F
  8
0
  0
ENDSEC
  0
SECTION
  2
ENTITIES
  0
INSERT
  5
DE
  8
0
  2
STDGX5
 10
0.0
 20
0.0
 30
0.0
  0
INSERT
  5
DF
  8
0
  2
STDGX5
 10
0.0
 20
0.0
 30
0.0
  0
INSERT
  5
15C
  8
0
  2
STDGX5
 10
275.0
 20
0.0
 30
0.0
  0
INSERT
  5
15D
  8
0
  2
STDGX5
 10
275.0
 20
0.0
 30
0.0
  0
INSERT
  5
33A
  8
11
  2
STDGX5
 10
28.965758445371989
 20
68.351351247030379
 30
0.0
  0
INSERT
  5
33B
  8
11
  2
STDGX5
 10
66.450857061588408
 20
32.351350970427461
 30
0.0
  0
INSERT
  5
33C
  8
11
  2
STDGX5
 10
0.0
 20
0.0
 30
0.0
  0
INSERT
  5
33D
  8
11
  2
STDGX5
 10
900.60215747054235
 20
246.07168527084471
 30
0.0
  0
INSERT
  5
33E
  8
11
  2
STDGX5
 10
938.08725608675866
 20
210.07168499424179
 30
0.0
  0
INSERT
  5
33F
  8
11
  2
STDGX5
 10
871.63639902517025
 20
177.7203340238143
 30
0.0
  0
INSERT
  5
340
  8
11
  2
STDGX5
 10
1685.641404080747
 20
276.22902723739588
 30
0.0
  0
INSERT
  5
341
  8
11
  2
STDGX5
 10
1723.1265026969629
 20
240.22902696079299
 30
0.0
  0
INSERT
  5
342
  8
11
  2
STDGX5
 10
1656.6756456353751
 20
207.8776759903655
 30
0.0
  0
LINE
  5
41F
  8
0
 10
78.18039295957584
 20
81.647862696967593
 30
0.0
 11
128.18039295957581
 21
81.647862696967593
 31
0.0
  0
LINE
  5
420
  8
0
 10
78.18039295957584
 20
81.647862696967593
 30
0.0
 11
78.180392959575727
 21
66.647862696967465
 31
0.0
  0
LINE
  5
421
  8
0
 10
78.180392959575727
 20
66.647862696967465
 30
0.0
 11
128.1803929595757
 21
66.647862696967465
 31
0.0
  0
LINE
  5
422
  8
0
 10
128.18039295957581
 20
81.647862696967209
 30
0.0
 11
128.1803929595757
 21
66.647862696967081
 31
0.0
  0
INSERT
  5
5C5
  8
11
  2
STDGX5
 10
226.26727972073849
 20
84.468698115756936
 30
0.0
  0
INSERT
  5
5C6
  8
11
  2
STDGX5
 10
263.75237833695491
 20
48.468697839153997
 30
0.0
  0
INSERT
  5
5C7
  8
11
  2
STDGX5
 10
197.3015212753665
 20
16.117346868726539
 30
0.0
  0
INSERT
  5
5C8
  8
11
  2
STDGX5
 10
1097.903678745909
 20
262.18903213957122
 30
0.0
  0
INSERT
  5
5C9
  8
11
  2
STDGX5
 10
1135.388777362125
 20
226.18903186296831
 30
0.0
  0
INSERT
  5
5CA
  8
11
  2
STDGX5
 10
1068.9379203005369
 20
193.83768089254079
 30
0.0
  0
INSERT
  5
5CB
  8
11
  2
STDGX5
 10
1882.9429253561129
 20
292.34637410612248
 30
0.0
  0
INSERT
  5
5CC
  8
11
  2
STDGX5
 10
1920.4280239723289
 20
256.34637382951962
 30
0.0
  0
INSERT
  5
5CD
  8
11
  2
STDGX5
 10
1853.9771669107411
 20
223.9950228590921
 30
0.0
  0
INSERT
  5
5E0
  8
11
  2
STDGX5
 10
501.26727972073837
 20
109.4687413181738
 30
0.0
  0
INSERT
  5
5E1
  8
11
  2
STDGX5
 10
538.75237833695485
 20
73.468741041570922
 30
0.0
  0
INSERT
  5
5E2
  8
11
  2
STDGX5
 10
472.30152127536638
 20
41.117390071143461
 30
0.0
  0
INSERT
  5
5E3
  8
11
  2
STDGX5
 10
1372.903678745909
 20
287.1890753419882
 30
0.0
  0
INSERT
  5
5E4
  8
11
  2
STDGX5
 10
1410.388777362125
 20
251.1890750653852
 30
0.0
  0
INSERT
  5
5E5
  8
11
  2
STDGX5
 10
1343.9379203005369
 20
218.83772409495779
 30
0.0
  0
INSERT
  5
5E6
  8
11
  2
STDGX5
 10
2157.9429253561129
 20
317.3464173085394
 30
0.0
  0
INSERT
  5
5E7
  8
11
  2
STDGX5
 10
2195.4280239723298
 20
281.34641703193648
 30
0.0
  0
INSERT
  5
5E8
  8
11
  2
STDGX5
 10
2128.9771669107422
 20
248.99506606150899
 30
0.0
  0
LINE
  5
5E9
  8
0
 10
38.799819515410263
 20
81.647862696967465
 30
0.0
 11
42.599819515410317
 21
81.647862696967465
 31
0.0
  0
LINE
  5
5EA
  8
0
 10
38.799819515410263
 20
66.647862696967522
 30
0.0
 11
58.799819515410263
 21
66.647862696967465
 31
0.0
  0
LINE
  5
5EB
  8
0
 10
58.799819515410263
 20
81.647862696967465
 30
0.0
 11
58.799819515410142
 21
66.647862696967522
 31
0.0
  0
LINE
  5
5EC
  8
0
 10
38.799819515410263
 20
81.647862696967465
 30
0.0
 11
38.799819515410263
 21
66.647862696967522
 31
0.0
  0
LINE
  5
5ED
  8
0
 10
46.249819515410287
 20
76.347862696967326
 30
0.0
 11
51.349819515410211
 21
76.347862696967439
 31
0.0
  0
LINE
  5
5EE
  8
0
 10
42.599819515410317
 20
78.347862696967411
 30
0.0
 11
46.249819515410287
 21
78.347862696967454
 31
0.0
  0
LINE
  5
5EF
  8
0
 10
54.999819515410238
 20
81.647862696967465
 30
0.0
 11
54.999819515410408
 21
78.347862696967454
 31
0.0
  0
LINE
  5
5F0
  8
0
 10
51.349819515410211
 20
78.347862696967454
 30
0.0
 11
51.349819515410211
 21
76.347862696967439
 31
0.0
  0
LINE
  5
5F1
  8
0
 10
46.249819515410287
 20
78.347862696967454
 30
0.0
 11
46.249819515410287
 21
76.347862696967439
 31
0.0
  0
LINE
  5
5F2
  8
0
 10
42.599819515410204
 20
81.647862696967465
 30
0.0
 11
42.599819515410317
 21
78.347862696967411
 31
0.0
  0
LINE
  5
5F3
  8
0
 10
54.999819515410408
 20
81.647862696967465
 30
0.0
 11
58.799819515410263
 21
81.647862696967536
 31
0.0
  0
LINE
  5
5F4
  8
0
 10
51.349819515410211
 20
78.347862696967454
 30
0.0
 11
54.999819515410408
 21
78.347862696967454
 31
0.0
  0
INSERT
  5
5F5
  8
11
  2
STDGX5
 10
501.26727972073837
 20
109.4687413181738
 30
0.0
  0
INSERT
  5
5F6
  8
11
  2
STDGX5
 10
538.75237833695485
 20
73.468741041570922
 30
0.0
  0
INSERT
  5
5F7
  8
11
  2
STDGX5
 10
472.30152127536638
 20
41.117390071143461
 30
0.0
  0
INSERT
  5
5F8
  8
11
  2
STDGX5
 10
1372.903678745909
 20
287.1890753419882
 30
0.0
  0
INSERT
  5
5F9
  8
11
  2
STDGX5
 10
1410.388777362125
 20
251.1890750653852
 30
0.0
  0
INSERT
  5
5FA
  8
11
  2
STDGX5
 10
1343.9379203005369
 20
218.83772409495779
 30
0.0
  0
INSERT
  5
5FB
  8
11
  2
STDGX5
 10
2157.9429253561129
 20
317.3464173085394
 30
0.0
  0
INSERT
  5
5FC
  8
11
  2
STDGX5
 10
2195.4280239723298
 20
281.34641703193648
 30
0.0
  0
INSERT
  5
5FD
  8
11
  2
STDGX5
 10
2128.9771669107422
 20
248.99506606150899
 30
0.0
  0
LINE
  5
626
  8
1
 10
48.799819515410263
 20
64.647862696967493
 30
0.0
 11
48.799819515410029
 21
83.647862696967366
 31
0.0
  0
LINE
  5
62B
  8
0
 10
78.180392959575727
 20
101.3621487070331
 30
0.0
 11
128.1803929595757
 21
101.3621487070331
 31
0.0
  0
LINE
  5
62C
  8
0
 10
78.18039295957584
 20
121.362148707033
 30
0.0
 11
128.18039295957581
 21
121.362148707033
 31
0.0
  0
LINE
  5
639
  8
0
 10
78.18039295957584
 20
121.362148707033
 30
0.0
 11
78.180392959575727
 21
101.3621487070331
 31
0.0
  0
LINE
  5
63B
  8
0
 10
128.18039295957581
 20
121.3621487070326
 30
0.0
 11
128.1803929595757
 21
101.3621487070327
 31
0.0
  0
LINE
  5
63C
  8
1
 10
73.180392959575784
 20
111.3621487070331
 30
0.0
 11
133.1803929595757
 21
111.3621487070327
 31
0.0
  0
LINE
  5
63D
  8
0
 10
78.180392959575741
 20
105.162148707033
 30
0.0
 11
128.1803929595757
 21
105.1621487070327
 31
0.0
  0
LINE
  5
63E
  8
0
 10
78.180392959575755
 20
108.812148707033
 30
0.0
 11
128.1803929595757
 21
108.8121487070327
 31
0.0
  0
LINE
  5
63F
  8
0
 10
78.180392959575741
 20
117.562148707033
 30
0.0
 11
128.1803929595757
 21
117.5621487070333
 31
0.0
  0
LINE
  5
640
  8
0
 10
78.180392959575755
 20
113.912148707033
 30
0.0
 11
128.1803929595757
 21
113.9121487070333
 31
0.0
  0
LINE
  5
645
  8
1
 10
73.180392959575784
 20
36.933576686901972
 30
0.0
 11
133.1803929595757
 21
36.933576686902327
 31
0.0
  0
LINE
  5
646
  8
0
 10
78.18039295957584
 20
26.933576686902029
 30
0.0
 11
128.18039295957581
 21
26.933576686902029
 31
0.0
  0
LINE
  5
647
  8
0
 10
78.180392959575727
 20
46.933576686901979
 30
0.0
 11
128.1803929595757
 21
46.933576686901979
 31
0.0
  0
LINE
  5
648
  8
0
 10
78.18039295957584
 20
26.933576686902029
 30
0.0
 11
78.180392959575727
 21
46.933576686901979
 31
0.0
  0
LINE
  5
649
  8
0
 10
128.18039295957581
 20
26.93357668690242
 30
0.0
 11
128.1803929595757
 21
46.93357668690237
 31
0.0
  0
TEXT
  5
763
  8
0
 62
     3
 10
0.0
 20
0.0
 30
0.0
 40
10.0
  1
DLG40
  7
STANDARD1
  0
ENDSEC
  0
EOF
