  0
SECTION
  2
HEADER
  9
$ACADVER
  1
AC1009
  9
$INSBASE
 10
0.0
 20
0.0
 30
0.0
  9
$EXTMIN
 10
0.0
 20
-2.960436562073669
 30
0.0
  9
$EXTMAX
 10
260.66708285833943
 20
227.55602670575331
 30
0.0
  9
$LIMMIN
 10
0.0
 20
0.0
  9
$LIMMAX
 10
385.0
 20
270.0
  9
$ORTHOMODE
 70
     1
  9
$REGENMODE
 70
     1
  9
$FILLMODE
 70
     1
  9
$QTEXTMODE
 70
     0
  9
$MIRRTEXT
 70
     0
  9
$DRAGMODE
 70
     2
  9
$LTSCALE
 40
10.0
  9
$OSMODE
 70
  3071
  9
$ATTMODE
 70
     1
  9
$TEXTSIZE
 40
0.2
  9
$TRACEWID
 40
0.05
  9
$TEXTSTYLE
  7
STANDARD
  9
$CLAYER
  8
0
  9
$CELTYPE
  6
BYLAYER
  9
$CECOLOR
 62
   256
  9
$DIMSCALE
 40
1.0
  9
$DIMASZ
 40
3.0
  9
$DIMEXO
 40
1.0
  9
$DIMDLI
 40
6.0
  9
$DIMRND
 40
0.0
  9
$DIMDLE
 40
0.0
  9
$DIMEXE
 40
1.0
  9
$DIMTP
 40
495.0
  9
$DIMTM
 40
0.0
  9
$DIMTXT
 40
3.0
  9
$DIMCEN
 40
0.0
  9
$DIMTSZ
 40
0.0
  9
$DIMTOL
 70
     0
  9
$DIMLIM
 70
     0
  9
$DIMTIH
 70
     0
  9
$DIMTOH
 70
     0
  9
$DIMSE1
 70
     0
  9
$DIMSE2
 70
     0
  9
$DIMTAD
 70
     1
  9
$DIMZIN
 70
     0
  9
$DIMBLK
  1

  9
$DIMASO
 70
     0
  9
$DIMSHO
 70
     0
  9
$DIMPOST
  1

  9
$DIMAPOST
  1

  9
$DIMALT
 70
     0
  9
$DIMALTD
 70
     2
  9
$DIMALTF
 40
25.399999999999999
  9
$DIMLFAC
 40
1.0
  9
$DIMTOFL
 70
     1
  9
$DIMTVP
 40
0.0
  9
$DIMTIX
 70
     1
  9
$DIMSOXD
 70
     0
  9
$DIMSAH
 70
     0
  9
$DIMBLK1
  1

  9
$DIMBLK2
  1

  9
$DIMSTYLE
  2
STANDARD
  9
$DIMCLRD
 70
     0
  9
$DIMCLRE
 70
     0
  9
$DIMCLRT
 70
     4
  9
$DIMTFAC
 40
1.0
  9
$DIMGAP
 40
1.0
  9
$LUNITS
 70
     2
  9
$LUPREC
 70
     4
  9
$SKETCHINC
 40
0.1
  9
$FILLETRAD
 40
0.0
  9
$AUNITS
 70
     0
  9
$AUPREC
 70
     0
  9
$MENU
  1
E:\r13\win\SUPPORT\ACAD
  9
$ELEVATION
 40
0.0
  9
$PELEVATION
 40
0.0
  9
$THICKNESS
 40
0.0
  9
$LIMCHECK
 70
     0
  9
$BLIPMODE
 70
     0
  9
$CHAMFERA
 40
0.0
  9
$CHAMFERB
 40
0.0
  9
$SKPOLY
 70
     0
  9
$TDCREATE
 40
2450539.3769769678
  9
$TDUPDATE
 40
2456598.6104451618
  9
$TDINDWG
 40
0.0198362384
  9
$TDUSRTIMER
 40
0.0198362384
  9
$USRTIMER
 70
     1
  9
$ANGBASE
 50
0.0
  9
$ANGDIR
 70
     0
  9
$PDMODE
 70
     0
  9
$PDSIZE
 40
0.0
  9
$PLINEWID
 40
0.0
  9
$COORDS
 70
     1
  9
$SPLFRAME
 70
     0
  9
$SPLINETYPE
 70
     6
  9
$SPLINESEGS
 70
     8
  9
$ATTDIA
 70
     0
  9
$ATTREQ
 70
     1
  9
$HANDLING
 70
     1
  9
$HANDSEED
  5
E88
  9
$SURFTAB1
 70
     6
  9
$SURFTAB2
 70
     6
  9
$SURFTYPE
 70
     6
  9
$SURFU
 70
     6
  9
$SURFV
 70
     6
  9
$UCSNAME
  2

  9
$UCSORG
 10
0.0
 20
0.0
 30
0.0
  9
$UCSXDIR
 10
1.0
 20
0.0
 30
0.0
  9
$UCSYDIR
 10
0.0
 20
1.0
 30
0.0
  9
$PUCSNAME
  2

  9
$PUCSORG
 10
0.0
 20
0.0
 30
0.0
  9
$PUCSXDIR
 10
1.0
 20
0.0
 30
0.0
  9
$PUCSYDIR
 10
0.0
 20
1.0
 30
0.0
  9
$USERI1
 70
     3
  9
$USERI2
 70
     1
  9
$USERI3
 70
     0
  9
$USERI4
 70
     0
  9
$USERI5
 70
     0
  9
$USERR1
 40
1.0
  9
$USERR2
 40
3.0
  9
$USERR3
 40
3.0
  9
$USERR4
 40
3.0
  9
$USERR5
 40
10.0
  9
$WORLDVIEW
 70
     1
  9
$SHADEDGE
 70
     3
  9
$SHADEDIF
 70
    70
  9
$TILEMODE
 70
     1
  9
$MAXACTVP
 70
    16
  9
$PLIMCHECK
 70
     0
  9
$PEXTMIN
 10
1.0000000000000000E+020
 20
1.0000000000000000E+020
 30
1.0000000000000000E+020
  9
$PEXTMAX
 10
-1.0000000000000000E+020
 20
-1.0000000000000000E+020
 30
-1.0000000000000000E+020
  9
$PLIMMIN
 10
0.0
 20
0.0
  9
$PLIMMAX
 10
12.0
 20
9.0
  9
$UNITMODE
 70
     0
  9
$VISRETAIN
 70
     0
  9
$PLINEGEN
 70
     0
  9
$PSLTSCALE
 70
     0
  0
ENDSEC
  0
SECTION
  2
TABLES
  0
TABLE
  2
VPORT
 70
     1
  0
VPORT
  2
*ACTIVE
 70
     0
 10
0.0
 20
0.0
 11
1.0
 21
1.0
 12
200.05795575583809
 22
133.5127261426681
 13
0.0
 23
0.0
 14
5.0
 24
5.0
 15
10.0
 25
10.0
 16
0.0
 26
0.0
 36
1.0
 17
0.0
 27
0.0
 37
0.0
 40
275.42274993631997
 41
1.831871345029239
 42
50.0
 43
0.0
 44
0.0
 50
0.0
 51
0.0
 71
     0
 72
   100
 73
     1
 74
     0
 75
     0
 76
     0
 77
     0
 78
     0
  0
ENDTAB
  0
TABLE
  2
LTYPE
 70
     3
  0
LTYPE
  2
CONTINUOUS
 70
     0
  3
Solid Line
 72
    65
 73
     0
 40
0.0
  0
LTYPE
  2
CENTER
 70
     0
  3
____ _ ____ _ ____ _ ____ _ ____ _ ____ _ ____
 72
    65
 73
     4
 40
2.0
 49
1.25
 49
-0.25
 49
0.25
 49
-0.25
  0
LTYPE
  2
PHANTOM2
 70
     0
  3
___ _ _ ___ _ _ ___ _ _ ___ _ _
 72
    65
 73
     6
 40
1.25
 49
0.625
 49
-0.125
 49
0.125
 49
-0.125
 49
0.125
 49
-0.125
  0
ENDTAB
  0
TABLE
  2
LAYER
 70
     3
  0
LAYER
  2
0
 70
     0
 62
     7
  6
CONTINUOUS
  0
LAYER
  2
1
 70
     0
 62
     1
  6
CENTER
  0
LAYER
  2
11
 70
     0
 62
     3
  6
CONTINUOUS
  0
ENDTAB
  0
TABLE
  2
STYLE
 70
     2
  0
STYLE
  2
STANDARD
 70
     0
 40
0.0
 41
1.0
 50
0.0
 71
     0
 42
0.2
  3
simplex
  4
bigfont
  0
STYLE
  2
STANDARD1
 70
     0
 40
0.0
 41
1.0
 50
0.0
 71
     0
 42
3.0
  3
txt
  4

  0
ENDTAB
  0
TABLE
  2
VIEW
 70
     0
  0
ENDTAB
  0
TABLE
  2
UCS
 70
     0
  0
ENDTAB
  0
TABLE
  2
APPID
 70
     3
  0
APPID
  2
ACAD
 70
     0
  0
APPID
  2
ACAD_MLEADERVER
 70
     0
  0
APPID
  2
ACAD_NAV_VCDISPLAY
 70
     0
  0
ENDTAB
  0
TABLE
  2
DIMSTYLE
 70
     1
  0
DIMSTYLE
  2
STANDARD
 70
     0
  3

  4

  5

  6

  7

 40
1.0
 41
0.18
 42
0.0625
 43
0.38
 44
0.18
 45
0.0
 46
0.0
 47
0.0
 48
0.0
140
0.18
141
0.09
142
0.0
143
25.399999999999999
144
1.0
145
0.0
146
1.0
147
0.09
 71
     0
 72
     0
 73
     1
 74
     1
 75
     0
 76
     0
 77
     0
 78
     0
170
     0
171
     2
172
     0
173
     0
174
     0
175
     0
176
     0
177
     0
178
     0
  0
ENDTAB
  0
ENDSEC
  0
SECTION
  2
BLOCKS
  0
BLOCK
  8
0
  2
$MODEL_SPACE
 70
     0
 10
0.0
 20
0.0
 30
0.0
  3
$MODEL_SPACE
  1

  0
ENDBLK
  5
D49
  8
0
  0
BLOCK
 67
     1
  8
0
  2
$PAPER_SPACE
 70
     0
 10
0.0
 20
0.0
 30
0.0
  3
$PAPER_SPACE
  1

  0
ENDBLK
  5
D47
 67
     1
  8
0
  0
BLOCK
  8
0
  2
STDGX5
 70
     0
 10
0.0
 20
0.0
 30
0.0
  3
STDGX5
  1

  0
ENDBLK
  5
4F
  8
0
  0
ENDSEC
  0
SECTION
  2
ENTITIES
  0
INSERT
  5
DE
  8
0
  2
STDGX5
 10
0.0
 20
0.0
 30
0.0
  0
INSERT
  5
DF
  8
0
  2
STDGX5
 10
0.0
 20
0.0
 30
0.0
  0
INSERT
  5
15C
  8
0
  2
STDGX5
 10
275.0
 20
0.0
 30
0.0
  0
INSERT
  5
15D
  8
0
  2
STDGX5
 10
275.0
 20
0.0
 30
0.0
  0
INSERT
  5
33A
  8
11
  2
STDGX5
 10
28.965758445371989
 20
68.351351247030379
 30
0.0
  0
INSERT
  5
33B
  8
11
  2
STDGX5
 10
66.450857061588408
 20
32.351350970427461
 30
0.0
  0
INSERT
  5
33C
  8
11
  2
STDGX5
 10
0.0
 20
0.0
 30
0.0
  0
INSERT
  5
33D
  8
11
  2
STDGX5
 10
900.60215747054235
 20
246.07168527084471
 30
0.0
  0
INSERT
  5
33E
  8
11
  2
STDGX5
 10
938.08725608675866
 20
210.07168499424179
 30
0.0
  0
INSERT
  5
33F
  8
11
  2
STDGX5
 10
871.63639902517025
 20
177.7203340238143
 30
0.0
  0
INSERT
  5
340
  8
11
  2
STDGX5
 10
1685.641404080747
 20
276.22902723739588
 30
0.0
  0
INSERT
  5
341
  8
11
  2
STDGX5
 10
1723.1265026969629
 20
240.22902696079299
 30
0.0
  0
INSERT
  5
342
  8
11
  2
STDGX5
 10
1656.6756456353751
 20
207.8776759903655
 30
0.0
  0
LINE
  5
41F
  8
0
 10
155.66708285833951
 20
151.9845979632903
 30
0.0
 11
255.66708285833951
 21
151.9845979632903
 31
0.0
  0
LINE
  5
420
  8
0
 10
155.66708285833951
 20
151.9845979632903
 30
0.0
 11
155.66708285833931
 21
126.9845979632903
 31
0.0
  0
LINE
  5
421
  8
0
 10
155.66708285833931
 20
126.9845979632903
 30
0.0
 11
255.6670828583394
 21
126.9845979632903
 31
0.0
  0
LINE
  5
422
  8
0
 10
255.66708285833951
 20
151.9845979632899
 30
0.0
 11
255.6670828583394
 21
126.9845979632899
 31
0.0
  0
INSERT
  5
5C5
  8
11
  2
STDGX5
 10
226.26727972073849
 20
84.468698115756936
 30
0.0
  0
INSERT
  5
5C6
  8
11
  2
STDGX5
 10
263.75237833695491
 20
48.468697839153997
 30
0.0
  0
INSERT
  5
5C7
  8
11
  2
STDGX5
 10
197.3015212753665
 20
16.117346868726539
 30
0.0
  0
INSERT
  5
5C8
  8
11
  2
STDGX5
 10
1097.903678745909
 20
262.18903213957122
 30
0.0
  0
INSERT
  5
5C9
  8
11
  2
STDGX5
 10
1135.388777362125
 20
226.18903186296831
 30
0.0
  0
INSERT
  5
5CA
  8
11
  2
STDGX5
 10
1068.9379203005369
 20
193.83768089254079
 30
0.0
  0
INSERT
  5
5CB
  8
11
  2
STDGX5
 10
1882.9429253561129
 20
292.34637410612248
 30
0.0
  0
INSERT
  5
5CC
  8
11
  2
STDGX5
 10
1920.4280239723289
 20
256.34637382951962
 30
0.0
  0
INSERT
  5
5CD
  8
11
  2
STDGX5
 10
1853.9771669107411
 20
223.9950228590921
 30
0.0
  0
INSERT
  5
5E0
  8
11
  2
STDGX5
 10
501.26727972073837
 20
109.4687413181738
 30
0.0
  0
INSERT
  5
5E1
  8
11
  2
STDGX5
 10
538.75237833695485
 20
73.468741041570922
 30
0.0
  0
INSERT
  5
5E2
  8
11
  2
STDGX5
 10
472.30152127536638
 20
41.117390071143461
 30
0.0
  0
INSERT
  5
5E3
  8
11
  2
STDGX5
 10
1372.903678745909
 20
287.1890753419882
 30
0.0
  0
INSERT
  5
5E4
  8
11
  2
STDGX5
 10
1410.388777362125
 20
251.1890750653852
 30
0.0
  0
INSERT
  5
5E5
  8
11
  2
STDGX5
 10
1343.9379203005369
 20
218.83772409495779
 30
0.0
  0
INSERT
  5
5E6
  8
11
  2
STDGX5
 10
2157.9429253561129
 20
317.3464173085394
 30
0.0
  0
INSERT
  5
5E7
  8
11
  2
STDGX5
 10
2195.4280239723298
 20
281.34641703193648
 30
0.0
  0
INSERT
  5
5E8
  8
11
  2
STDGX5
 10
2128.9771669107422
 20
248.99506606150899
 30
0.0
  0
INSERT
  5
5F5
  8
11
  2
STDGX5
 10
501.26727972073837
 20
109.4687413181738
 30
0.0
  0
INSERT
  5
5F6
  8
11
  2
STDGX5
 10
538.75237833695485
 20
73.468741041570922
 30
0.0
  0
INSERT
  5
5F7
  8
11
  2
STDGX5
 10
472.30152127536638
 20
41.117390071143461
 30
0.0
  0
INSERT
  5
5F8
  8
11
  2
STDGX5
 10
1372.903678745909
 20
287.1890753419882
 30
0.0
  0
INSERT
  5
5F9
  8
11
  2
STDGX5
 10
1410.388777362125
 20
251.1890750653852
 30
0.0
  0
INSERT
  5
5FA
  8
11
  2
STDGX5
 10
1343.9379203005369
 20
218.83772409495779
 30
0.0
  0
INSERT
  5
5FB
  8
11
  2
STDGX5
 10
2157.9429253561129
 20
317.3464173085394
 30
0.0
  0
INSERT
  5
5FC
  8
11
  2
STDGX5
 10
2195.4280239723298
 20
281.34641703193648
 30
0.0
  0
INSERT
  5
5FD
  8
11
  2
STDGX5
 10
2128.9771669107422
 20
248.99506606150899
 30
0.0
  0
INSERT
  5
7CB
  8
11
  2
STDGX5
 10
224.06125267220659
 20
78.682983729459806
 30
0.0
  0
INSERT
  5
7CC
  8
11
  2
STDGX5
 10
261.5463512884229
 20
42.682983452856881
 30
0.0
  0
INSERT
  5
7CD
  8
11
  2
STDGX5
 10
195.09549422683449
 20
10.33163248242942
 30
0.0
  0
INSERT
  5
7CE
  8
11
  2
STDGX5
 10
1095.6976516973771
 20
256.40331775327411
 30
0.0
  0
INSERT
  5
7CF
  8
11
  2
STDGX5
 10
1133.182750313593
 20
220.40331747667119
 30
0.0
  0
INSERT
  5
7D0
  8
11
  2
STDGX5
 10
1066.7318932520041
 20
188.0519665062437
 30
0.0
  0
INSERT
  5
7D1
  8
11
  2
STDGX5
 10
1880.736898307581
 20
286.56065971982542
 30
0.0
  0
INSERT
  5
7D2
  8
11
  2
STDGX5
 10
1918.221996923797
 20
250.56065944322239
 30
0.0
  0
INSERT
  5
7D3
  8
11
  2
STDGX5
 10
1851.7711398622091
 20
218.20930847279499
 30
0.0
  0
INSERT
  5
7E6
  8
11
  2
STDGX5
 10
499.06125267220648
 20
103.6830269318767
 30
0.0
  0
INSERT
  5
7E7
  8
11
  2
STDGX5
 10
536.54635128842301
 20
67.683026655273807
 30
0.0
  0
INSERT
  5
7E8
  8
11
  2
STDGX5
 10
470.09549422683449
 20
35.331675684846353
 30
0.0
  0
INSERT
  5
7E9
  8
11
  2
STDGX5
 10
1370.6976516973771
 20
281.40336095569103
 30
0.0
  0
INSERT
  5
7EA
  8
11
  2
STDGX5
 10
1408.182750313593
 20
245.40336067908811
 30
0.0
  0
INSERT
  5
7EB
  8
11
  2
STDGX5
 10
1341.731893252005
 20
213.05200970866059
 30
0.0
  0
INSERT
  5
7EC
  8
11
  2
STDGX5
 10
2155.7368983075812
 20
311.56070292224229
 30
0.0
  0
INSERT
  5
7ED
  8
11
  2
STDGX5
 10
2193.2219969237981
 20
275.56070264563942
 30
0.0
  0
INSERT
  5
7EE
  8
11
  2
STDGX5
 10
2126.7711398622091
 20
243.20935167521191
 30
0.0
  0
INSERT
  5
7EF
  8
11
  2
STDGX5
 10
499.06125267220648
 20
103.6830269318767
 30
0.0
  0
INSERT
  5
7F0
  8
11
  2
STDGX5
 10
536.54635128842301
 20
67.683026655273807
 30
0.0
  0
INSERT
  5
7F1
  8
11
  2
STDGX5
 10
470.09549422683449
 20
35.331675684846353
 30
0.0
  0
INSERT
  5
7F2
  8
11
  2
STDGX5
 10
1370.6976516973771
 20
281.40336095569103
 30
0.0
  0
INSERT
  5
7F3
  8
11
  2
STDGX5
 10
1408.182750313593
 20
245.40336067908811
 30
0.0
  0
INSERT
  5
7F4
  8
11
  2
STDGX5
 10
1341.731893252005
 20
213.05200970866059
 30
0.0
  0
INSERT
  5
7F5
  8
11
  2
STDGX5
 10
2155.7368983075812
 20
311.56070292224229
 30
0.0
  0
INSERT
  5
7F6
  8
11
  2
STDGX5
 10
2193.2219969237981
 20
275.56070264563942
 30
0.0
  0
INSERT
  5
7F7
  8
11
  2
STDGX5
 10
2126.7711398622091
 20
243.20935167521191
 30
0.0
  0
INSERT
  5
7F8
  8
11
  2
STDGX5
 10
499.06125267220648
 20
103.6830269318767
 30
0.0
  0
INSERT
  5
7F9
  8
11
  2
STDGX5
 10
536.54635128842301
 20
67.683026655273807
 30
0.0
  0
INSERT
  5
7FA
  8
11
  2
STDGX5
 10
470.09549422683449
 20
35.331675684846353
 30
0.0
  0
INSERT
  5
7FB
  8
11
  2
STDGX5
 10
1370.6976516973771
 20
281.40336095569103
 30
0.0
  0
INSERT
  5
7FC
  8
11
  2
STDGX5
 10
1408.182750313593
 20
245.40336067908811
 30
0.0
  0
INSERT
  5
7FD
  8
11
  2
STDGX5
 10
1341.731893252005
 20
213.05200970866059
 30
0.0
  0
INSERT
  5
7FE
  8
11
  2
STDGX5
 10
2155.7368983075812
 20
311.56070292224229
 30
0.0
  0
INSERT
  5
7FF
  8
11
  2
STDGX5
 10
2193.2219969237981
 20
275.56070264563942
 30
0.0
  0
INSERT
  5
800
  8
11
  2
STDGX5
 10
2126.7711398622091
 20
243.20935167521191
 30
0.0
  0
INSERT
  5
9DA
  8
11
  2
STDGX5
 10
225.9915264088516
 20
85.846249234951813
 30
0.0
  0
INSERT
  5
9DB
  8
11
  2
STDGX5
 10
263.47662502506802
 20
49.846248958348887
 30
0.0
  0
INSERT
  5
9DC
  8
11
  2
STDGX5
 10
197.02576796347961
 20
17.49489798792143
 30
0.0
  0
INSERT
  5
9DD
  8
11
  2
STDGX5
 10
1097.6279254340211
 20
263.56658325876612
 30
0.0
  0
INSERT
  5
9DE
  8
11
  2
STDGX5
 10
1135.113024050238
 20
227.5665829821632
 30
0.0
  0
INSERT
  5
9DF
  8
11
  2
STDGX5
 10
1068.6621669886499
 20
195.21523201173571
 30
0.0
  0
INSERT
  5
9E0
  8
11
  2
STDGX5
 10
1882.6671720442259
 20
293.72392522531737
 30
0.0
  0
INSERT
  5
9E1
  8
11
  2
STDGX5
 10
1920.152270660443
 20
257.72392494871451
 30
0.0
  0
INSERT
  5
9E2
  8
11
  2
STDGX5
 10
1853.7014135988541
 20
225.37257397828699
 30
0.0
  0
INSERT
  5
9F5
  8
11
  2
STDGX5
 10
500.99152640885148
 20
110.8462924373687
 30
0.0
  0
INSERT
  5
9F6
  8
11
  2
STDGX5
 10
538.47662502506785
 20
74.846292160765813
 30
0.0
  0
INSERT
  5
9F7
  8
11
  2
STDGX5
 10
472.02576796347961
 20
42.494941190338352
 30
0.0
  0
INSERT
  5
9F8
  8
11
  2
STDGX5
 10
1372.627925434022
 20
288.56662646118298
 30
0.0
  0
INSERT
  5
9F9
  8
11
  2
STDGX5
 10
1410.113024050238
 20
252.56662618458009
 30
0.0
  0
INSERT
  5
9FA
  8
11
  2
STDGX5
 10
1343.6621669886499
 20
220.21527521415271
 30
0.0
  0
INSERT
  5
9FB
  8
11
  2
STDGX5
 10
2157.6671720442259
 20
318.72396842773429
 30
0.0
  0
INSERT
  5
9FC
  8
11
  2
STDGX5
 10
2195.1522706604428
 20
282.72396815113137
 30
0.0
  0
INSERT
  5
9FD
  8
11
  2
STDGX5
 10
2128.7014135988538
 20
250.37261718070391
 30
0.0
  0
INSERT
  5
9FE
  8
11
  2
STDGX5
 10
500.99152640885148
 20
110.8462924373687
 30
0.0
  0
INSERT
  5
9FF
  8
11
  2
STDGX5
 10
538.47662502506785
 20
74.846292160765813
 30
0.0
  0
INSERT
  5
A00
  8
11
  2
STDGX5
 10
472.02576796347961
 20
42.494941190338352
 30
0.0
  0
INSERT
  5
A01
  8
11
  2
STDGX5
 10
1372.627925434022
 20
288.56662646118298
 30
0.0
  0
INSERT
  5
A02
  8
11
  2
STDGX5
 10
1410.113024050238
 20
252.56662618458009
 30
0.0
  0
INSERT
  5
A03
  8
11
  2
STDGX5
 10
1343.6621669886499
 20
220.21527521415271
 30
0.0
  0
INSERT
  5
A04
  8
11
  2
STDGX5
 10
2157.6671720442259
 20
318.72396842773429
 30
0.0
  0
INSERT
  5
A05
  8
11
  2
STDGX5
 10
2195.1522706604428
 20
282.72396815113137
 30
0.0
  0
INSERT
  5
A06
  8
11
  2
STDGX5
 10
2128.7014135988538
 20
250.37261718070391
 30
0.0
  0
INSERT
  5
A07
  8
11
  2
STDGX5
 10
500.99152640885148
 20
110.8462924373687
 30
0.0
  0
INSERT
  5
A08
  8
11
  2
STDGX5
 10
538.47662502506785
 20
74.846292160765813
 30
0.0
  0
INSERT
  5
A09
  8
11
  2
STDGX5
 10
472.02576796347961
 20
42.494941190338352
 30
0.0
  0
INSERT
  5
A0A
  8
11
  2
STDGX5
 10
1372.627925434022
 20
288.56662646118298
 30
0.0
  0
INSERT
  5
A0B
  8
11
  2
STDGX5
 10
1410.113024050238
 20
252.56662618458009
 30
0.0
  0
INSERT
  5
A0C
  8
11
  2
STDGX5
 10
1343.6621669886499
 20
220.21527521415271
 30
0.0
  0
INSERT
  5
A0D
  8
11
  2
STDGX5
 10
2157.6671720442259
 20
318.72396842773429
 30
0.0
  0
INSERT
  5
A0E
  8
11
  2
STDGX5
 10
2195.1522706604428
 20
282.72396815113137
 30
0.0
  0
INSERT
  5
A0F
  8
11
  2
STDGX5
 10
2128.7014135988538
 20
250.37261718070391
 30
0.0
  0
INSERT
  5
A10
  8
11
  2
STDGX5
 10
500.99152640885148
 20
110.8462924373687
 30
0.0
  0
INSERT
  5
A11
  8
11
  2
STDGX5
 10
538.47662502506785
 20
74.846292160765813
 30
0.0
  0
INSERT
  5
A12
  8
11
  2
STDGX5
 10
472.02576796347961
 20
42.494941190338352
 30
0.0
  0
INSERT
  5
A13
  8
11
  2
STDGX5
 10
1372.627925434022
 20
288.56662646118298
 30
0.0
  0
INSERT
  5
A14
  8
11
  2
STDGX5
 10
1410.113024050238
 20
252.56662618458009
 30
0.0
  0
INSERT
  5
A15
  8
11
  2
STDGX5
 10
1343.6621669886499
 20
220.21527521415271
 30
0.0
  0
INSERT
  5
A16
  8
11
  2
STDGX5
 10
2157.6671720442259
 20
318.72396842773429
 30
0.0
  0
INSERT
  5
A17
  8
11
  2
STDGX5
 10
2195.1522706604428
 20
282.72396815113137
 30
0.0
  0
INSERT
  5
A18
  8
11
  2
STDGX5
 10
2128.7014135988538
 20
250.37261718070391
 30
0.0
  0
INSERT
  5
C20
  8
11
  2
STDGX5
 10
224.61275929598031
 20
80.887065520171618
 30
0.0
  0
INSERT
  5
C21
  8
11
  2
STDGX5
 10
262.09785791219667
 20
44.887065243568713
 30
0.0
  0
INSERT
  5
C22
  8
11
  2
STDGX5
 10
195.64700085060829
 20
12.535714273141251
 30
0.0
  0
INSERT
  5
C23
  8
11
  2
STDGX5
 10
1096.2491583211499
 20
258.60739954398588
 30
0.0
  0
INSERT
  5
C24
  8
11
  2
STDGX5
 10
1133.734256937367
 20
222.60739926738299
 30
0.0
  0
INSERT
  5
C25
  8
11
  2
STDGX5
 10
1067.2833998757781
 20
190.2560482969555
 30
0.0
  0
INSERT
  5
C26
  8
11
  2
STDGX5
 10
1881.288404931355
 20
288.76474151053719
 30
0.0
  0
INSERT
  5
C27
  8
11
  2
STDGX5
 10
1918.773503547571
 20
252.7647412339343
 30
0.0
  0
INSERT
  5
C28
  8
11
  2
STDGX5
 10
1852.3226464859829
 20
220.41339026350681
 30
0.0
  0
INSERT
  5
C3B
  8
11
  2
STDGX5
 10
499.61275929598031
 20
105.88710872258849
 30
0.0
  0
INSERT
  5
C3C
  8
11
  2
STDGX5
 10
537.09785791219679
 20
69.887108445985632
 30
0.0
  0
INSERT
  5
C3D
  8
11
  2
STDGX5
 10
470.64700085060832
 20
37.535757475558171
 30
0.0
  0
INSERT
  5
C3E
  8
11
  2
STDGX5
 10
1371.2491583211499
 20
283.6074427464028
 30
0.0
  0
INSERT
  5
C3F
  8
11
  2
STDGX5
 10
1408.734256937367
 20
247.60744246979991
 30
0.0
  0
INSERT
  5
C40
  8
11
  2
STDGX5
 10
1342.2833998757781
 20
215.2560914993725
 30
0.0
  0
INSERT
  5
C41
  8
11
  2
STDGX5
 10
2156.2884049313552
 20
313.76478471295411
 30
0.0
  0
INSERT
  5
C42
  8
11
  2
STDGX5
 10
2193.7735035475721
 20
277.76478443635119
 30
0.0
  0
INSERT
  5
C43
  8
11
  2
STDGX5
 10
2127.3226464859831
 20
245.4134334659237
 30
0.0
  0
INSERT
  5
C44
  8
11
  2
STDGX5
 10
499.61275929598031
 20
105.88710872258849
 30
0.0
  0
INSERT
  5
C45
  8
11
  2
STDGX5
 10
537.09785791219679
 20
69.887108445985632
 30
0.0
  0
INSERT
  5
C46
  8
11
  2
STDGX5
 10
470.64700085060832
 20
37.535757475558171
 30
0.0
  0
INSERT
  5
C47
  8
11
  2
STDGX5
 10
1371.2491583211499
 20
283.6074427464028
 30
0.0
  0
INSERT
  5
C48
  8
11
  2
STDGX5
 10
1408.734256937367
 20
247.60744246979991
 30
0.0
  0
INSERT
  5
C49
  8
11
  2
STDGX5
 10
1342.2833998757781
 20
215.2560914993725
 30
0.0
  0
INSERT
  5
C4A
  8
11
  2
STDGX5
 10
2156.2884049313552
 20
313.76478471295411
 30
0.0
  0
INSERT
  5
C4B
  8
11
  2
STDGX5
 10
2193.7735035475721
 20
277.76478443635119
 30
0.0
  0
INSERT
  5
C4C
  8
11
  2
STDGX5
 10
2127.3226464859831
 20
245.4134334659237
 30
0.0
  0
INSERT
  5
C4D
  8
11
  2
STDGX5
 10
499.61275929598031
 20
105.88710872258849
 30
0.0
  0
INSERT
  5
C4E
  8
11
  2
STDGX5
 10
537.09785791219679
 20
69.887108445985632
 30
0.0
  0
INSERT
  5
C4F
  8
11
  2
STDGX5
 10
470.64700085060832
 20
37.535757475558171
 30
0.0
  0
INSERT
  5
C50
  8
11
  2
STDGX5
 10
1371.2491583211499
 20
283.6074427464028
 30
0.0
  0
INSERT
  5
C51
  8
11
  2
STDGX5
 10
1408.734256937367
 20
247.60744246979991
 30
0.0
  0
INSERT
  5
C52
  8
11
  2
STDGX5
 10
1342.2833998757781
 20
215.2560914993725
 30
0.0
  0
INSERT
  5
C53
  8
11
  2
STDGX5
 10
2156.2884049313552
 20
313.76478471295411
 30
0.0
  0
INSERT
  5
C54
  8
11
  2
STDGX5
 10
2193.7735035475721
 20
277.76478443635119
 30
0.0
  0
INSERT
  5
C55
  8
11
  2
STDGX5
 10
2127.3226464859831
 20
245.4134334659237
 30
0.0
  0
INSERT
  5
C56
  8
11
  2
STDGX5
 10
499.61275929598031
 20
105.88710872258849
 30
0.0
  0
INSERT
  5
C57
  8
11
  2
STDGX5
 10
537.09785791219679
 20
69.887108445985632
 30
0.0
  0
INSERT
  5
C58
  8
11
  2
STDGX5
 10
470.64700085060832
 20
37.535757475558171
 30
0.0
  0
INSERT
  5
C59
  8
11
  2
STDGX5
 10
1371.2491583211499
 20
283.6074427464028
 30
0.0
  0
INSERT
  5
C5A
  8
11
  2
STDGX5
 10
1408.734256937367
 20
247.60744246979991
 30
0.0
  0
INSERT
  5
C5B
  8
11
  2
STDGX5
 10
1342.2833998757781
 20
215.2560914993725
 30
0.0
  0
INSERT
  5
C5C
  8
11
  2
STDGX5
 10
2156.2884049313552
 20
313.76478471295411
 30
0.0
  0
INSERT
  5
C5D
  8
11
  2
STDGX5
 10
2193.7735035475721
 20
277.76478443635119
 30
0.0
  0
INSERT
  5
C5E
  8
11
  2
STDGX5
 10
2127.3226464859831
 20
245.4134334659237
 30
0.0
  0
INSERT
  5
C5F
  8
11
  2
STDGX5
 10
499.61275929598031
 20
105.88710872258849
 30
0.0
  0
INSERT
  5
C60
  8
11
  2
STDGX5
 10
537.09785791219679
 20
69.887108445985632
 30
0.0
  0
INSERT
  5
C61
  8
11
  2
STDGX5
 10
470.64700085060832
 20
37.535757475558171
 30
0.0
  0
INSERT
  5
C62
  8
11
  2
STDGX5
 10
1371.2491583211499
 20
283.6074427464028
 30
0.0
  0
INSERT
  5
C63
  8
11
  2
STDGX5
 10
1408.734256937367
 20
247.60744246979991
 30
0.0
  0
INSERT
  5
C64
  8
11
  2
STDGX5
 10
1342.2833998757781
 20
215.2560914993725
 30
0.0
  0
INSERT
  5
C65
  8
11
  2
STDGX5
 10
2156.2884049313552
 20
313.76478471295411
 30
0.0
  0
INSERT
  5
C66
  8
11
  2
STDGX5
 10
2193.7735035475721
 20
277.76478443635119
 30
0.0
  0
INSERT
  5
C67
  8
11
  2
STDGX5
 10
2127.3226464859831
 20
245.4134334659237
 30
0.0
  0
LINE
  5
C68
  8
0
 10
77.108932607561925
 20
151.9845979632903
 30
0.0
 11
82.158932607561894
 21
151.9845979632903
 31
0.0
  0
LINE
  5
C69
  8
0
 10
77.108932607561925
 20
126.9845979632903
 30
0.0
 11
112.1089326075619
 21
126.9845979632903
 31
0.0
  0
LINE
  5
C6A
  8
0
 10
112.1089326075619
 20
151.9845979632903
 30
0.0
 11
112.1089326075619
 21
126.9845979632903
 31
0.0
  0
LINE
  5
C6B
  8
0
 10
77.108932607561925
 20
151.9845979632903
 30
0.0
 11
77.108932607561925
 21
126.9845979632903
 31
0.0
  0
LINE
  5
C6C
  8
0
 10
89.658932607561894
 20
142.1845979632904
 30
0.0
 11
99.558932607561985
 21
142.1845979632904
 31
0.0
  0
LINE
  5
C6D
  8
0
 10
82.158932607562008
 20
145.28459796329031
 30
0.0
 11
89.658932607561894
 21
145.28459796329031
 31
0.0
  0
LINE
  5
C6E
  8
0
 10
107.058932607562
 20
151.9845979632903
 30
0.0
 11
107.058932607562
 21
145.28459796329031
 31
0.0
  0
LINE
  5
C6F
  8
0
 10
99.558932607561985
 20
145.2845979632902
 30
0.0
 11
99.558932607561985
 21
142.1845979632904
 31
0.0
  0
LINE
  5
C70
  8
0
 10
89.658932607561894
 20
145.2845979632902
 30
0.0
 11
89.658932607561894
 21
142.1845979632904
 31
0.0
  0
LINE
  5
C71
  8
0
 10
82.158932607561894
 20
151.9845979632903
 30
0.0
 11
82.158932607561894
 21
145.28459796329031
 31
0.0
  0
LINE
  5
C72
  8
0
 10
107.058932607562
 20
151.9845979632903
 30
0.0
 11
112.1089326075619
 21
151.9845979632903
 31
0.0
  0
LINE
  5
C73
  8
0
 10
99.558932607561985
 20
145.28459796329031
 30
0.0
 11
107.058932607562
 21
145.28459796329031
 31
0.0
  0
LINE
  5
C9C
  8
1
 10
94.608932607561925
 20
123.9845979632903
 30
0.0
 11
94.608932607561925
 21
154.9845979632903
 31
0.0
  0
LINE
  5
CA1
  8
0
 10
155.66708285833951
 20
227.55602670575331
 30
0.0
 11
255.66708285833951
 21
227.55602670575331
 31
0.0
  0
LINE
  5
CA2
  8
0
 10
155.66708285833931
 20
192.5560267057532
 30
0.0
 11
255.6670828583394
 21
192.5560267057532
 31
0.0
  0
LINE
  5
CA3
  8
0
 10
155.66708285833951
 20
227.55602670575331
 30
0.0
 11
155.66708285833931
 21
192.5560267057532
 31
0.0
  0
LINE
  5
CB1
  8
0
 10
255.66708285833951
 20
227.55602670575291
 30
0.0
 11
255.6670828583394
 21
192.5560267057528
 31
0.0
  0
LINE
  5
CC7
  8
1
 10
150.6670828583394
 20
210.05602670575331
 30
0.0
 11
260.66708285833943
 21
210.05602670575291
 31
0.0
  0
LINE
  5
CC8
  8
0
 10
155.6670828583394
 20
222.5060267057533
 30
0.0
 11
255.66708285833951
 21
222.5060267057529
 31
0.0
  0
LINE
  5
CC9
  8
0
 10
155.6670828583394
 20
215.00602670575319
 30
0.0
 11
255.6670828583394
 21
215.0060267057529
 31
0.0
  0
LINE
  5
CCA
  8
0
 10
155.6670828583394
 20
205.10602670575321
 30
0.0
 11
255.6670828583394
 21
205.10602670575349
 31
0.0
  0
LINE
  5
CCB
  8
0
 10
155.6670828583394
 20
197.6060267057531
 30
0.0
 11
255.66708285833951
 21
197.60602670575341
 31
0.0
  0
LINE
  5
CD0
  8
1
 10
150.6670828583394
 20
68.913169220827427
 30
0.0
 11
260.66708285833943
 21
68.913169220827825
 31
0.0
  0
LINE
  5
CD1
  8
0
 10
155.66708285833951
 20
51.413169220827449
 30
0.0
 11
255.66708285833951
 21
51.413169220827449
 31
0.0
  0
LINE
  5
CD2
  8
0
 10
155.66708285833931
 20
86.413169220827456
 30
0.0
 11
255.6670828583394
 21
86.413169220827456
 31
0.0
  0
LINE
  5
CD3
  8
0
 10
155.66708285833951
 20
51.413169220827449
 30
0.0
 11
155.66708285833931
 21
86.413169220827456
 31
0.0
  0
LINE
  5
CD4
  8
0
 10
255.66708285833951
 20
51.413169220827847
 30
0.0
 11
255.6670828583394
 21
86.413169220827854
 31
0.0
  0
TEXT
  5
DFA
  8
0
 62
     3
 10
0.0
 20
0.0
 30
0.0
 40
10.0
  1
DLG80
  7
STANDARD1
  0
ENDSEC
  0
EOF
