  0
SECTION
  2
HEADER
  9
$ACADVER
  1
AC1009
  9
$INSBASE
 10
0.0
 20
0.0
 30
0.0
  9
$EXTMIN
 10
0.0
 20
-2.9604365620736979
 30
0.0
  9
$EXTMAX
 10
172.5
 20
185.5
 30
0.0
  9
$LIMMIN
 10
0.0
 20
0.0
  9
$LIMMAX
 10
385.0
 20
270.0
  9
$ORTHOMODE
 70
     1
  9
$REGENMODE
 70
     1
  9
$FILLMODE
 70
     1
  9
$QTEXTMODE
 70
     0
  9
$MIRRTEXT
 70
     0
  9
$DRAGMODE
 70
     2
  9
$LTSCALE
 40
5.0
  9
$OSMODE
 70
    37
  9
$ATTMODE
 70
     1
  9
$TEXTSIZE
 40
4.0
  9
$TRACEWID
 40
0.05
  9
$TEXTSTYLE
  7
STANDARD
  9
$CLAYER
  8
0
  9
$CELTYPE
  6
BYLAYER
  9
$CECOLOR
 62
   256
  9
$DIMSCALE
 40
1.0
  9
$DIMASZ
 40
3.0
  9
$DIMEXO
 40
1.0
  9
$DIMDLI
 40
6.0
  9
$DIMRND
 40
0.0
  9
$DIMDLE
 40
0.0
  9
$DIMEXE
 40
1.0
  9
$DIMTP
 40
495.0
  9
$DIMTM
 40
0.0
  9
$DIMTXT
 40
3.0
  9
$DIMCEN
 40
0.0
  9
$DIMTSZ
 40
0.0
  9
$DIMTOL
 70
     0
  9
$DIMLIM
 70
     0
  9
$DIMTIH
 70
     0
  9
$DIMTOH
 70
     0
  9
$DIMSE1
 70
     0
  9
$DIMSE2
 70
     0
  9
$DIMTAD
 70
     1
  9
$DIMZIN
 70
     8
  9
$DIMBLK
  1

  9
$DIMASO
 70
     1
  9
$DIMSHO
 70
     0
  9
$DIMPOST
  1

  9
$DIMAPOST
  1

  9
$DIMALT
 70
     0
  9
$DIMALTD
 70
     2
  9
$DIMALTF
 40
25.399999999999999
  9
$DIMLFAC
 40
1.0
  9
$DIMTOFL
 70
     1
  9
$DIMTVP
 40
0.0
  9
$DIMTIX
 70
     0
  9
$DIMSOXD
 70
     0
  9
$DIMSAH
 70
     0
  9
$DIMBLK1
  1

  9
$DIMBLK2
  1

  9
$DIMSTYLE
  2
STANDARD
  9
$DIMCLRD
 70
     0
  9
$DIMCLRE
 70
     0
  9
$DIMCLRT
 70
     0
  9
$DIMTFAC
 40
1.0
  9
$DIMGAP
 40
1.0
  9
$LUNITS
 70
     2
  9
$LUPREC
 70
     1
  9
$SKETCHINC
 40
0.1
  9
$FILLETRAD
 40
2.0
  9
$AUNITS
 70
     0
  9
$AUPREC
 70
     1
  9
$MENU
  1
E:\r13\win\SUPPORT\ACAD
  9
$ELEVATION
 40
0.0
  9
$PELEVATION
 40
0.0
  9
$THICKNESS
 40
0.0
  9
$LIMCHECK
 70
     0
  9
$BLIPMODE
 70
     0
  9
$CHAMFERA
 40
0.0
  9
$CHAMFERB
 40
0.0
  9
$SKPOLY
 70
     0
  9
$TDCREATE
 40
2450541.3939600689
  9
$TDUPDATE
 40
2458232.6387576852
  9
$TDINDWG
 40
2.3157587036999998
  9
$TDUSRTIMER
 40
2.3157587036999998
  9
$USRTIMER
 70
     1
  9
$ANGBASE
 50
0.0
  9
$ANGDIR
 70
     0
  9
$PDMODE
 70
     0
  9
$PDSIZE
 40
0.0
  9
$PLINEWID
 40
0.0
  9
$COORDS
 70
     1
  9
$SPLFRAME
 70
     0
  9
$SPLINETYPE
 70
     6
  9
$SPLINESEGS
 70
     8
  9
$ATTDIA
 70
     0
  9
$ATTREQ
 70
     1
  9
$HANDLING
 70
     1
  9
$HANDSEED
  5
201F6
  9
$SURFTAB1
 70
     6
  9
$SURFTAB2
 70
     6
  9
$SURFTYPE
 70
     6
  9
$SURFU
 70
     6
  9
$SURFV
 70
     6
  9
$UCSNAME
  2

  9
$UCSORG
 10
0.0
 20
0.0
 30
0.0
  9
$UCSXDIR
 10
1.0
 20
0.0
 30
0.0
  9
$UCSYDIR
 10
0.0
 20
1.0
 30
0.0
  9
$PUCSNAME
  2

  9
$PUCSORG
 10
0.0
 20
0.0
 30
0.0
  9
$PUCSXDIR
 10
1.0
 20
0.0
 30
0.0
  9
$PUCSYDIR
 10
0.0
 20
1.0
 30
0.0
  9
$USERI1
 70
     3
  9
$USERI2
 70
     1
  9
$USERI3
 70
     1
  9
$USERI4
 70
     0
  9
$USERI5
 70
     0
  9
$USERR1
 40
1.0
  9
$USERR2
 40
3.0
  9
$USERR3
 40
3.0
  9
$USERR4
 40
3.0
  9
$USERR5
 40
10.0
  9
$WORLDVIEW
 70
     1
  9
$SHADEDGE
 70
     3
  9
$SHADEDIF
 70
    70
  9
$TILEMODE
 70
     1
  9
$MAXACTVP
 70
    16
  9
$PLIMCHECK
 70
     0
  9
$PEXTMIN
 10
1.0000000000000000E+020
 20
1.0000000000000000E+020
 30
1.0000000000000000E+020
  9
$PEXTMAX
 10
-1.0000000000000000E+020
 20
-1.0000000000000000E+020
 30
-1.0000000000000000E+020
  9
$PLIMMIN
 10
0.0
 20
0.0
  9
$PLIMMAX
 10
12.0
 20
9.0
  9
$UNITMODE
 70
     0
  9
$VISRETAIN
 70
     0
  9
$PLINEGEN
 70
     0
  9
$PSLTSCALE
 70
     0
  0
ENDSEC
  0
SECTION
  2
TABLES
  0
TABLE
  2
VPORT
 70
     1
  0
VPORT
  2
*ACTIVE
 70
     0
 10
0.0
 20
0.0
 11
1.0
 21
1.0
 12
227.02991452991449
 22
125.0
 13
0.0
 23
0.0
 14
5.0
 24
5.0
 15
10.0
 25
10.0
 16
0.0
 26
0.0
 36
1.0
 17
0.0
 27
0.0
 37
0.0
 40
250.0
 41
1.816239316239316
 42
50.0
 43
0.0
 44
0.0
 50
0.0
 51
0.0
 71
     0
 72
   100
 73
     1
 74
     0
 75
     0
 76
     0
 77
     0
 78
     0
  0
ENDTAB
  0
TABLE
  2
LTYPE
 70
     4
  0
LTYPE
  2
CONTINUOUS
 70
     0
  3
Solid Line
 72
    65
 73
     0
 40
0.0
  0
LTYPE
  2
CENTER
 70
     0
  3
____ _ ____ _ ____ _ ____ _ ____ _ ____ _ ____
 72
    65
 73
     4
 40
2.0
 49
1.25
 49
-0.25
 49
0.25
 49
-0.25
  0
LTYPE
  2
HIDDEN
 70
     0
  3
_ _ _ _ _ _ _ _ _ _ _ _ _ _ _ _ _ _ _ _ _ _ _
 72
    65
 73
     2
 40
0.375
 49
0.25
 49
-0.125
  0
LTYPE
  2
PHANTOM2
 70
     0
  3
___ _ _ ___ _ _ ___ _ _ ___ _ _
 72
    65
 73
     6
 40
1.25
 49
0.625
 49
-0.125
 49
0.125
 49
-0.125
 49
0.125
 49
-0.125
  0
ENDTAB
  0
TABLE
  2
LAYER
 70
     6
  0
LAYER
  2
0
 70
     0
 62
     7
  6
CONTINUOUS
  0
LAYER
  2
1
 70
     0
 62
     1
  6
CENTER
  0
LAYER
  2
2
 70
     0
 62
     2
  6
HIDDEN
  0
LAYER
  2
DEFPOINTS
 70
     0
 62
     7
  6
CONTINUOUS
  0
LAYER
  2
4
 70
     0
 62
     4
  6
CONTINUOUS
  0
LAYER
  2
3
 70
     0
 62
     3
  6
CONTINUOUS
  0
ENDTAB
  0
TABLE
  2
STYLE
 70
     2
  0
STYLE
  2
STANDARD
 70
     0
 40
0.0
 41
1.0
 50
0.0
 71
     0
 42
4.0
  3
SIMPLEX
  4
BIGFONT
  0
STYLE
  2
STANDARD1
 70
     0
 40
0.0
 41
1.0
 50
0.0
 71
     0
 42
3.0
  3
txt
  4

  0
ENDTAB
  0
TABLE
  2
VIEW
 70
     0
  0
ENDTAB
  0
TABLE
  2
UCS
 70
     0
  0
ENDTAB
  0
TABLE
  2
APPID
 70
   135
  0
APPID
  2
ACAD
 70
     0
  0
APPID
  2
ASM_BASE
 70
     0
  0
APPID
  2
ASM_EXPLO_VER_2_00
 70
     0
  0
APPID
  2
ASM_CADM_VER_12_00
 70
     0
  0
APPID
  2
ASM_BASEFORO
 70
     0
  0
APPID
  2
ASM_BASETRAVI
 70
     0
  0
APPID
  2
ASM_BASETRAVI1
 70
     0
  0
APPID
  2
ASM_GRUPPI
 70
     0
  0
APPID
  2
ASM_CADM_ALBERO
 70
     0
  0
APPID
  2
ASM_GOLE
 70
     0
  0
APPID
  2
ACAD_EXEMPT_FROM_CAD_STANDARDS
 70
     0
  0
APPID
  2
ACAD_DSTYLE_DIMJAG
 70
     0
  0
APPID
  2
ACAD_DSTYLE_DIMTALN
 70
     0
  0
APPID
  2
ACAD_MLEADERVER
 70
     0
  0
APPID
  2
ACAD_NAV_VCDISPLAY
 70
     0
  0
APPID
  2
ACAD_DSTYLE_DIMRADIAL_EXTENSION
 70
     0
  0
APPID
  2
DCO15
 70
     0
  0
APPID
  2
ACADANNOTATIVE
 70
     0
  0
APPID
  2
GENIUS_GENODEF_13
 70
     0
  0
APPID
  2
GENIUS_GENFIL_13
 70
     0
  0
APPID
  2
GENIUS_GENOBJ-N-CHA_13
 70
     0
  0
APPID
  2
GENIUS_GENOREF_13
 70
     0
  0
APPID
  2
GENIUS_GENOENT_13
 70
     0
  0
APPID
  2
GENIUS_GENBH_13
 70
     0
  0
APPID
  2
GENIUS_GENOBJ_13
 70
     0
  0
APPID
  2
GENIUS_GENOLIS_13
 70
     0
  0
APPID
  2
GENIUS_GENOBJ-NBEHI-BHF_13
 70
     0
  0
APPID
  2
GENIUS_GENOBJ-NBEHI-BHB_13
 70
     0
  0
APPID
  2
GENIUS_GENOBJ-F-PART_13
 70
     0
  0
APPID
  2
GENIUS_GEFSTDP_13
 70
     0
  0
APPID
  2
GENIUS_GENOBJ-N-RSSYM_13
 70
     0
  0
APPID
  2
GENIUS_GENSYMENT_13
 70
     0
  0
APPID
  2
GENIUS_GENOBJ-N-TIT_13
 70
     0
  0
APPID
  2
GENIUS_GENTITLE_13
 70
     0
  0
APPID
  2
GENIUS_GENZVEED_13
 70
     0
  0
APPID
  2
GENIUS_GENOBJ-N-LEADER_13
 70
     0
  0
APPID
  2
GENIUS_GENOBJ-N-FIL_13
 70
     0
  0
APPID
  2
GENIUS_GENOBJ-N-SEC_13
 70
     0
  0
APPID
  2
GENIUS_GENOBJ-N-CRS_13
 70
     0
  0
APPID
  2
GENIUS_GENOBJ-N-ZOO_13
 70
     0
  0
APPID
  2
GENIUS_GENZOO_13
 70
     0
  0
APPID
  2
GENIUS_GENOBJ-F-TOL_13
 70
     0
  0
APPID
  2
_CALL_MAC$
 70
     0
  0
APPID
  2
_FTCNV
 70
     0
  0
APPID
  2
_PHO
 70
     0
  0
APPID
  2
_CLP
 70
     0
  0
APPID
  2
MOJIGUMI_PARTS
 70
     0
  0
APPID
  2
_DBL
 70
     0
  0
APPID
  2
_PWH
 70
     0
  0
APPID
  2
_G9P
 70
     0
  0
APPID
  2
AME_SOL
 70
     0
  0
APPID
  2
HAKO_DEF
 70
     0
  0
APPID
  2
HAKO_TXT
 70
     0
  0
APPID
  2
HAKO_OVR
 70
     0
  0
APPID
  2
GENIUS_GENCFG_13
 70
     0
  0
APPID
  2
GENIUS_GENCFG0_13
 70
     0
  0
APPID
  2
GENIUS_GENCFG1_13
 70
     0
  0
APPID
  2
GENIUS_GENCFG2_13
 70
     0
  0
APPID
  2
GENIUS_GENCFG3_13
 70
     0
  0
APPID
  2
GENIUS_GENCFG4_13
 70
     0
  0
APPID
  2
GENIUS_GEVCFG0_13
 70
     0
  0
APPID
  2
GENIUS_GENHATCH_13
 70
     0
  0
APPID
  2
GENIUS_GEFCFG0_13
 70
     0
  0
APPID
  2
GENIUS_GENOBJ-N-HTC_13
 70
     0
  0
APPID
  2
AVE_RENDER
 70
     0
  0
APPID
  2
AVE_ENTITY_MATERIAL
 70
     0
  0
APPID
  2
AVE_FINISH
 70
     0
  0
APPID
  2
AVE_MATERIAL
 70
     0
  0
APPID
  2
AVE_GLOBAL
 70
     0
  0
APPID
  2
_NUM
 70
     0
  0
APPID
  2
HAKO_FNM
 70
     0
  0
APPID
  2
ACA_CADIMENU
 70
     0
  0
APPID
  2
AUTOCAD_POSTSCRIPT_FIGURE
 70
     0
  0
APPID
  2
GEV_VCCNULL_SWITCH_OFF
 70
     0
  0
APPID
  2
GENIUS_GENDTOL_13
 70
     0
  0
APPID
  2
GENIUS_GEFWELD_13
 70
     0
  0
APPID
  2
GENIUS_GENOBJ-F-WELS_13
 70
     0
  0
APPID
  2
GEVID961514679
 70
     0
  0
APPID
  2
GEVDC
 70
     0
  0
APPID
  2
GEVPT
 70
     0
  0
APPID
  2
GEVIT
 70
     0
  0
APPID
  2
VCC
 70
     0
  0
APPID
  2
GENBH
 70
     0
  0
APPID
  2
GEVMK
 70
     0
  0
APPID
  2
GENIUS_GENOBJ-F-DESC_13
 70
     0
  0
APPID
  2
GENIUS_GEFDESC_14
 70
     0
  0
APPID
  2
GENIUS_GEFPARTINS_13
 70
     0
  0
APPID
  2
GEVID961514680
 70
     0
  0
APPID
  2
GENIUS_GENTRA_14
 70
     0
  0
APPID
  2
GENIUS_GENINF13_13
 70
     0
  0
APPID
  2
GENIUS_GENOBJ-N-INFOPT_13
 70
     0
  0
APPID
  2
GENIUS_GENSCSYM_13
 70
     0
  0
APPID
  2
GENIUS_GEFINFNAM_13
 70
     0
  0
APPID
  2
GENIUS_GENREC_14
 70
     0
  0
APPID
  2
GENIUS_GENOBJ-N-REC_13
 70
     0
  0
APPID
  2
GEVID962097543
 70
     0
  0
APPID
  2
GEVID962097544
 70
     0
  0
APPID
  2
GEVID962097545
 70
     0
  0
APPID
  2
GENIUS_DUMCFG0_13
 70
     0
  0
APPID
  2
GEVID962352965
 70
     0
  0
APPID
  2
GEVID962352966
 70
     0
  0
APPID
  2
GEVID962352968
 70
     0
  0
APPID
  2
GEVRADREF
 70
     0
  0
APPID
  2
GEVID963230099
 70
     0
  0
APPID
  2
GENIUS_GENOBJ-F-FEAT_13
 70
     0
  0
APPID
  2
GENIUS_GEFFEAT_14
 70
     0
  0
APPID
  2
GEVID963230100
 70
     0
  0
APPID
  2
GEVID963230101
 70
     0
  0
APPID
  2
GENIUS_GENHINW_13
 70
     0
  0
APPID
  2
GENIUS_FIRSTVISTXT_14
 70
     0
  0
APPID
  2
GEVID971698136
 70
     0
  0
APPID
  2
GEVID972029070
 70
     0
  0
APPID
  2
MCAD_NO_VIS
 70
     0
  0
APPID
  2
ACAD_TEMP_GRAPHIC
 70
     0
  0
APPID
  2
ACATTRIBSERVICES
 70
     0
  0
APPID
  2
GENIUS_GENDIMSH_14
 70
     0
  0
APPID
  2
CONTENTTABDATA
 70
     0
  0
APPID
  2
CONTENTCURRENTTAB
 70
     0
  0
APPID
  2
GENIUS_GENBLKED_14
 70
     0
  0
APPID
  2
GENIUS_GEFINERT_13
 70
     0
  0
APPID
  2
GENIUS_GENOBJ-F-INER_13
 70
     0
  0
APPID
  2
GENIUS_GENOBJ-N-REV_13
 70
     0
  0
APPID
  2
GENIUS_GENREC_13
 70
     0
  0
APPID
  2
GENIUS_GENOBJ-N-CEN_13
 70
     0
  0
APPID
  2
_KTH
 70
     0
  0
APPID
  2
GENIUS_GENOBJ-F-ROD_13
 70
     0
  0
APPID
  2
GENIUS_GENOBJ-F-SPR_13
 70
     0
  0
APPID
  2
GENIUS_GEFSPRING_13
 70
     0
  0
APPID
  2
GENIUS_GENOBJ-F-FEM_13
 70
     0
  0
APPID
  2
GENIUS_GEFFEM_13
 70
     0
  0
APPID
  2
GENIUS_GENSCREG_13
 70
     0
  0
APPID
  2
GENIUS_GENOBJ-N-SDF_13
 70
     0
  0
APPID
  2
ACAD_DIMASSOC_DIMLFAC
 70
     0
  0
APPID
  2
ACAD_DIMASSOC_CALC_DIMLFAC
 70
     0
  0
APPID
  2
ACAD_DIMASSOC_OVERRIDDEN_D
 70
     0
  0
ENDTAB
  0
TABLE
  2
DIMSTYLE
 70
     1
  0
DIMSTYLE
  2
STANDARD
 70
     0
  3

  4

  5

  6

  7

 40
1.0
 41
0.18
 42
0.0625
 43
0.38
 44
0.18
 45
0.0
 46
0.0
 47
0.0
 48
0.0
140
0.18
141
0.09
142
0.0
143
25.399999999999999
144
1.0
145
0.0
146
1.0
147
0.09
 71
     0
 72
     0
 73
     1
 74
     1
 75
     0
 76
     0
 77
     0
 78
     0
170
     0
171
     2
172
     0
173
     0
174
     0
175
     0
176
     0
177
     0
178
     0
  0
ENDTAB
  0
ENDSEC
  0
SECTION
  2
BLOCKS
  0
BLOCK
  8
0
  2
$MODEL_SPACE
 70
     0
 10
0.0
 20
0.0
 30
0.0
  3
$MODEL_SPACE
  1

  0
ENDBLK
  5
1CD3
  8
0
  0
BLOCK
 67
     1
  8
0
  2
$PAPER_SPACE
 70
     0
 10
0.0
 20
0.0
 30
0.0
  3
$PAPER_SPACE
  1

  0
ENDBLK
  5
1CD1
 67
     1
  8
0
  0
ENDSEC
  0
SECTION
  2
ENTITIES
  0
TEXT
  5
16702
  8
0
 62
     3
 10
0.0
 20
-0.0000000000000284
 30
0.0
 40
10.0
  1
DLSLH100G
  7
STANDARD1
  0
LINE
  5
1E49D
  8
0
 10
137.64999999999981
 20
82.0
 30
0.0
 11
137.64999999999981
 21
115.0
 31
0.0
  0
LINE
  5
1E49E
  8
0
 10
150.34999999999991
 20
82.0
 30
0.0
 11
150.34999999999991
 21
115.0
 31
0.0
  0
LINE
  5
1E4A0
  8
0
 10
137.64999999999981
 20
114.0
 30
0.0
 11
150.34999999999991
 21
114.0
 31
0.0
  0
LINE
  5
1E4A6
  8
0
 10
167.5
 20
115.0
 30
0.0
 11
120.5
 21
115.0
 31
0.0
  0
LINE
  5
1E4C6
  8
0
 10
116.5
 20
83.0
 30
0.0
 11
171.5
 21
83.0
 31
0.0
  0
ARC
  5
1E4D6
  8
0
 10
155.49999999999989
 20
85.999999999999943
 30
0.0
 40
0.9999999999999431
 50
179.9999999999967
 51
270.00000000000568
  0
LINE
  5
1E4D7
  8
0
 10
164.5
 20
85.0
 30
0.0
 11
155.5
 21
85.0
 31
0.0
  0
ARC
  5
1E4D8
  8
0
 10
164.4991599430879
 20
90.000840056912125
 30
0.0
 40
5.0008401274698171
 50
270.00962472596922
 51
359.99037527403351
  0
LINE
  5
1E4D9
  8
0
 10
169.5
 20
107.5
 30
0.0
 11
169.5
 21
90.0
 31
0.0
  0
ARC
  5
1E4DA
  8
0
 10
164.5
 20
107.5
 30
0.0
 40
5.0000000000000142
 50
0.0
 51
90.0
  0
LINE
  5
1E4DB
  8
0
 10
155.5
 20
112.5
 30
0.0
 11
164.5
 21
112.5
 31
0.0
  0
ARC
  5
1E4DC
  8
0
 10
155.49999999999989
 20
111.5000000000001
 30
0.0
 40
0.9999999999999005
 50
89.999999999993491
 51
180.00000000000651
  0
LINE
  5
1E4DD
  8
0
 10
154.5
 20
86.0
 30
0.0
 11
154.5
 21
111.5
 31
0.0
  0
LINE
  5
1E4E0
  8
0
 10
132.5
 20
85.0
 30
0.0
 11
123.5
 21
85.0
 31
0.0
  0
ARC
  5
1E4E1
  8
0
 10
132.5
 20
85.999999999999943
 30
0.0
 40
0.9999999999999431
 50
269.99999999999761
 51
0.0000000000032569
  0
LINE
  5
1E4E2
  8
0
 10
133.5
 20
111.5
 30
0.0
 11
133.5
 21
86.0
 31
0.0
  0
ARC
  5
1E4E3
  8
0
 10
132.50000000000011
 20
111.5000000000001
 30
0.0
 40
0.9999999999998436
 50
359.99999999999022
 51
90.000000000009777
  0
LINE
  5
1E4E4
  8
0
 10
123.5
 20
112.5
 30
0.0
 11
132.5
 21
112.5
 31
0.0
  0
ARC
  5
1E4E5
  8
0
 10
123.5
 20
107.5
 30
0.0
 40
5.0000000000000142
 50
89.999999999999687
 51
180.0
  0
LINE
  5
1E4E6
  8
0
 10
118.5
 20
90.0
 30
0.0
 11
118.5
 21
107.5
 31
0.0
  0
ARC
  5
1E4E7
  8
0
 10
123.5010784491448
 20
90.001078449144856
 30
0.0
 40
5.0010785654250443
 50
180.0123554517472
 51
269.98764454825408
  0
ARC
  5
1E4F8
  8
0
 10
167.5
 20
110.0
 30
0.0
 40
5.0
 50
0.0
 51
90.0
  0
ARC
  5
1E4FC
  8
0
 10
120.5
 20
110.0
 30
0.0
 40
5.0
 50
90.0
 51
180.0
  0
ARC
  5
1E502
  8
0
 10
171.5
 20
84.0
 30
0.0
 40
1.0
 50
270.0000000000008
 51
0.0
  0
ARC
  5
1E504
  8
0
 10
116.5
 20
84.0
 30
0.0
 40
1.0
 50
180.0
 51
270.0000000000008
  0
LINE
  5
1E506
  8
0
 10
115.5
 20
110.0
 30
0.0
 11
115.5
 21
84.0
 31
0.0
  0
LINE
  5
1E507
  8
0
 10
172.5
 20
84.0
 30
0.0
 11
172.5
 21
110.0
 31
0.0
  0
LINE
  5
1E51D
  8
0
 10
120.5
 20
50.0
 30
0.0
 11
167.5
 21
50.0
 31
0.0
  0
LINE
  5
1E521
  8
0
 10
171.5
 20
82.0
 30
0.0
 11
116.5
 21
82.000000000000014
 31
0.0
  0
LINE
  5
1E52C
  8
0
 10
155.5
 20
80.0
 30
0.0
 11
164.5
 21
80.0
 31
0.0
  0
ARC
  5
1E52D
  8
0
 10
155.5
 20
79.000000000000057
 30
0.0
 40
0.9999999999999715
 50
89.999999999998366
 51
180.00000000000321
  0
LINE
  5
1E52E
  8
0
 10
154.5
 20
53.5
 30
0.0
 11
154.5
 21
79.0
 31
0.0
  0
ARC
  5
1E52F
  8
0
 10
155.49999999999989
 20
53.499999999999943
 30
0.0
 40
0.9999999999999147
 50
179.99999999999349
 51
270.00000000000728
  0
LINE
  5
1E530
  8
0
 10
164.5
 20
52.5
 30
0.0
 11
155.5
 21
52.5
 31
0.0
  0
ARC
  5
1E531
  8
0
 10
164.4991599430879
 20
57.500840056912132
 30
0.0
 40
5.000840127469802
 50
270.00962472596962
 51
359.99037527403351
  0
LINE
  5
1E532
  8
0
 10
169.5
 20
75.0
 30
0.0
 11
169.5
 21
57.5
 31
0.0
  0
ARC
  5
1E533
  8
0
 10
164.49892155085519
 20
74.998921550855187
 30
0.0
 40
5.0010785654249874
 50
0.0123554517472698
 51
89.987644548253343
  0
ARC
  5
1E534
  8
0
 10
132.5
 20
79.000000000000057
 30
0.0
 40
0.9999999999999431
 50
359.99999999999682
 51
90.000000000003254
  0
LINE
  5
1E535
  8
0
 10
123.5
 20
80.0
 30
0.0
 11
132.5
 21
80.0
 31
0.0
  0
ARC
  5
1E536
  8
0
 10
123.5008400569121
 20
74.999159943087932
 30
0.0
 40
5.0008401274697878
 50
90.009624725968024
 51
179.99037527403021
  0
LINE
  5
1E537
  8
0
 10
118.5
 20
57.5
 30
0.0
 11
118.5
 21
75.0
 31
0.0
  0
ARC
  5
1E538
  8
0
 10
123.5010784491448
 20
57.50107844914487
 30
0.0
 40
5.0010785654250443
 50
180.0123554517472
 51
269.98764454825408
  0
LINE
  5
1E539
  8
0
 10
132.5
 20
52.5
 30
0.0
 11
123.5
 21
52.5
 31
0.0
  0
ARC
  5
1E53A
  8
0
 10
132.5
 20
53.499999999999943
 30
0.0
 40
0.9999999999999431
 50
269.99999999999591
 51
0.0000000000032569
  0
LINE
  5
1E53B
  8
0
 10
133.5
 20
79.0
 30
0.0
 11
133.5
 21
53.5
 31
0.0
  0
ARC
  5
1E54C
  8
0
 10
120.5
 20
55.0
 30
0.0
 40
5.0
 50
180.0
 51
270.0000000000008
  0
ARC
  5
1E550
  8
0
 10
167.5
 20
55.0
 30
0.0
 40
5.0
 50
270.0000000000008
 51
0.0
  0
ARC
  5
1E556
  8
0
 10
116.5
 20
81.0
 30
0.0
 40
1.0
 50
90.0
 51
180.0
  0
ARC
  5
1E558
  8
0
 10
171.5
 20
81.0
 30
0.0
 40
1.0
 50
0.0
 51
90.0
  0
LINE
  5
1E55A
  8
0
 10
172.5
 20
55.0
 30
0.0
 11
172.5
 21
81.0
 31
0.0
  0
LINE
  5
1E55B
  8
0
 10
115.5
 20
81.0
 30
0.0
 11
115.5
 21
55.0
 31
0.0
  0
LINE
  5
1E568
  8
2
 10
137.65000000000001
 20
79.370000000000005
 30
0.0
 11
150.34999999999991
 21
79.370000000000005
 31
0.0
  0
LINE
  5
1E569
  8
2
 10
150.34999999999991
 20
79.370000000000005
 30
0.0
 11
150.34999999999991
 21
82.0
 31
0.0
  0
LINE
  5
1E56A
  8
2
 10
137.65000000000001
 20
79.370000000000005
 30
0.0
 11
137.65000000000001
 21
82.0
 31
0.0
  0
ARC
  5
1E56B
  8
2
 10
127.0
 20
90.5
 30
0.0
 40
5.0
 50
270.0000000000008
 51
0.0
  0
ARC
  5
1E56C
  8
2
 10
160.99999999999989
 20
107.5
 30
0.0
 40
5.0000000000000142
 50
90.0
 51
180.0
  0
LINE
  5
1E56D
  8
2
 10
156.0
 20
107.5
 30
0.0
 11
156.0
 21
90.5
 31
0.0
  0
LINE
  5
1E56E
  8
2
 10
168.99999999999989
 20
90.5
 30
0.0
 11
168.99999999999989
 21
107.5
 31
0.0
  0
ARC
  5
1E56F
  8
2
 10
163.99999999999989
 20
90.5
 30
0.0
 40
5.0
 50
270.0000000000008
 51
0.0
  0
ARC
  5
1E570
  8
2
 10
163.99999999999989
 20
107.5
 30
0.0
 40
5.0000000000000142
 50
0.0
 51
90.0
  0
LINE
  5
1E571
  8
2
 10
132.0
 20
90.5
 30
0.0
 11
132.0
 21
107.5
 31
0.0
  0
ARC
  5
1E572
  8
2
 10
127.0
 20
107.5
 30
0.0
 40
5.0000000000000142
 50
0.0
 51
90.0
  0
LINE
  5
1E575
  8
2
 10
124.0
 20
85.5
 30
0.0
 11
127.0
 21
85.5
 31
0.0
  0
ARC
  5
1E576
  8
2
 10
160.99999999999989
 20
90.5
 30
0.0
 40
5.0
 50
180.0
 51
270.0000000000008
  0
LINE
  5
1E577
  8
2
 10
160.99999999999989
 20
85.5
 30
0.0
 11
163.99999999999989
 21
85.5
 31
0.0
  0
ARC
  5
1E578
  8
2
 10
124.0
 20
90.5
 30
0.0
 40
5.0000000000000142
 50
180.0
 51
270.0000000000008
  0
LINE
  5
1E579
  8
2
 10
119.0
 20
107.5
 30
0.0
 11
119.0
 21
90.5
 31
0.0
  0
LINE
  5
1E57C
  8
2
 10
135.14999999999989
 20
83.0
 30
0.0
 11
135.14999999999989
 21
114.0
 31
0.0
  0
LINE
  5
1E57D
  8
2
 10
137.64999999999981
 20
114.0
 30
0.0
 11
135.14999999999989
 21
114.0
 31
0.0
  0
LINE
  5
1E57E
  8
2
 10
152.84999999999999
 20
82.999999999999972
 30
0.0
 11
152.84999999999999
 21
114.0
 31
0.0
  0
LINE
  5
1E57F
  8
2
 10
152.84999999999999
 20
114.0
 30
0.0
 11
150.34999999999991
 21
114.0
 31
0.0
  0
ARC
  5
1E580
  8
2
 10
125.5
 20
105.75
 30
0.0
 40
3.1000000000000218
 50
0.0
 51
180.0
  0
LINE
  5
1E581
  8
2
 10
122.40000000000001
 20
105.75
 30
0.0
 11
122.40000000000001
 21
92.249999999999986
 31
0.0
  0
ARC
  5
1E582
  8
2
 10
125.5
 20
92.249999999999986
 30
0.0
 40
3.1000000000000218
 50
180.0
 51
0.0
  0
LINE
  5
1E583
  8
2
 10
128.59999999999999
 20
92.249999999999986
 30
0.0
 11
128.59999999999999
 21
105.75
 31
0.0
  0
ARC
  5
1E584
  8
2
 10
162.49999999999989
 20
105.75
 30
0.0
 40
3.1000000000000218
 50
0.0
 51
180.0
  0
LINE
  5
1E585
  8
2
 10
165.59999999999991
 20
92.249999999999986
 30
0.0
 11
165.59999999999999
 21
105.75
 31
0.0
  0
ARC
  5
1E586
  8
2
 10
162.49999999999989
 20
92.249999999999986
 30
0.0
 40
3.1000000000000218
 50
180.0
 51
0.0
  0
LINE
  5
1E587
  8
2
 10
159.40000000000001
 20
105.75
 30
0.0
 11
159.40000000000001
 21
92.249999999999986
 31
0.0
  0
ARC
  5
1E58C
  8
2
 10
127.0
 20
57.5
 30
0.0
 40
5.0
 50
270.0000000000008
 51
0.0
  0
ARC
  5
1E58D
  8
2
 10
124.0
 20
57.5
 30
0.0
 40
5.0000000000000142
 50
180.0
 51
270.0000000000008
  0
ARC
  5
1E58E
  8
2
 10
163.99999999999989
 20
57.5
 30
0.0
 40
5.0
 50
270.0000000000008
 51
0.0
  0
ARC
  5
1E58F
  8
2
 10
124.0
 20
74.5
 30
0.0
 40
5.0000000000000142
 50
90.0
 51
180.0
  0
LINE
  5
1E590
  8
2
 10
119.0
 20
74.5
 30
0.0
 11
119.0
 21
57.5
 31
0.0
  0
LINE
  5
1E591
  8
2
 10
163.99999999999989
 20
79.5
 30
0.0
 11
160.99999999999989
 21
79.5
 31
0.0
  0
LINE
  5
1E592
  8
2
 10
132.0
 20
57.5
 30
0.0
 11
132.0
 21
74.5
 31
0.0
  0
ARC
  5
1E593
  8
2
 10
163.99999999999989
 20
74.5
 30
0.0
 40
5.0
 50
0.0
 51
90.0
  0
ARC
  5
1E594
  8
2
 10
160.99999999999989
 20
74.5
 30
0.0
 40
5.0
 50
90.0
 51
180.0
  0
LINE
  5
1E595
  8
2
 10
156.0
 20
74.5
 30
0.0
 11
156.0
 21
57.5
 31
0.0
  0
ARC
  5
1E596
  8
2
 10
160.99999999999989
 20
57.5
 30
0.0
 40
5.0
 50
180.0
 51
270.0000000000008
  0
ARC
  5
1E597
  8
2
 10
127.0
 20
74.5
 30
0.0
 40
5.0
 50
0.0
 51
90.0
  0
LINE
  5
1E598
  8
2
 10
127.0
 20
79.5
 30
0.0
 11
124.0
 21
79.5
 31
0.0
  0
LINE
  5
1E599
  8
2
 10
168.99999999999989
 20
57.5
 30
0.0
 11
168.99999999999989
 21
74.5
 31
0.0
  0
ARC
  5
1E59A
  8
2
 10
125.5
 20
59.25
 30
0.0
 40
3.1000000000000218
 50
180.0
 51
0.0
  0
LINE
  5
1E59B
  8
2
 10
128.59999999999999
 20
59.25
 30
0.0
 11
128.59999999999999
 21
72.75
 31
0.0
  0
LINE
  5
1E59C
  8
2
 10
122.40000000000001
 20
72.75
 30
0.0
 11
122.40000000000001
 21
59.25
 31
0.0
  0
ARC
  5
1E59D
  8
2
 10
125.5
 20
72.75
 30
0.0
 40
3.1000000000000218
 50
0.0
 51
180.0
  0
LINE
  5
1E59E
  8
2
 10
159.40000000000001
 20
72.75
 30
0.0
 11
159.40000000000001
 21
59.25
 31
0.0
  0
ARC
  5
1E59F
  8
2
 10
162.49999999999989
 20
72.75
 30
0.0
 40
3.1000000000000218
 50
0.0
 51
180.0
  0
ARC
  5
1E5A0
  8
2
 10
162.49999999999989
 20
59.25
 30
0.0
 40
3.1000000000000218
 50
180.0
 51
0.0
  0
LINE
  5
1E5A1
  8
2
 10
165.59999999999991
 20
59.25
 30
0.0
 11
165.59999999999991
 21
72.75
 31
0.0
  0
ARC
  5
1E5A6
  8
0
 10
144.0
 20
270.5
 30
0.0
 40
105.5
 50
257.12946437832869
 51
266.29388666732581
  0
ARC
  5
1E5AA
  8
0
 10
144.0
 20
270.5
 30
0.0
 40
105.5
 50
273.70611333267573
 51
282.87053562167262
  0
ARC
  5
1E5B1
  8
0
 10
147.68284438740361
 20
177.0
 30
0.0
 40
0.5000000000000077
 50
135.5729959991954
 51
178.00000000000281
  0
LINE
  5
1E5B2
  8
0
 10
146.9724056396638
 20
170.98255025164869
 30
0.0
 11
147.18314897389399
 21
177.0174497483512
 31
0.0
  0
ARC
  5
1E5B3
  8
0
 10
146.47271022615431
 20
171.0
 30
0.0
 40
0.5000000000000087
 50
270.0000000000008
 51
357.9999999999996
  0
LINE
  5
1E5B4
  8
0
 10
141.52728977384581
 20
170.5
 30
0.0
 11
146.47271022615431
 21
170.5
 31
0.0
  0
ARC
  5
1E5B5
  8
0
 10
141.52728977384581
 20
171.0
 30
0.0
 40
0.5000000000000087
 50
182.0000000000004
 51
270.0000000000008
  0
LINE
  5
1E5B6
  8
0
 10
140.81685102610601
 20
177.0174497483512
 30
0.0
 11
141.0275943603362
 21
170.98255025164869
 31
0.0
  0
ARC
  5
1E5B7
  8
0
 10
140.31715561259651
 20
177.0
 30
0.0
 40
0.5000000000000077
 50
1.9999999999971341
 51
44.427004000804672
  0
LINE
  5
1E5BF
  8
0
 10
172.10749294714381
 20
169.26006861907601
 30
0.0
 11
172.5
 21
180.5
 31
0.0
  0
ARC
  5
1E5C0
  8
0
 10
170.49999999999829
 20
170.45001249375659
 30
0.0
 40
2.000000000003046
 50
284.83513859483361
 51
323.48936839828929
  0
ARC
  5
1E5C1
  8
0
 10
144.0000000000199
 20
270.49999999992008
 30
0.0
 40
105.49999999991761
 50
282.87053562167199
 51
284.8351385948074
  0
LINE
  5
1E5C2
  8
0
 10
115.8925070528563
 20
169.26006861907601
 30
0.0
 11
115.5
 21
180.5
 31
0.0
  0
LINE
  5
1E5C3
  8
0
 10
172.5
 20
180.5
 30
0.0
 11
115.5
 21
180.5
 31
0.0
  0
ARC
  5
1E5C4
  8
0
 10
144.0000000000278
 20
270.5000000001146
 30
0.0
 40
105.50000000011789
 50
255.16486140519569
 51
257.1294643783279
  0
ARC
  5
1E5C5
  8
0
 10
117.4999999999995
 20
170.45001249375309
 30
0.0
 40
1.9999999999990909
 50
216.51063160167391
 51
255.1648614052045
  0
ARC
  5
1E5C6
  8
0
 10
152.5
 20
177.0
 30
0.0
 40
0.3499999999999943
 50
0.0
 51
90.0
  0
LINE
  5
1E5C7
  8
0
 10
152.84999999999999
 20
173.34999999999991
 30
0.0
 11
150.34999999999999
 21
173.34999999999991
 31
0.0
  0
LINE
  5
1E5C8
  8
0
 10
150.34999999999999
 20
173.34999999999991
 30
0.0
 11
150.34999999999999
 21
165.19127529022111
 31
0.0
  0
ARC
  5
1E5C9
  8
0
 10
144.0
 20
270.5
 30
0.0
 40
105.5
 50
266.54930580704843
 51
273.45069419295322
  0
LINE
  5
1E5CA
  8
0
 10
137.64999999999981
 20
165.19127529022111
 30
0.0
 11
137.65000000000001
 21
173.34999999999991
 31
0.0
  0
LINE
  5
1E5CB
  8
0
 10
137.65000000000001
 20
173.34999999999991
 30
0.0
 11
135.15000000000001
 21
173.34999999999991
 31
0.0
  0
LINE
  5
1E5CC
  8
0
 10
135.15000000000001
 20
173.34999999999991
 30
0.0
 11
135.15000000000001
 21
177.0
 31
0.0
  0
ARC
  5
1E5CD
  8
0
 10
135.5
 20
177.0
 30
0.0
 40
0.3499999999999943
 50
90.0
 51
180.0
  0
LINE
  5
1E5CE
  8
0
 10
135.5
 20
177.34999999999999
 30
0.0
 11
140.6742270340236
 21
177.34999999999999
 31
0.0
  0
LINE
  5
1E5CF
  8
0
 10
147.3257729659764
 20
177.34999999999999
 30
0.0
 11
152.5
 21
177.34999999999999
 31
0.0
  0
LINE
  5
1E5D0
  8
0
 10
152.84999999999999
 20
177.0
 30
0.0
 11
152.84999999999999
 21
173.34999999999991
 31
0.0
  0
ARC
  5
1E5D5
  8
0
 10
144.0
 20
270.5
 30
0.0
 40
105.4999999999997
 50
266.29388666732581
 51
266.54930580704848
  0
ARC
  5
1E5D6
  8
0
 10
144.0
 20
270.5
 30
0.0
 40
105.4999999999997
 50
273.45069419295299
 51
273.70611333267573
  0
LINE
  5
1E5D9
  8
2
 10
119.0000000000001
 20
170.5
 30
0.0
 11
119.0000000000001
 21
177.0
 31
0.0
  0
LINE
  5
1E5DA
  8
2
 10
133.5
 20
170.5
 30
0.0
 11
118.5
 21
170.5
 31
0.0
  0
LINE
  5
1E5DC
  8
2
 10
132.0
 20
175.0
 30
0.0
 11
119.0000000000001
 21
175.0
 31
0.0
  0
LINE
  5
1E5DD
  8
2
 10
156.0
 20
170.5
 30
0.0
 11
156.0
 21
177.0
 31
0.0
  0
LINE
  5
1E5DE
  8
2
 10
169.5
 20
170.5
 30
0.0
 11
154.5
 21
170.5
 31
0.0
  0
LINE
  5
1E5E3
  8
2
 10
132.0
 20
170.5
 30
0.0
 11
132.0
 21
177.0
 31
0.0
  0
LINE
  5
1E5E7
  8
2
 10
169.0
 20
170.5
 30
0.0
 11
169.0
 21
177.0
 31
0.0
  0
LINE
  5
1E5E8
  8
2
 10
169.0
 20
175.0
 30
0.0
 11
156.00000000000011
 21
175.0
 31
0.0
  0
LINE
  5
1E5ED
  8
2
 10
133.5
 20
170.5
 30
0.0
 11
133.5
 21
165.52381222391429
 31
0.0
  0
LINE
  5
1E5F2
  8
2
 10
118.5
 20
170.5
 30
0.0
 11
118.5
 21
168.1281288634421
 31
0.0
  0
LINE
  5
1E5F5
  8
2
 10
154.5
 20
170.5
 30
0.0
 11
154.5
 21
165.52381222391429
 31
0.0
  0
LINE
  5
1E5F6
  8
2
 10
169.5
 20
170.5
 30
0.0
 11
169.5
 21
168.1281288634421
 31
0.0
  0
LINE
  5
1E605
  8
2
 10
122.40000000000001
 20
177.0
 30
0.0
 11
122.40000000000001
 21
180.5
 31
0.0
  0
LINE
  5
1E606
  8
2
 10
128.59999999999999
 20
177.0
 30
0.0
 11
128.60000000000011
 21
180.5
 31
0.0
  0
LINE
  5
1E607
  8
2
 10
159.40000000000001
 20
177.0
 30
0.0
 11
159.40000000000001
 21
180.5
 31
0.0
  0
LINE
  5
1E608
  8
2
 10
165.60000000000011
 20
177.0
 30
0.0
 11
165.60000000000011
 21
180.5
 31
0.0
  0
LINE
  5
1E61B
  8
0
 10
65.279998094875182
 20
83.533589291305475
 30
0.0
 11
65.279998094875182
 21
114.4664107086945
 31
0.0
  0
LINE
  5
1E61C
  8
0
 10
65.500000000000014
 20
83.541271927122125
 30
0.0
 11
65.500000000000014
 21
114.0
 31
0.0
  0
LINE
  5
1E61D
  8
0
 10
65.500000000000014
 20
50.541271927122096
 30
0.0
 11
65.500000000000014
 21
81.458728072877918
 31
0.0
  0
LINE
  5
1E61F
  8
0
 10
65.279998094875182
 20
114.4664107086946
 30
0.0
 11
50.0
 21
115.0
 31
0.0
  0
POLYLINE
  5
1E620
  8
0
 66
     1
 10
0.0
 20
0.0
 30
0.0
 70
   128
  0
VERTEX
  5
201AF
  8
0
 10
61.983320598154222
 20
112.9420672588376
 30
0.0
  0
VERTEX
  5
201B0
  8
0
 10
62.051998569456842
 20
113.2243773211798
 30
0.0
  0
VERTEX
  5
201B1
  8
0
 10
62.126253730971747
 20
113.4848692079353
 30
0.0
  0
VERTEX
  5
201B2
  8
0
 10
62.206647612188341
 20
113.724695340596
 30
0.0
  0
VERTEX
  5
201B3
  8
0
 10
62.29141883750664
 20
113.9377267016778
 30
0.0
  0
VERTEX
  5
201B4
  8
0
 10
62.37601479488962
 20
114.1147619993925
 30
0.0
  0
VERTEX
  5
201B5
  8
0
 10
62.463254942764678
 20
114.2637211238585
 30
0.0
  0
VERTEX
  5
201B6
  8
0
 10
62.553729066040582
 20
114.38457923566
 30
0.0
  0
VERTEX
  5
201B7
  8
0
 10
62.645520760038657
 20
114.4736152532254
 30
0.0
  0
VERTEX
  5
201B8
  8
0
 10
62.747527829502168
 20
114.5333985782101
 30
0.0
  0
VERTEX
  5
201B9
  8
0
 10
62.849404470808693
 20
114.5512889083687
 30
0.0
  0
SEQEND
  5
201BA
  8
0
  0
ARC
  5
1E621
  8
0
 10
85.333285034460474
 20
105.4771443001261
 30
0.0
 40
24.51419821157252
 50
162.27105690488079
 51
169.36805027247661
  0
LINE
  5
1E622
  8
0
 10
50.0
 20
115.0
 30
0.0
 11
50.0
 21
83.000000000000014
 31
0.0
  0
ARC
  5
1E624
  8
0
 10
61.877555659709628
 20
84.043356292670694
 30
0.0
 40
0.6390966194646471
 50
183.88993135687431
 51
261.4045504243557
  0
LINE
  5
1E625
  8
0
 10
65.500000000000014
 20
83.541271927122125
 30
0.0
 11
50.0
 21
83.0
 31
0.0
  0
LINE
  5
1E627
  8
0
 10
61.23993138092392
 20
84.0
 30
0.0
 11
61.23993138092392
 21
110.0
 31
0.0
  0
LINE
  5
1E62D
  8
0
 10
64.87134975769122
 20
85.0
 30
0.0
 11
63.489129863962042
 21
85.0
 31
0.0
  0
ARC
  5
1E62E
  8
0
 10
62.899996100003868
 20
85.712168316077054
 30
0.0
 40
2.0960484140642599
 50
340.13731409074597
 51
7.8928596330217671
  0
LINE
  5
1E62F
  8
0
 10
64.976187776085681
 20
111.5
 30
0.0
 11
64.976187776085681
 21
86.0
 31
0.0
  0
ARC
  5
1E630
  8
0
 10
62.364820664143309
 20
111.7317249517339
 30
0.0
 40
2.621628243399575
 50
354.92902513836219
 51
17.040801137872531
  0
LINE
  5
1E631
  8
0
 10
63.489129863962042
 20
112.5
 30
0.0
 11
64.87134975769122
 21
112.5
 31
0.0
  0
POLYLINE
  5
1E632
  8
0
 66
     1
 10
0.0
 20
0.0
 30
0.0
 70
   128
  0
VERTEX
  5
201BB
  8
0
 10
62.371871136557829
 20
107.5
 30
0.0
  0
VERTEX
  5
201BC
  8
0
 10
62.381105168045963
 20
108.1079622533603
 30
0.0
  0
VERTEX
  5
201BD
  8
0
 10
62.397742983562409
 20
108.51492253413031
 30
0.0
  0
VERTEX
  5
201BE
  8
0
 10
62.42296172176863
 20
108.9203780329093
 30
0.0
  0
VERTEX
  5
201BF
  8
0
 10
62.438701118651082
 20
109.1202770590115
 30
0.0
  0
VERTEX
  5
201C0
  8
0
 10
62.518104540908993
 20
109.864488773736
 30
0.0
  0
VERTEX
  5
201C1
  8
0
 10
62.596658418893782
 20
110.39028014207641
 30
0.0
  0
VERTEX
  5
201C2
  8
0
 10
62.626228416085517
 20
110.5574883883893
 30
0.0
  0
VERTEX
  5
201C3
  8
0
 10
62.756006032427472
 20
111.1613353923415
 30
0.0
  0
VERTEX
  5
201C4
  8
0
 10
62.866798303718006
 20
111.55607175185141
 30
0.0
  0
VERTEX
  5
201C5
  8
0
 10
62.905907591511713
 20
111.6749494173468
 30
0.0
  0
VERTEX
  5
201C6
  8
0
 10
62.945397580792729
 20
111.7854366569518
 30
0.0
  0
VERTEX
  5
201C7
  8
0
 10
63.026571918909333
 20
111.9847347736201
 30
0.0
  0
VERTEX
  5
201C8
  8
0
 10
63.11079164232239
 20
112.1549583725844
 30
0.0
  0
VERTEX
  5
201C9
  8
0
 10
63.197407166670203
 20
112.2937242485591
 30
0.0
  0
VERTEX
  5
201CA
  8
0
 10
63.241135134333533
 20
112.35026528275399
 30
0.0
  0
VERTEX
  5
201CB
  8
0
 10
63.365339346846703
 20
112.4619940252709
 30
0.0
  0
VERTEX
  5
201CC
  8
0
 10
63.489129863962042
 20
112.5
 30
0.0
  0
SEQEND
  5
201CD
  8
0
  0
LINE
  5
1E633
  8
0
 10
62.371871136557829
 20
90.0
 30
0.0
 11
62.371871136557829
 21
107.5
 31
0.0
  0
POLYLINE
  5
1E634
  8
0
 66
     1
 10
0.0
 20
0.0
 30
0.0
 70
   128
  0
VERTEX
  5
201CE
  8
0
 10
63.489129863962042
 20
85.0
 30
0.0
  0
VERTEX
  5
201CF
  8
0
 10
63.31592902494171
 20
85.074241252034554
 30
0.0
  0
VERTEX
  5
201D0
  8
0
 10
63.140909618570511
 20
85.292707031721775
 30
0.0
  0
VERTEX
  5
201D1
  8
0
 10
62.969800683056398
 20
85.651318739804651
 30
0.0
  0
VERTEX
  5
201D2
  8
0
 10
62.808897554716587
 20
86.138741098268383
 30
0.0
  0
VERTEX
  5
201D3
  8
0
 10
62.665454357435202
 20
86.740715651783205
 30
0.0
  0
VERTEX
  5
201D4
  8
0
 10
62.544728941008209
 20
87.441358791805087
 30
0.0
  0
VERTEX
  5
201D5
  8
0
 10
62.454536425129909
 20
88.204428978632706
 30
0.0
  0
VERTEX
  5
201D6
  8
0
 10
62.395910326316738
 20
89.021394418691244
 30
0.0
  0
VERTEX
  5
201D7
  8
0
 10
62.371871136557829
 20
90.0
 30
0.0
  0
SEQEND
  5
201D8
  8
0
  0
LINE
  5
1E642
  8
0
 10
65.279998094875182
 20
114.0
 30
0.0
 11
65.500000000000014
 21
114.0
 31
0.0
  0
LINE
  5
1E643
  8
0
 10
60.75
 20
82.0
 30
0.0
 11
60.75
 21
83.375398272036307
 31
0.0
  0
LINE
  5
1E644
  8
0
 10
60.723205288889147
 20
81.625537419894044
 30
0.0
 11
60.75
 21
82.0
 31
0.0
  0
LINE
  5
1E645
  8
0
 10
53.150000000000013
 20
82.0
 30
0.0
 11
53.152304775359283
 21
81.889919091571954
 31
0.0
  0
LINE
  5
1E647
  8
0
 10
53.150000000000013
 20
83.11000042389901
 30
0.0
 11
53.150000000000013
 21
82.0
 31
0.0
  0
LINE
  5
1E64A
  8
0
 10
61.23993138092392
 20
55.0
 30
0.0
 11
61.23993138092392
 21
81.0
 31
0.0
  0
LINE
  5
1E64D
  8
0
 10
65.500000000000014
 20
50.541271927122096
 30
0.0
 11
50.0
 21
50.0
 31
0.0
  0
ARC
  5
1E64E
  8
0
 10
81.949928440681987
 20
58.667963344063537
 30
0.0
 40
21.032306894598641
 50
190.04354734875611
 51
198.31734547388919
  0
POLYLINE
  5
1E64F
  8
0
 66
     1
 10
0.0
 20
0.0
 30
0.0
 70
   128
  0
VERTEX
  5
201D9
  8
0
 10
62.849404470808693
 20
50.44871109163136
 30
0.0
  0
VERTEX
  5
201DA
  8
0
 10
62.669536490719992
 20
50.508595661205327
 30
0.0
  0
VERTEX
  5
201DB
  8
0
 10
62.48358209155613
 20
50.706207547131221
 30
0.0
  0
VERTEX
  5
201DC
  8
0
 10
62.307800388587381
 20
51.025346122231092
 30
0.0
  0
VERTEX
  5
201DD
  8
0
 10
62.138387142103767
 20
51.47632518130672
 30
0.0
  0
VERTEX
  5
201DE
  8
0
 10
61.983320598154243
 20
52.057932741162311
 30
0.0
  0
SEQEND
  5
201DF
  8
0
  0
LINE
  5
1E651
  8
0
 10
65.500000000000014
 20
81.458728072877904
 30
0.0
 11
50.0
 21
82.0
 31
0.0
  0
ARC
  5
1E652
  8
0
 10
61.874267615390828
 20
80.959672226242787
 30
0.0
 40
0.6356168560492223
 50
98.34318806073135
 51
176.3623301580397
  0
LINE
  5
1E653
  8
0
 10
50.0
 20
82.0
 30
0.0
 11
50.0
 21
49.999999999999972
 31
0.0
  0
ARC
  5
1E657
  8
0
 10
62.174132163171301
 20
79.211733547161316
 30
0.0
 40
2.8100439058596072
 50
355.67873395018722
 51
16.29109232605235
  0
LINE
  5
1E658
  8
0
 10
63.489129863962042
 20
80.0
 30
0.0
 11
64.87134975769122
 21
80.0
 31
0.0
  0
POLYLINE
  5
1E659
  8
0
 66
     1
 10
0.0
 20
0.0
 30
0.0
 70
   128
  0
VERTEX
  5
201E0
  8
0
 10
62.371871136557829
 20
75.0
 30
0.0
  0
VERTEX
  5
201E1
  8
0
 10
62.388936997708228
 20
75.82184359387378
 30
0.0
  0
VERTEX
  5
201E2
  8
0
 10
62.438701118651082
 20
76.620277059011471
 30
0.0
  0
VERTEX
  5
201E3
  8
0
 10
62.519188796346917
 20
77.371757441004775
 30
0.0
  0
VERTEX
  5
201E4
  8
0
 10
62.626228416085517
 20
78.057488388389345
 30
0.0
  0
VERTEX
  5
201E5
  8
0
 10
62.757484455472657
 20
78.666696455624162
 30
0.0
  0
VERTEX
  5
201E6
  8
0
 10
62.905907591511713
 20
79.174949417346852
 30
0.0
  0
VERTEX
  5
201E7
  8
0
 10
63.070414973856089
 20
79.577386514989655
 30
0.0
  0
VERTEX
  5
201E8
  8
0
 10
63.241135134333533
 20
79.850265282754009
 30
0.0
  0
VERTEX
  5
201E9
  8
0
 10
63.489129863962063
 20
80.0
 30
0.0
  0
SEQEND
  5
201EA
  8
0
  0
LINE
  5
1E65A
  8
0
 10
62.371871136557829
 20
57.5
 30
0.0
 11
62.371871136557829
 21
75.0
 31
0.0
  0
POLYLINE
  5
1E65B
  8
0
 66
     1
 10
0.0
 20
0.0
 30
0.0
 70
   128
  0
VERTEX
  5
201EB
  8
0
 10
63.489129863962042
 20
52.5
 30
0.0
  0
VERTEX
  5
201EC
  8
0
 10
63.31592902494171
 20
52.574241252034511
 30
0.0
  0
VERTEX
  5
201ED
  8
0
 10
63.140909618570511
 20
52.792707031721818
 30
0.0
  0
VERTEX
  5
201EE
  8
0
 10
62.969800683056398
 20
53.151318739804651
 30
0.0
  0
VERTEX
  5
201EF
  8
0
 10
62.808897554716587
 20
53.638741098268348
 30
0.0
  0
VERTEX
  5
201F0
  8
0
 10
62.665454357435209
 20
54.240715651783198
 30
0.0
  0
VERTEX
  5
201F1
  8
0
 10
62.544728941008252
 20
54.941358791805101
 30
0.0
  0
VERTEX
  5
201F2
  8
0
 10
62.454536425129909
 20
55.704428978632727
 30
0.0
  0
VERTEX
  5
201F3
  8
0
 10
62.395910326316738
 20
56.521394418691273
 30
0.0
  0
VERTEX
  5
201F4
  8
0
 10
62.371871136557829
 20
57.5
 30
0.0
  0
SEQEND
  5
201F5
  8
0
  0
LINE
  5
1E65C
  8
0
 10
64.87134975769122
 20
52.5
 30
0.0
 11
63.489129863962042
 21
52.5
 31
0.0
  0
ARC
  5
1E65D
  8
0
 10
62.899996100003747
 20
53.212168316077111
 30
0.0
 40
2.096048414064406
 50
340.13731409074597
 51
7.8928596330184817
  0
LINE
  5
1E65E
  8
0
 10
64.976187776085709
 20
79.0
 30
0.0
 11
64.976187776085709
 21
53.5
 31
0.0
  0
LINE
  5
1E677
  8
2
 10
60.0
 20
85.0
 30
0.0
 11
63.489129863962042
 21
85.0
 31
0.0
  0
LINE
  5
1E67B
  8
2
 10
60.0
 20
85.5
 30
0.0
 11
53.5
 21
85.5
 31
0.0
  0
LINE
  5
1E680
  8
2
 10
63.489129863962042
 20
112.5
 30
0.0
 11
53.5
 21
112.5
 31
0.0
  0
LINE
  5
1E681
  8
2
 10
55.5
 20
112.5
 30
0.0
 11
55.5
 21
85.5
 31
0.0
  0
LINE
  5
1E682
  8
2
 10
60.0
 20
112.5
 30
0.0
 11
60.0
 21
84.999999999999986
 31
0.0
  0
ARC
  5
1E685
  8
2
 10
58.120000000000012
 20
82.0
 30
0.0
 40
2.6300000000000061
 50
270.0000000000008
 51
351.81433992287168
  0
LINE
  5
1E686
  8
2
 10
55.780000000000001
 20
79.370000000000005
 30
0.0
 11
58.120000000000012
 21
79.370000000000005
 31
0.0
  0
ARC
  5
1E687
  8
2
 10
55.780000000000001
 20
82.0
 30
0.0
 40
2.629999999999995
 50
182.39886483413429
 51
270.0000000000008
  0
LINE
  5
1E692
  8
2
 10
59.999999999999993
 20
80.0
 30
0.0
 11
63.489129863962042
 21
80.0
 31
0.0
  0
LINE
  5
1E698
  8
2
 10
63.489129863962042
 20
52.5
 30
0.0
 11
53.5
 21
52.5
 31
0.0
  0
LINE
  5
1E69D
  8
2
 10
60.0
 20
79.5
 30
0.0
 11
53.5
 21
79.5
 31
0.0
  0
LINE
  5
1E69E
  8
2
 10
55.5
 20
79.5
 30
0.0
 11
55.5
 21
52.5
 31
0.0
  0
LINE
  5
1E69F
  8
2
 10
60.0
 20
80.0
 30
0.0
 11
60.0
 21
52.5
 31
0.0
  0
LINE
  5
1E6A7
  8
2
 10
53.5
 20
108.84999999999999
 30
0.0
 11
50.0
 21
108.84999999999999
 31
0.0
  0
LINE
  5
1E6A8
  8
2
 10
50.0
 20
89.149999999999963
 30
0.0
 11
53.5
 21
89.149999999999963
 31
0.0
  0
LINE
  5
1E6A9
  8
2
 10
50.0
 20
56.149999999999977
 30
0.0
 11
53.5
 21
56.149999999999977
 31
0.0
  0
LINE
  5
1E6AA
  8
2
 10
53.5
 20
75.850000000000023
 30
0.0
 11
50.0
 21
75.850000000000023
 31
0.0
  0
ARC
  5
1E7DC
  8
2
 10
124.0
 20
107.5
 30
0.0
 40
5.0000000000000142
 50
90.0
 51
180.0
  0
LINE
  5
1E7DD
  8
1
 10
144.0
 20
45.0
 30
0.0
 11
144.0
 21
120.0
 31
0.0
  0
LINE
  5
1E829
  8
1
 10
125.5
 20
111.84999999999999
 30
0.0
 11
125.5
 21
86.149999999999977
 31
0.0
  0
LINE
  5
1E82A
  8
1
 10
162.49999999999989
 20
111.84999999999999
 30
0.0
 11
162.49999999999989
 21
86.149999999999977
 31
0.0
  0
LINE
  5
1E82B
  8
1
 10
119.40000000000001
 20
105.75
 30
0.0
 11
131.59999999999999
 21
105.75
 31
0.0
  0
LINE
  5
1E82C
  8
1
 10
119.40000000000001
 20
92.249999999999986
 30
0.0
 11
131.59999999999999
 21
92.249999999999986
 31
0.0
  0
LINE
  5
1E82D
  8
1
 10
168.59999999999991
 20
72.75
 30
0.0
 11
156.39999999999989
 21
72.75
 31
0.0
  0
LINE
  5
1E82E
  8
1
 10
119.40000000000001
 20
59.25
 30
0.0
 11
131.59999999999999
 21
59.25
 31
0.0
  0
LINE
  5
1E837
  8
1
 10
156.39999999999989
 20
92.249999999999986
 30
0.0
 11
168.59999999999991
 21
92.249999999999986
 31
0.0
  0
LINE
  5
1E838
  8
1
 10
156.39999999999989
 20
105.75
 30
0.0
 11
168.59999999999991
 21
105.75
 31
0.0
  0
LINE
  5
1E839
  8
1
 10
162.49999999999989
 20
78.850000000000023
 30
0.0
 11
162.49999999999989
 21
53.14999999999997
 31
0.0
  0
LINE
  5
1E83A
  8
1
 10
131.59999999999999
 20
72.75
 30
0.0
 11
119.40000000000001
 21
72.75
 31
0.0
  0
LINE
  5
1E83B
  8
1
 10
125.5
 20
78.850000000000023
 30
0.0
 11
125.5
 21
53.14999999999997
 31
0.0
  0
LINE
  5
1E83C
  8
1
 10
156.39999999999989
 20
59.25
 30
0.0
 11
168.59999999999991
 21
59.25
 31
0.0
  0
LINE
  5
1E852
  8
2
 10
124.0
 20
52.5
 30
0.0
 11
127.0
 21
52.5
 31
0.0
  0
LINE
  5
1E854
  8
2
 10
161.0
 20
52.5
 30
0.0
 11
163.99999999999989
 21
52.5
 31
0.0
  0
LINE
  5
1E89B
  8
2
 10
124.0
 20
112.5
 30
0.0
 11
127.0
 21
112.5
 31
0.0
  0
LINE
  5
1E89D
  8
2
 10
160.99999999999989
 20
112.5
 30
0.0
 11
163.99999999999989
 21
112.5
 31
0.0
  0
LINE
  5
1E92E
  8
1
 10
144.00000000000131
 20
185.5
 30
0.0
 11
144.00000000000131
 21
160.0
 31
0.0
  0
LINE
  5
1E931
  8
1
 10
125.5000000000001
 20
183.5
 30
0.0
 11
125.5000000000001
 21
163.5888219127672
 31
0.0
  0
LINE
  5
1E932
  8
1
 10
162.5
 20
183.5
 30
0.0
 11
162.5
 21
163.5888219127672
 31
0.0
  0
LINE
  5
1EA93
  8
2
 10
53.5
 20
112.5
 30
0.0
 11
53.5
 21
85.5
 31
0.0
  0
LINE
  5
1EAAE
  8
2
 10
53.5
 20
79.5
 30
0.0
 11
53.5
 21
52.5
 31
0.0
  0
LINE
  5
1EAF4
  8
2
 10
132.0
 20
177.0
 30
0.0
 11
119.0000000000001
 21
177.0
 31
0.0
  0
LINE
  5
1EAF5
  8
2
 10
169.0
 20
177.0
 30
0.0
 11
156.00000000000011
 21
177.0
 31
0.0
  0
LINE
  5
1EAFE
  8
1
 10
47.0
 20
105.75
 30
0.0
 11
68.500000000000014
 21
105.75
 31
0.0
  0
LINE
  5
1EAFF
  8
1
 10
47.0
 20
92.249999999999986
 30
0.0
 11
68.500000000000014
 21
92.249999999999986
 31
0.0
  0
LINE
  5
1EB00
  8
1
 10
47.0
 20
72.75
 30
0.0
 11
68.500000000000014
 21
72.75
 31
0.0
  0
LINE
  5
1EB01
  8
1
 10
47.0
 20
59.25
 30
0.0
 11
68.500000000000014
 21
59.25
 31
0.0
  0
ENDSEC
  0
EOF
