  0
SECTION
  2
HEADER
  9
$ACADVER
  1
AC1009
  9
$INSBASE
 10
0.0
 20
0.0
 30
0.0
  9
$EXTMIN
 10
0.0
 20
-2.9604365620736979
 30
0.0
  9
$EXTMAX
 10
194.00000050663951
 20
206.99999809265131
 30
0.0
  9
$LIMMIN
 10
0.0
 20
0.0
  9
$LIMMAX
 10
385.0
 20
270.0
  9
$ORTHOMODE
 70
     1
  9
$REGENMODE
 70
     1
  9
$FILLMODE
 70
     1
  9
$QTEXTMODE
 70
     0
  9
$MIRRTEXT
 70
     0
  9
$DRAGMODE
 70
     2
  9
$LTSCALE
 40
5.0
  9
$OSMODE
 70
    37
  9
$ATTMODE
 70
     1
  9
$TEXTSIZE
 40
4.0
  9
$TRACEWID
 40
0.05
  9
$TEXTSTYLE
  7
STANDARD
  9
$CLAYER
  8
0
  9
$CELTYPE
  6
BYLAYER
  9
$CECOLOR
 62
   256
  9
$DIMSCALE
 40
1.0
  9
$DIMASZ
 40
3.0
  9
$DIMEXO
 40
1.0
  9
$DIMDLI
 40
6.0
  9
$DIMRND
 40
0.0
  9
$DIMDLE
 40
0.0
  9
$DIMEXE
 40
1.0
  9
$DIMTP
 40
495.0
  9
$DIMTM
 40
0.0
  9
$DIMTXT
 40
3.0
  9
$DIMCEN
 40
0.0
  9
$DIMTSZ
 40
0.0
  9
$DIMTOL
 70
     0
  9
$DIMLIM
 70
     0
  9
$DIMTIH
 70
     0
  9
$DIMTOH
 70
     0
  9
$DIMSE1
 70
     0
  9
$DIMSE2
 70
     0
  9
$DIMTAD
 70
     1
  9
$DIMZIN
 70
     8
  9
$DIMBLK
  1

  9
$DIMASO
 70
     1
  9
$DIMSHO
 70
     0
  9
$DIMPOST
  1

  9
$DIMAPOST
  1

  9
$DIMALT
 70
     0
  9
$DIMALTD
 70
     2
  9
$DIMALTF
 40
25.399999999999999
  9
$DIMLFAC
 40
1.0
  9
$DIMTOFL
 70
     1
  9
$DIMTVP
 40
0.0
  9
$DIMTIX
 70
     0
  9
$DIMSOXD
 70
     0
  9
$DIMSAH
 70
     0
  9
$DIMBLK1
  1

  9
$DIMBLK2
  1

  9
$DIMSTYLE
  2
STANDARD
  9
$DIMCLRD
 70
     0
  9
$DIMCLRE
 70
     0
  9
$DIMCLRT
 70
     0
  9
$DIMTFAC
 40
1.0
  9
$DIMGAP
 40
1.0
  9
$LUNITS
 70
     2
  9
$LUPREC
 70
     1
  9
$SKETCHINC
 40
0.1
  9
$FILLETRAD
 40
2.0
  9
$AUNITS
 70
     0
  9
$AUPREC
 70
     1
  9
$MENU
  1
E:\r13\win\SUPPORT\ACAD
  9
$ELEVATION
 40
0.0
  9
$PELEVATION
 40
0.0
  9
$THICKNESS
 40
0.0
  9
$LIMCHECK
 70
     0
  9
$BLIPMODE
 70
     0
  9
$CHAMFERA
 40
0.0
  9
$CHAMFERB
 40
0.0
  9
$SKPOLY
 70
     0
  9
$TDCREATE
 40
2450541.3939600689
  9
$TDUPDATE
 40
2458232.6387629751
  9
$TDINDWG
 40
2.3240833681000002
  9
$TDUSRTIMER
 40
2.3240833681000002
  9
$USRTIMER
 70
     1
  9
$ANGBASE
 50
0.0
  9
$ANGDIR
 70
     0
  9
$PDMODE
 70
     0
  9
$PDSIZE
 40
0.0
  9
$PLINEWID
 40
0.0
  9
$COORDS
 70
     1
  9
$SPLFRAME
 70
     0
  9
$SPLINETYPE
 70
     6
  9
$SPLINESEGS
 70
     8
  9
$ATTDIA
 70
     0
  9
$ATTREQ
 70
     1
  9
$HANDLING
 70
     1
  9
$HANDSEED
  5
201C9
  9
$SURFTAB1
 70
     6
  9
$SURFTAB2
 70
     6
  9
$SURFTYPE
 70
     6
  9
$SURFU
 70
     6
  9
$SURFV
 70
     6
  9
$UCSNAME
  2

  9
$UCSORG
 10
0.0
 20
0.0
 30
0.0
  9
$UCSXDIR
 10
1.0
 20
0.0
 30
0.0
  9
$UCSYDIR
 10
0.0
 20
1.0
 30
0.0
  9
$PUCSNAME
  2

  9
$PUCSORG
 10
0.0
 20
0.0
 30
0.0
  9
$PUCSXDIR
 10
1.0
 20
0.0
 30
0.0
  9
$PUCSYDIR
 10
0.0
 20
1.0
 30
0.0
  9
$USERI1
 70
     3
  9
$USERI2
 70
     1
  9
$USERI3
 70
     1
  9
$USERI4
 70
     0
  9
$USERI5
 70
     0
  9
$USERR1
 40
1.0
  9
$USERR2
 40
3.0
  9
$USERR3
 40
3.0
  9
$USERR4
 40
3.0
  9
$USERR5
 40
10.0
  9
$WORLDVIEW
 70
     1
  9
$SHADEDGE
 70
     3
  9
$SHADEDIF
 70
    70
  9
$TILEMODE
 70
     1
  9
$MAXACTVP
 70
    16
  9
$PLIMCHECK
 70
     0
  9
$PEXTMIN
 10
1.0000000000000000E+020
 20
1.0000000000000000E+020
 30
1.0000000000000000E+020
  9
$PEXTMAX
 10
-1.0000000000000000E+020
 20
-1.0000000000000000E+020
 30
-1.0000000000000000E+020
  9
$PLIMMIN
 10
0.0
 20
0.0
  9
$PLIMMAX
 10
12.0
 20
9.0
  9
$UNITMODE
 70
     0
  9
$VISRETAIN
 70
     0
  9
$PLINEGEN
 70
     0
  9
$PSLTSCALE
 70
     0
  0
ENDSEC
  0
SECTION
  2
TABLES
  0
TABLE
  2
VPORT
 70
     1
  0
VPORT
  2
*ACTIVE
 70
     0
 10
0.0
 20
0.0
 11
1.0
 21
1.0
 12
227.02991452991449
 22
125.0
 13
0.0
 23
0.0
 14
5.0
 24
5.0
 15
10.0
 25
10.0
 16
0.0
 26
0.0
 36
1.0
 17
0.0
 27
0.0
 37
0.0
 40
250.0
 41
1.816239316239316
 42
50.0
 43
0.0
 44
0.0
 50
0.0
 51
0.0
 71
     0
 72
   100
 73
     1
 74
     0
 75
     0
 76
     0
 77
     0
 78
     0
  0
ENDTAB
  0
TABLE
  2
LTYPE
 70
     4
  0
LTYPE
  2
CONTINUOUS
 70
     0
  3
Solid Line
 72
    65
 73
     0
 40
0.0
  0
LTYPE
  2
CENTER
 70
     0
  3
____ _ ____ _ ____ _ ____ _ ____ _ ____ _ ____
 72
    65
 73
     4
 40
2.0
 49
1.25
 49
-0.25
 49
0.25
 49
-0.25
  0
LTYPE
  2
HIDDEN
 70
     0
  3
_ _ _ _ _ _ _ _ _ _ _ _ _ _ _ _ _ _ _ _ _ _ _
 72
    65
 73
     2
 40
0.375
 49
0.25
 49
-0.125
  0
LTYPE
  2
PHANTOM2
 70
     0
  3
___ _ _ ___ _ _ ___ _ _ ___ _ _
 72
    65
 73
     6
 40
1.25
 49
0.625
 49
-0.125
 49
0.125
 49
-0.125
 49
0.125
 49
-0.125
  0
ENDTAB
  0
TABLE
  2
LAYER
 70
     6
  0
LAYER
  2
0
 70
     0
 62
     7
  6
CONTINUOUS
  0
LAYER
  2
1
 70
     0
 62
     1
  6
CENTER
  0
LAYER
  2
2
 70
     0
 62
     2
  6
HIDDEN
  0
LAYER
  2
DEFPOINTS
 70
     0
 62
     7
  6
CONTINUOUS
  0
LAYER
  2
4
 70
     0
 62
     4
  6
CONTINUOUS
  0
LAYER
  2
3
 70
     0
 62
     3
  6
CONTINUOUS
  0
ENDTAB
  0
TABLE
  2
STYLE
 70
     2
  0
STYLE
  2
STANDARD
 70
     0
 40
0.0
 41
1.0
 50
0.0
 71
     0
 42
4.0
  3
SIMPLEX
  4
BIGFONT
  0
STYLE
  2
STANDARD1
 70
     0
 40
0.0
 41
1.0
 50
0.0
 71
     0
 42
3.0
  3
txt
  4

  0
ENDTAB
  0
TABLE
  2
VIEW
 70
     0
  0
ENDTAB
  0
TABLE
  2
UCS
 70
     0
  0
ENDTAB
  0
TABLE
  2
APPID
 70
   135
  0
APPID
  2
ACAD
 70
     0
  0
APPID
  2
ASM_BASE
 70
     0
  0
APPID
  2
ASM_EXPLO_VER_2_00
 70
     0
  0
APPID
  2
ASM_CADM_VER_12_00
 70
     0
  0
APPID
  2
ASM_BASEFORO
 70
     0
  0
APPID
  2
ASM_BASETRAVI
 70
     0
  0
APPID
  2
ASM_BASETRAVI1
 70
     0
  0
APPID
  2
ASM_GRUPPI
 70
     0
  0
APPID
  2
ASM_CADM_ALBERO
 70
     0
  0
APPID
  2
ASM_GOLE
 70
     0
  0
APPID
  2
ACAD_EXEMPT_FROM_CAD_STANDARDS
 70
     0
  0
APPID
  2
ACAD_DSTYLE_DIMJAG
 70
     0
  0
APPID
  2
ACAD_DSTYLE_DIMTALN
 70
     0
  0
APPID
  2
ACAD_MLEADERVER
 70
     0
  0
APPID
  2
ACAD_NAV_VCDISPLAY
 70
     0
  0
APPID
  2
ACAD_DSTYLE_DIMRADIAL_EXTENSION
 70
     0
  0
APPID
  2
DCO15
 70
     0
  0
APPID
  2
ACADANNOTATIVE
 70
     0
  0
APPID
  2
GENIUS_GENODEF_13
 70
     0
  0
APPID
  2
GENIUS_GENFIL_13
 70
     0
  0
APPID
  2
GENIUS_GENOBJ-N-CHA_13
 70
     0
  0
APPID
  2
GENIUS_GENOREF_13
 70
     0
  0
APPID
  2
GENIUS_GENOENT_13
 70
     0
  0
APPID
  2
GENIUS_GENBH_13
 70
     0
  0
APPID
  2
GENIUS_GENOBJ_13
 70
     0
  0
APPID
  2
GENIUS_GENOLIS_13
 70
     0
  0
APPID
  2
GENIUS_GENOBJ-NBEHI-BHF_13
 70
     0
  0
APPID
  2
GENIUS_GENOBJ-NBEHI-BHB_13
 70
     0
  0
APPID
  2
GENIUS_GENOBJ-F-PART_13
 70
     0
  0
APPID
  2
GENIUS_GEFSTDP_13
 70
     0
  0
APPID
  2
GENIUS_GENOBJ-N-RSSYM_13
 70
     0
  0
APPID
  2
GENIUS_GENSYMENT_13
 70
     0
  0
APPID
  2
GENIUS_GENOBJ-N-TIT_13
 70
     0
  0
APPID
  2
GENIUS_GENTITLE_13
 70
     0
  0
APPID
  2
GENIUS_GENZVEED_13
 70
     0
  0
APPID
  2
GENIUS_GENOBJ-N-LEADER_13
 70
     0
  0
APPID
  2
GENIUS_GENOBJ-N-FIL_13
 70
     0
  0
APPID
  2
GENIUS_GENOBJ-N-SEC_13
 70
     0
  0
APPID
  2
GENIUS_GENOBJ-N-CRS_13
 70
     0
  0
APPID
  2
GENIUS_GENOBJ-N-ZOO_13
 70
     0
  0
APPID
  2
GENIUS_GENZOO_13
 70
     0
  0
APPID
  2
GENIUS_GENOBJ-F-TOL_13
 70
     0
  0
APPID
  2
_CALL_MAC$
 70
     0
  0
APPID
  2
_FTCNV
 70
     0
  0
APPID
  2
_PHO
 70
     0
  0
APPID
  2
_CLP
 70
     0
  0
APPID
  2
MOJIGUMI_PARTS
 70
     0
  0
APPID
  2
_DBL
 70
     0
  0
APPID
  2
_PWH
 70
     0
  0
APPID
  2
_G9P
 70
     0
  0
APPID
  2
AME_SOL
 70
     0
  0
APPID
  2
HAKO_DEF
 70
     0
  0
APPID
  2
HAKO_TXT
 70
     0
  0
APPID
  2
HAKO_OVR
 70
     0
  0
APPID
  2
GENIUS_GENCFG_13
 70
     0
  0
APPID
  2
GENIUS_GENCFG0_13
 70
     0
  0
APPID
  2
GENIUS_GENCFG1_13
 70
     0
  0
APPID
  2
GENIUS_GENCFG2_13
 70
     0
  0
APPID
  2
GENIUS_GENCFG3_13
 70
     0
  0
APPID
  2
GENIUS_GENCFG4_13
 70
     0
  0
APPID
  2
GENIUS_GEVCFG0_13
 70
     0
  0
APPID
  2
GENIUS_GENHATCH_13
 70
     0
  0
APPID
  2
GENIUS_GEFCFG0_13
 70
     0
  0
APPID
  2
GENIUS_GENOBJ-N-HTC_13
 70
     0
  0
APPID
  2
AVE_RENDER
 70
     0
  0
APPID
  2
AVE_ENTITY_MATERIAL
 70
     0
  0
APPID
  2
AVE_FINISH
 70
     0
  0
APPID
  2
AVE_MATERIAL
 70
     0
  0
APPID
  2
AVE_GLOBAL
 70
     0
  0
APPID
  2
_NUM
 70
     0
  0
APPID
  2
HAKO_FNM
 70
     0
  0
APPID
  2
ACA_CADIMENU
 70
     0
  0
APPID
  2
AUTOCAD_POSTSCRIPT_FIGURE
 70
     0
  0
APPID
  2
GEV_VCCNULL_SWITCH_OFF
 70
     0
  0
APPID
  2
GENIUS_GENDTOL_13
 70
     0
  0
APPID
  2
GENIUS_GEFWELD_13
 70
     0
  0
APPID
  2
GENIUS_GENOBJ-F-WELS_13
 70
     0
  0
APPID
  2
GEVID961514679
 70
     0
  0
APPID
  2
GEVDC
 70
     0
  0
APPID
  2
GEVPT
 70
     0
  0
APPID
  2
GEVIT
 70
     0
  0
APPID
  2
VCC
 70
     0
  0
APPID
  2
GENBH
 70
     0
  0
APPID
  2
GEVMK
 70
     0
  0
APPID
  2
GENIUS_GENOBJ-F-DESC_13
 70
     0
  0
APPID
  2
GENIUS_GEFDESC_14
 70
     0
  0
APPID
  2
GENIUS_GEFPARTINS_13
 70
     0
  0
APPID
  2
GEVID961514680
 70
     0
  0
APPID
  2
GENIUS_GENTRA_14
 70
     0
  0
APPID
  2
GENIUS_GENINF13_13
 70
     0
  0
APPID
  2
GENIUS_GENOBJ-N-INFOPT_13
 70
     0
  0
APPID
  2
GENIUS_GENSCSYM_13
 70
     0
  0
APPID
  2
GENIUS_GEFINFNAM_13
 70
     0
  0
APPID
  2
GENIUS_GENREC_14
 70
     0
  0
APPID
  2
GENIUS_GENOBJ-N-REC_13
 70
     0
  0
APPID
  2
GEVID962097543
 70
     0
  0
APPID
  2
GEVID962097544
 70
     0
  0
APPID
  2
GEVID962097545
 70
     0
  0
APPID
  2
GENIUS_DUMCFG0_13
 70
     0
  0
APPID
  2
GEVID962352965
 70
     0
  0
APPID
  2
GEVID962352966
 70
     0
  0
APPID
  2
GEVID962352968
 70
     0
  0
APPID
  2
GEVRADREF
 70
     0
  0
APPID
  2
GEVID963230099
 70
     0
  0
APPID
  2
GENIUS_GENOBJ-F-FEAT_13
 70
     0
  0
APPID
  2
GENIUS_GEFFEAT_14
 70
     0
  0
APPID
  2
GEVID963230100
 70
     0
  0
APPID
  2
GEVID963230101
 70
     0
  0
APPID
  2
GENIUS_GENHINW_13
 70
     0
  0
APPID
  2
GENIUS_FIRSTVISTXT_14
 70
     0
  0
APPID
  2
GEVID971698136
 70
     0
  0
APPID
  2
GEVID972029070
 70
     0
  0
APPID
  2
MCAD_NO_VIS
 70
     0
  0
APPID
  2
ACAD_TEMP_GRAPHIC
 70
     0
  0
APPID
  2
ACATTRIBSERVICES
 70
     0
  0
APPID
  2
GENIUS_GENDIMSH_14
 70
     0
  0
APPID
  2
CONTENTTABDATA
 70
     0
  0
APPID
  2
CONTENTCURRENTTAB
 70
     0
  0
APPID
  2
GENIUS_GENBLKED_14
 70
     0
  0
APPID
  2
GENIUS_GEFINERT_13
 70
     0
  0
APPID
  2
GENIUS_GENOBJ-F-INER_13
 70
     0
  0
APPID
  2
GENIUS_GENOBJ-N-REV_13
 70
     0
  0
APPID
  2
GENIUS_GENREC_13
 70
     0
  0
APPID
  2
GENIUS_GENOBJ-N-CEN_13
 70
     0
  0
APPID
  2
_KTH
 70
     0
  0
APPID
  2
GENIUS_GENOBJ-F-ROD_13
 70
     0
  0
APPID
  2
GENIUS_GENOBJ-F-SPR_13
 70
     0
  0
APPID
  2
GENIUS_GEFSPRING_13
 70
     0
  0
APPID
  2
GENIUS_GENOBJ-F-FEM_13
 70
     0
  0
APPID
  2
GENIUS_GEFFEM_13
 70
     0
  0
APPID
  2
GENIUS_GENSCREG_13
 70
     0
  0
APPID
  2
GENIUS_GENOBJ-N-SDF_13
 70
     0
  0
APPID
  2
ACAD_DIMASSOC_DIMLFAC
 70
     0
  0
APPID
  2
ACAD_DIMASSOC_CALC_DIMLFAC
 70
     0
  0
APPID
  2
ACAD_DIMASSOC_OVERRIDDEN_D
 70
     0
  0
ENDTAB
  0
TABLE
  2
DIMSTYLE
 70
     1
  0
DIMSTYLE
  2
STANDARD
 70
     0
  3

  4

  5

  6

  7

 40
1.0
 41
0.18
 42
0.0625
 43
0.38
 44
0.18
 45
0.0
 46
0.0
 47
0.0
 48
0.0
140
0.18
141
0.09
142
0.0
143
25.399999999999999
144
1.0
145
0.0
146
1.0
147
0.09
 71
     0
 72
     0
 73
     1
 74
     1
 75
     0
 76
     0
 77
     0
 78
     0
170
     0
171
     2
172
     0
173
     0
174
     0
175
     0
176
     0
177
     0
178
     0
  0
ENDTAB
  0
ENDSEC
  0
SECTION
  2
BLOCKS
  0
BLOCK
  8
0
  2
$MODEL_SPACE
 70
     0
 10
0.0
 20
0.0
 30
0.0
  3
$MODEL_SPACE
  1

  0
ENDBLK
  5
1CD3
  8
0
  0
BLOCK
 67
     1
  8
0
  2
$PAPER_SPACE
 70
     0
 10
0.0
 20
0.0
 30
0.0
  3
$PAPER_SPACE
  1

  0
ENDBLK
  5
1CD1
 67
     1
  8
0
  0
ENDSEC
  0
SECTION
  2
ENTITIES
  0
TEXT
  5
1EC09
  8
0
 62
     3
 10
0.0
 20
-0.0000000000000284
 30
0.0
 40
10.0
  1
DLSLH100GL
  7
STANDARD1
  0
LINE
  5
1F728
  8
0
 10
159.00000035762781
 20
85.499998833984137
 30
0.0
 11
172.00000062584871
 21
85.499998833984137
 31
0.0
  0
LINE
  5
1F729
  8
0
 10
159.0000003576279
 20
81.999998784158365
 30
0.0
 11
159.0000003576277
 21
114.99999761581419
 31
0.0
  0
LINE
  5
1F72B
  8
0
 10
172.00000062584871
 20
81.999998784158365
 30
0.0
 11
172.0000006258488
 21
114.99999761581419
 31
0.0
  0
LINE
  5
1F732
  8
0
 10
159.00000035762781
 20
113.9999993145466
 30
0.0
 11
172.00000062584871
 21
113.9999993145466
 31
0.0
  0
LINE
  5
1F73F
  8
0
 10
188.99999968707559
 20
114.99999761581419
 30
0.0
 11
142.000001296401
 21
114.99999761581419
 31
0.0
  0
LINE
  5
1F75F
  8
0
 10
137.9997825522409
 20
82.999998831655915
 30
0.0
 11
193.00000034272671
 21
82.99999883165583
 31
0.0
  0
ARC
  5
1F771
  8
0
 10
177.00000144650821
 20
85.999999848358698
 30
0.0
 40
1.000001096331353
 50
180.00005342356749
 51
269.99994657643572
  0
LINE
  5
1F772
  8
0
 10
186.00000105798239
 20
84.99999875202775
 30
0.0
 11
177.00000051409
 21
84.99999875202775
 31
0.0
  0
ARC
  5
1F773
  8
0
 10
185.9991598165436
 20
90.000838950228683
 30
0.0
 40
5.0008402689577549
 50
270.00963829709332
 51
359.99037237508071
  0
LINE
  5
1F774
  8
0
 10
191.0000000149011
 20
107.49999918043611
 30
0.0
 11
191.0000000149011
 21
89.999998640269041
 31
0.0
  0
ARC
  5
1F775
  8
0
 10
185.99892230959969
 20
107.4989204320534
 30
0.0
 40
5.0010778216461977
 50
0.0123588818594452
 51
89.987641118140559
  0
LINE
  5
1F776
  8
0
 10
177.00000051409
 20
112.49999813735479
 30
0.0
 11
186.00000105798239
 21
112.49999813735479
 31
0.0
  0
ARC
  5
1F777
  8
0
 10
176.9999989382751
 20
111.499999549257
 30
0.0
 40
0.9999985880991086
 50
89.999909712326314
 51
180.00009028767039
  0
LINE
  5
1F778
  8
0
 10
176.00000035017729
 20
85.999998915940523
 30
0.0
 11
176.00000035017729
 21
111.49999797344201
 31
0.0
  0
LINE
  5
1F77B
  8
0
 10
154.00000046938649
 20
84.99999875202775
 30
0.0
 11
144.99999992549419
 21
84.99999875202775
 31
0.0
  0
ARC
  5
1F77C
  8
0
 10
154.00000080079889
 20
85.999998584528214
 30
0.0
 40
0.9999998325005188
 50
269.9999810114702
 51
0.0000189885298499
  0
LINE
  5
1F77D
  8
0
 10
155.00000063329929
 20
111.49999797344201
 30
0.0
 11
155.00000063329929
 21
85.999998915940523
 31
0.0
  0
ARC
  5
1F77E
  8
0
 10
154.0000014748629
 20
111.4999989789184
 30
0.0
 40
0.9999991584370146
 50
359.99994239040319
 51
90.000057609595174
  0
LINE
  5
1F77F
  8
0
 10
144.99999992549419
 20
112.49999813735479
 30
0.0
 11
154.00000046938649
 21
112.49999813735479
 31
0.0
  0
ARC
  5
1F780
  8
0
 10
145.0008415285927
 20
107.4991575773376
 30
0.0
 40
5.000840630834924
 50
90.009642440012783
 51
179.99035755998551
  0
LINE
  5
1F781
  8
0
 10
140.00000096857539
 20
89.999998640269041
 30
0.0
 11
140.00000096857539
 21
107.49999918043611
 31
0.0
  0
ARC
  5
1F782
  8
0
 10
145.00107972455791
 20
90.001077507809214
 30
0.0
 40
5.0010788723528989
 50
180.0123602444111
 51
269.98762908341803
  0
ARC
  5
1F793
  8
0
 10
189.00000049173829
 20
109.9999988079071
 30
0.0
 40
5.0
 50
0.0
 51
90.0
  0
ARC
  5
1F797
  8
0
 10
142.00000049173829
 20
109.9999988079071
 30
0.0
 40
5.0000000000000142
 50
90.0
 51
180.0
  0
ARC
  5
1F79D
  8
0
 10
193.00000049173829
 20
83.999998807907104
 30
0.0
 40
1.0
 50
270.0
 51
0.0
  0
ARC
  5
1F79F
  8
0
 10
138.00000049173829
 20
83.999998807907104
 30
0.0
 40
1.0
 50
180.0
 51
270.0
  0
LINE
  5
1F7A1
  8
0
 10
137.0000004768371
 20
109.99999865889551
 30
0.0
 11
137.0000004768371
 21
83.999998820945621
 31
0.0
  0
LINE
  5
1F7A2
  8
0
 10
194.0000005066394
 20
83.999998820945621
 30
0.0
 11
194.0000005066394
 21
109.99999865889551
 31
0.0
  0
LINE
  5
1F7BB
  8
0
 10
177.00000051409
 20
79.999998863786445
 30
0.0
 11
186.00000105798239
 21
79.999998863786445
 31
0.0
  0
ARC
  5
1F7BC
  8
0
 10
177.0000001826777
 20
78.999999031286052
 30
0.0
 40
0.9999998325004904
 50
89.999981011466886
 51
180.0000189885298
  0
LINE
  5
1F7BD
  8
0
 10
176.00000035017729
 20
53.499999642372131
 30
0.0
 11
176.00000035017729
 21
78.999998699873686
 31
0.0
  0
ARC
  5
1F7BE
  8
0
 10
176.9999995086138
 20
53.49999863689586
 30
0.0
 40
0.9999991584369933
 50
179.99994239040319
 51
270.0000576095984
  0
LINE
  5
1F7BF
  8
0
 10
186.00000105798239
 20
52.499999478459351
 30
0.0
 11
177.00000051409
 21
52.499999478459351
 31
0.0
  0
ARC
  5
1F7C0
  8
0
 10
185.99915945488391
 20
57.500840038476611
 30
0.0
 40
5.000840630834924
 50
270.00964244001437
 51
359.99035755998881
  0
LINE
  5
1F7C1
  8
0
 10
191.0000000149011
 20
74.999998975545154
 30
0.0
 11
191.0000000149011
 21
57.499998435378068
 31
0.0
  0
ARC
  5
1F7C2
  8
0
 10
185.9989212589187
 20
74.998920108005052
 30
0.0
 40
5.0010788723528981
 50
0.0123602444111378
 51
89.987629083416408
  0
ARC
  5
1F7C3
  8
0
 10
153.9999995369684
 20
78.999997767455554
 30
0.0
 40
1.0000010963313819
 50
0.0000534235675259
 51
89.999946576432464
  0
LINE
  5
1F7C4
  8
0
 10
144.99999992549419
 20
79.999998863786445
 30
0.0
 11
154.00000046938649
 21
79.999998863786445
 31
0.0
  0
ARC
  5
1F7C5
  8
0
 10
145.0008411669329
 20
74.999158665585583
 30
0.0
 40
5.0008402689577149
 50
90.009638297091641
 51
179.99037237508071
  0
LINE
  5
1F7C6
  8
0
 10
140.00000096857539
 20
57.499998435378068
 30
0.0
 11
140.00000096857539
 21
74.999998975545154
 31
0.0
  0
ARC
  5
1F7C7
  8
0
 10
145.00107867387689
 20
57.501077183760799
 30
0.0
 40
5.0010778216461693
 50
180.0123588818594
 51
269.98764111814222
  0
LINE
  5
1F7C8
  8
0
 10
154.00000046938649
 20
52.499999478459351
 30
0.0
 11
144.99999992549419
 21
52.499999478459351
 31
0.0
  0
ARC
  5
1F7C9
  8
0
 10
154.00000204520151
 20
53.499998066557232
 30
0.0
 40
0.9999985880991086
 50
269.99990971232961
 51
0.0000902876704331
  0
LINE
  5
1F7CA
  8
0
 10
155.00000063329929
 20
78.999998699873686
 30
0.0
 11
155.00000063329929
 21
53.499999642372131
 31
0.0
  0
LINE
  5
1F7CB
  8
0
 10
193.00000034272671
 20
81.999998784158365
 30
0.0
 11
137.99978255263829
 21
81.999998784158365
 31
0.0
  0
LINE
  5
1F7D6
  8
0
 10
142.000001296401
 20
50.0
 30
0.0
 11
188.99999968707559
 21
50.0
 31
0.0
  0
ARC
  5
1F7E9
  8
0
 10
142.00000049173829
 20
54.99999880790714
 30
0.0
 40
5.0000000000000142
 50
180.0
 51
270.0
  0
ARC
  5
1F7ED
  8
0
 10
189.00000049173829
 20
54.99999880790714
 30
0.0
 40
5.0000000000000071
 50
270.0
 51
0.0
  0
ARC
  5
1F7F3
  8
0
 10
138.00000049173829
 20
80.999998807907104
 30
0.0
 40
1.0
 50
90.0
 51
180.0
  0
ARC
  5
1F7F5
  8
0
 10
193.00000049173829
 20
80.999998807907104
 30
0.0
 40
1.0
 50
0.0
 51
90.0
  0
LINE
  5
1F7F7
  8
0
 10
137.0000004768371
 20
80.999998794868574
 30
0.0
 11
137.0000004768371
 21
54.999998956918709
 31
0.0
  0
LINE
  5
1F7F8
  8
0
 10
194.0000005066394
 20
54.999998956918709
 30
0.0
 11
194.0000005066394
 21
80.999998794868574
 31
0.0
  0
LINE
  5
1F814
  8
2
 10
159.00000035762781
 20
77.649998664855957
 30
0.0
 11
159.00000035762781
 21
81.999998784158407
 31
0.0
  0
LINE
  5
1F815
  8
2
 10
172.00000062584871
 20
77.649998664855957
 30
0.0
 11
172.00000062584871
 21
81.999998784158407
 31
0.0
  0
ARC
  5
1F818
  8
2
 10
145.50000049173829
 20
107.4999988079071
 30
0.0
 40
5.0
 50
90.0
 51
180.0
  0
ARC
  5
1F819
  8
2
 10
148.50000049173829
 20
90.499998807907119
 30
0.0
 40
5.0000000000000142
 50
270.0
 51
0.0
  0
LINE
  5
1F81A
  8
2
 10
140.50000011920929
 20
107.49999918043611
 30
0.0
 11
140.50000011920929
 21
90.499999187886715
 31
0.0
  0
ARC
  5
1F81B
  8
2
 10
185.50000049173829
 20
107.4999988079071
 30
0.0
 40
5.0
 50
0.0
 51
90.0
  0
LINE
  5
1F81C
  8
2
 10
190.50000086426729
 20
90.499999187886715
 30
0.0
 11
190.50000086426729
 21
107.49999918043611
 31
0.0
  0
LINE
  5
1F81D
  8
2
 10
182.50000141561031
 20
85.499998833984137
 30
0.0
 11
185.50000004470351
 21
85.499998833984137
 31
0.0
  0
ARC
  5
1F81E
  8
2
 10
185.50000049173829
 20
90.499998807907119
 30
0.0
 40
5.0000000000000142
 50
270.0
 51
0.0
  0
ARC
  5
1F81F
  8
2
 10
182.50000049173829
 20
90.499998807907119
 30
0.0
 40
5.0000000000000142
 50
180.0
 51
270.0
  0
ARC
  5
1F820
  8
2
 10
182.50000049173829
 20
107.4999988079071
 30
0.0
 40
5.0
 50
90.0
 51
180.0
  0
LINE
  5
1F821
  8
2
 10
177.50000059604639
 20
107.49999918043611
 30
0.0
 11
177.50000059604639
 21
90.499999187886715
 31
0.0
  0
LINE
  5
1F822
  8
2
 10
153.50000038743019
 20
90.499999187886715
 30
0.0
 11
153.50000038743019
 21
107.49999918043611
 31
0.0
  0
ARC
  5
1F823
  8
2
 10
148.50000049173829
 20
107.4999988079071
 30
0.0
 40
5.0
 50
0.0
 51
90.0
  0
ARC
  5
1F824
  8
2
 10
145.50000049173829
 20
90.499998807907119
 30
0.0
 40
5.0000000000000142
 50
180.0
 51
270.0
  0
LINE
  5
1F825
  8
2
 10
145.5000009387731
 20
85.499998833984137
 30
0.0
 11
148.4999995678663
 21
85.499998833984137
 31
0.0
  0
LINE
  5
1F828
  8
2
 10
174.35000035911801
 20
82.99999883165583
 30
0.0
 11
174.35000035911801
 21
113.9999993145466
 31
0.0
  0
LINE
  5
1F829
  8
2
 10
174.35000035911801
 20
113.9999993145466
 30
0.0
 11
172.00000062584871
 21
113.9999993145466
 31
0.0
  0
LINE
  5
1F82A
  8
2
 10
156.65000062435871
 20
82.99999883165583
 30
0.0
 11
156.6500006243586
 21
113.9999993145466
 31
0.0
  0
LINE
  5
1F82B
  8
2
 10
159.00000035762781
 20
113.9999993145466
 30
0.0
 11
156.6500006243586
 21
113.9999993145466
 31
0.0
  0
ARC
  5
1F82C
  8
2
 10
147.0000004917384
 20
105.7499988079071
 30
0.0
 40
3.1000000000000218
 50
0.0
 51
180.0
  0
LINE
  5
1F82D
  8
2
 10
143.89999993145469
 20
105.7499990165233
 30
0.0
 11
143.8999999314546
 21
92.249998420476913
 31
0.0
  0
ARC
  5
1F82E
  8
2
 10
147.00000049173829
 20
92.249998807907104
 30
0.0
 40
3.1000000000000218
 50
180.0
 51
0.0
  0
LINE
  5
1F82F
  8
2
 10
150.10000057518479
 20
92.249998420476913
 30
0.0
 11
150.10000057518491
 21
105.7499990165233
 31
0.0
  0
LINE
  5
1F830
  8
2
 10
180.90000040829179
 20
105.7499990165233
 30
0.0
 11
180.90000040829179
 21
92.249998420476913
 31
0.0
  0
ARC
  5
1F831
  8
2
 10
184.00000049173829
 20
92.249998807907104
 30
0.0
 40
3.1000000000000218
 50
180.0
 51
0.0
  0
LINE
  5
1F832
  8
2
 10
187.1000010520219
 20
92.249998420476913
 30
0.0
 11
187.1000010520219
 21
105.7499990165233
 31
0.0
  0
ARC
  5
1F833
  8
2
 10
184.00000049173829
 20
105.7499988079071
 30
0.0
 40
3.1000000000000218
 50
0.0
 51
180.0
  0
LINE
  5
1F842
  8
2
 10
177.50000059604639
 20
74.499998427927494
 30
0.0
 11
177.50000059604639
 21
57.499998435378068
 31
0.0
  0
ARC
  5
1F843
  8
2
 10
148.50000049173829
 20
57.499998807907097
 30
0.0
 40
4.999999999999992
 50
270.0
 51
0.0
  0
LINE
  5
1F844
  8
2
 10
140.50000011920929
 20
74.499998427927494
 30
0.0
 11
140.50000011920929
 21
57.499998435378068
 31
0.0
  0
ARC
  5
1F845
  8
2
 10
145.50000049173829
 20
74.499998807907104
 30
0.0
 40
5.0
 50
90.0
 51
180.0
  0
LINE
  5
1F846
  8
2
 10
148.4999995678663
 20
79.499998781830072
 30
0.0
 11
145.5000009387731
 21
79.499998781830072
 31
0.0
  0
ARC
  5
1F847
  8
2
 10
148.50000049173829
 20
74.499998807907104
 30
0.0
 40
5.0
 50
0.0
 51
90.0
  0
ARC
  5
1F848
  8
2
 10
185.50000049173829
 20
57.499998807907097
 30
0.0
 40
5.0
 50
270.0
 51
0.0
  0
LINE
  5
1F849
  8
2
 10
185.50000004470351
 20
79.499998781830072
 30
0.0
 11
182.50000141561031
 21
79.499998781830072
 31
0.0
  0
LINE
  5
1F84A
  8
2
 10
153.50000038743019
 20
57.499998435378068
 30
0.0
 11
153.50000038743019
 21
74.499998427927494
 31
0.0
  0
ARC
  5
1F84B
  8
2
 10
182.50000049173829
 20
57.499998807907097
 30
0.0
 40
4.999999999999992
 50
180.0
 51
270.0
  0
ARC
  5
1F84C
  8
2
 10
182.50000049173829
 20
74.499998807907104
 30
0.0
 40
5.0
 50
90.0
 51
180.0
  0
ARC
  5
1F84D
  8
2
 10
145.50000049173829
 20
57.499998807907097
 30
0.0
 40
4.999999999999992
 50
180.0
 51
270.0
  0
LINE
  5
1F84E
  8
2
 10
190.50000086426729
 20
57.499998435378068
 30
0.0
 11
190.50000086426729
 21
74.499998427927494
 31
0.0
  0
ARC
  5
1F84F
  8
2
 10
185.50000049173829
 20
74.499998807907104
 30
0.0
 40
5.0
 50
0.0
 51
90.0
  0
ARC
  5
1F852
  8
2
 10
147.0000004917384
 20
59.249998807907112
 30
0.0
 40
3.1000000000000218
 50
180.0
 51
0.0
  0
LINE
  5
1F853
  8
2
 10
150.10000057518491
 20
59.249998599290841
 30
0.0
 11
150.10000057518479
 21
72.749999195337253
 31
0.0
  0
ARC
  5
1F854
  8
2
 10
147.00000049173829
 20
72.749998807907104
 30
0.0
 40
3.1000000000000218
 50
0.0
 51
180.0
  0
LINE
  5
1F855
  8
2
 10
143.8999999314546
 20
72.749999195337253
 30
0.0
 11
143.89999993145469
 21
59.249998599290841
 31
0.0
  0
ARC
  5
1F856
  8
2
 10
184.00000049173829
 20
59.249998807907112
 30
0.0
 40
3.1000000000000218
 50
180.0
 51
0.0
  0
ARC
  5
1F857
  8
2
 10
184.00000049173829
 20
72.749998807907104
 30
0.0
 40
3.1000000000000218
 50
0.0
 51
180.0
  0
LINE
  5
1F858
  8
2
 10
180.90000040829179
 20
72.749999195337253
 30
0.0
 11
180.90000040829179
 21
59.249998599290841
 31
0.0
  0
LINE
  5
1F859
  8
2
 10
187.1000010520219
 20
59.249998599290841
 30
0.0
 11
187.1000010520219
 21
72.749999195337253
 31
0.0
  0
LINE
  5
1F85F
  8
2
 10
159.00000035762781
 20
77.649998664855957
 30
0.0
 11
172.00000062584871
 21
77.649998664855957
 31
0.0
  0
LINE
  5
1F865
  8
0
 10
65.279998071491704
 20
83.533588051795945
 30
0.0
 11
65.279998071491704
 21
114.4664093852043
 31
0.0
  0
LINE
  5
1F866
  8
0
 10
65.499999746680245
 20
83.541270737216834
 30
0.0
 11
65.499999746680245
 21
92.474147863686085
 31
0.0
  0
LINE
  5
1F867
  8
0
 10
65.499999746680245
 20
50.541269779205322
 30
0.0
 11
65.499999746680245
 21
81.458726851269603
 31
0.0
  0
LINE
  5
1F86A
  8
0
 10
61.239930987358093
 20
83.999998820945621
 30
0.0
 11
61.239930987358093
 21
109.99999865889551
 31
0.0
  0
ARC
  5
1F86D
  8
0
 10
61.873161089924793
 20
84.039307776496955
 30
0.0
 40
0.6344490182695514
 50
183.55218566319911
 51
261.74230633547819
  0
LINE
  5
1F86E
  8
0
 10
65.499999746680317
 20
83.541270737216834
 30
0.0
 11
50.0
 21
82.99999883165583
 31
0.0
  0
LINE
  5
1F86F
  8
0
 10
50.0
 20
114.99999761581419
 30
0.0
 11
50.000000000000057
 21
82.999998831655859
 31
0.0
  0
LINE
  5
1F870
  8
0
 10
65.279998071491704
 20
114.466408177136
 30
0.0
 11
50.0
 21
114.99999761581419
 31
0.0
  0
POLYLINE
  5
1F871
  8
0
 66
     1
 10
0.0
 20
0.0
 30
0.0
 70
   128
  0
VERTEX
  5
2018A
  8
0
 10
61.983321048319333
 20
112.9420652985573
 30
0.0
  0
VERTEX
  5
2018B
  8
0
 10
62.126253917813301
 20
113.48486803472041
 30
0.0
  0
VERTEX
  5
2018C
  8
0
 10
62.291418388485901
 20
113.9377273619175
 30
0.0
  0
VERTEX
  5
2018D
  8
0
 10
62.463254854083061
 20
114.2637200653553
 30
0.0
  0
VERTEX
  5
2018E
  8
0
 10
62.645521201193333
 20
114.4736140966415
 30
0.0
  0
VERTEX
  5
2018F
  8
0
 10
62.849404476582997
 20
114.5512863993644
 30
0.0
  0
SEQEND
  5
20190
  8
0
  0
ARC
  5
1F872
  8
0
 10
85.332643309128173
 20
105.47729674087959
 30
0.0
 40
24.51353951714843
 50
162.27094358404
 51
169.36812697480971
  0
POLYLINE
  5
1F873
  8
0
 66
     1
 10
0.0
 20
0.0
 30
0.0
 70
   128
  0
VERTEX
  5
20191
  8
0
 10
61.983321048319333
 20
83.418465580325574
 30
0.0
  0
VERTEX
  5
20192
  8
0
 10
61.930681765079491
 20
83.416627382393926
 30
0.0
  0
VERTEX
  5
20193
  8
0
 10
61.86341326683759
 20
83.414278295822442
 30
0.0
  0
VERTEX
  5
20194
  8
0
 10
61.782038025557988
 20
83.411436656024307
 30
0.0
  0
SEQEND
  5
20195
  8
0
  0
LINE
  5
1F877
  8
0
 10
64.871349558234215
 20
84.99999875202775
 30
0.0
 11
63.489129953086369
 21
84.99999875202775
 31
0.0
  0
ARC
  5
1F878
  8
0
 10
62.899999231157381
 20
85.712166833601088
 30
0.0
 40
2.0960452019166449
 50
340.13728918623582
 51
7.8928828007180716
  0
LINE
  5
1F879
  8
0
 10
64.976187609136105
 20
111.49999797344201
 30
0.0
 11
64.976187609136105
 21
85.999998915940523
 31
0.0
  0
ARC
  5
1F87A
  8
0
 10
62.17417973385318
 20
111.71173656685021
 30
0.0
 40
2.8099966841770341
 50
355.67855800755382
 51
16.291270005492748
  0
LINE
  5
1F87B
  8
0
 10
63.489129953086369
 20
112.49999813735479
 30
0.0
 11
64.871349558234215
 21
112.49999813735479
 31
0.0
  0
POLYLINE
  5
1F87C
  8
0
 66
     1
 10
0.0
 20
0.0
 30
0.0
 70
   128
  0
VERTEX
  5
20196
  8
0
 10
62.37187068909406
 20
107.49999918043611
 30
0.0
  0
VERTEX
  5
20197
  8
0
 10
62.388937175273888
 20
108.3218429237604
 30
0.0
  0
VERTEX
  5
20198
  8
0
 10
62.438701465725892
 20
109.120275080204
 30
0.0
  0
VERTEX
  5
20199
  8
0
 10
62.519189156591892
 20
109.8717555403709
 30
0.0
  0
VERTEX
  5
2019A
  8
0
 10
62.626228854060173
 20
110.5574864894151
 30
0.0
  0
VERTEX
  5
2019B
  8
0
 10
62.757484801113598
 20
111.1666943877935
 30
0.0
  0
VERTEX
  5
2019C
  8
0
 10
62.905907817184918
 20
111.6749487817287
 30
0.0
  0
VERTEX
  5
2019D
  8
0
 10
63.070414774119847
 20
112.077384442091
 30
0.0
  0
VERTEX
  5
2019E
  8
0
 10
63.24113551527261
 20
112.3502638190984
 30
0.0
  0
VERTEX
  5
2019F
  8
0
 10
63.489129953086369
 20
112.49999813735479
 30
0.0
  0
SEQEND
  5
201A0
  8
0
  0
LINE
  5
1F87D
  8
0
 10
62.37187068909406
 20
89.999998640269041
 30
0.0
 11
62.37187068909406
 21
107.49999918043611
 31
0.0
  0
POLYLINE
  5
1F87E
  8
0
 66
     1
 10
0.0
 20
0.0
 30
0.0
 70
   128
  0
VERTEX
  5
201A1
  8
0
 10
63.489129953086369
 20
84.99999875202775
 30
0.0
  0
VERTEX
  5
201A2
  8
0
 10
63.315929099917412
 20
85.074240062385783
 30
0.0
  0
VERTEX
  5
201A3
  8
0
 10
63.140909373760223
 20
85.292705753818154
 30
0.0
  0
VERTEX
  5
201A4
  8
0
 10
62.969800271093838
 20
85.651317564770565
 30
0.0
  0
VERTEX
  5
201A5
  8
0
 10
62.808897532522671
 20
86.13873990252614
 30
0.0
  0
VERTEX
  5
201A6
  8
0
 10
62.665454298257821
 20
86.740714684128761
 30
0.0
  0
VERTEX
  5
201A7
  8
0
 10
62.544728815555573
 20
87.441357504576445
 30
0.0
  0
VERTEX
  5
201A8
  8
0
 10
62.454536743462079
 20
88.204427808523164
 30
0.0
  0
VERTEX
  5
201A9
  8
0
 10
62.395909987390041
 20
89.021393284201622
 30
0.0
  0
VERTEX
  5
201AA
  8
0
 10
62.37187068909406
 20
89.999998640269041
 30
0.0
  0
SEQEND
  5
201AB
  8
0
  0
LINE
  5
1F88A
  8
0
 10
87.000000476837144
 20
87.499998696148396
 30
0.0
 11
87.000000476837144
 21
103.499998524785
 31
0.0
  0
ARC
  5
1F88C
  8
0
 10
73.0
 20
87.499998807907133
 30
0.0
 40
9.0000000000000071
 50
23.55646430910139
 51
148.5318599448367
  0
LINE
  5
1F88D
  8
0
 10
65.279998071491704
 20
92.126936838030815
 30
0.0
 11
65.323624946177006
 21
92.198218405246735
 31
0.0
  0
LINE
  5
1F88E
  8
0
 10
81.25
 20
91.096872650086866
 30
0.0
 11
83.166665583848953
 21
86.700693424791083
 31
0.0
  0
ARC
  5
1F88F
  8
0
 10
85.0
 20
87.499998807907133
 30
0.0
 40
2.0000000000000249
 50
203.55646430910139
 51
0.0
  0
ARC
  5
1F890
  8
0
 10
76.999999999999943
 20
103.4999988079071
 30
0.0
 40
10.0
 50
0.0
 51
87.555733772886384
  0
LINE
  5
1F891
  8
0
 10
77.426475659012794
 20
113.49090114235879
 30
0.0
 11
65.499999746680245
 21
113.9999993145466
 31
0.0
  0
LINE
  5
1F892
  8
0
 10
65.499999746680245
 20
113.9999993145466
 30
0.0
 11
65.279998071491704
 21
113.9999993145466
 31
0.0
  0
CIRCLE
  5
1F893
  8
0
 10
77.999999999999943
 20
104.4999988079071
 30
0.0
 40
6.0000000000000142
  0
LINE
  5
1F896
  8
0
 10
60.1500004529953
 20
81.645553011912853
 30
0.0
 11
60.1500004529953
 21
83.354444603901356
 31
0.0
  0
ARC
  5
1F897
  8
0
 10
53.879999999999988
 20
82.199998807907122
 30
0.0
 40
0.730000000000004
 50
180.0
 51
205.3418774291159
  0
LINE
  5
1F899
  8
0
 10
53.150000004097812
 20
83.109999203588814
 30
0.0
 11
53.150000004097812
 21
82.199998793657855
 31
0.0
  0
LINE
  5
1F89C
  8
0
 10
61.239930987358093
 20
54.999998956918709
 30
0.0
 11
61.239930987358093
 21
80.999998794868574
 31
0.0
  0
LINE
  5
1F89E
  8
0
 10
65.499999746680245
 20
50.541272068598829
 30
0.0
 11
50.0
 21
50.0
 31
0.0
  0
ARC
  5
1F89F
  8
0
 10
81.949322477196858
 20
58.66781640508799
 30
0.0
 40
21.031685161025571
 50
190.04344368858941
 51
198.3174857525602
  0
POLYLINE
  5
1F8A0
  8
0
 66
     1
 10
0.0
 20
0.0
 30
0.0
 70
   128
  0
VERTEX
  5
201AC
  8
0
 10
62.849404476582997
 20
50.44871121644973
 30
0.0
  0
VERTEX
  5
201AD
  8
0
 10
62.66953628510236
 20
50.508595257997513
 30
0.0
  0
VERTEX
  5
201AE
  8
0
 10
62.483581900596612
 20
50.706207007169724
 30
0.0
  0
VERTEX
  5
201AF
  8
0
 10
62.307800352573388
 20
51.025345176458352
 30
0.0
  0
VERTEX
  5
201B0
  8
0
 10
62.138387188315392
 20
51.47632323205471
 30
0.0
  0
VERTEX
  5
201B1
  8
0
 10
61.983321048319333
 20
52.05793231725692
 30
0.0
  0
SEQEND
  5
201B2
  8
0
  0
LINE
  5
1F8A2
  8
0
 10
65.499999746680245
 20
81.458726878597361
 30
0.0
 11
50.0
 21
81.999998784158365
 31
0.0
  0
ARC
  5
1F8A3
  8
0
 10
61.874268517834032
 20
80.959669820533009
 30
0.0
 40
0.6356182256208051
 50
98.343278435412884
 51
176.36222956590839
  0
LINE
  5
1F8A4
  8
0
 10
50.0
 20
81.999998784158365
 30
0.0
 11
50.0
 21
49.999999999999972
 31
0.0
  0
ARC
  5
1F8A8
  8
0
 10
62.174168589727401
 20
79.211736124953632
 30
0.0
 40
2.8100077085850792
 50
355.67859888395827
 51
16.291229129088979
  0
LINE
  5
1F8A9
  8
0
 10
63.489129953086369
 20
79.999998863786445
 30
0.0
 11
64.871349558234215
 21
79.999998863786445
 31
0.0
  0
POLYLINE
  5
1F8AA
  8
0
 66
     1
 10
0.0
 20
0.0
 30
0.0
 70
   128
  0
VERTEX
  5
201B3
  8
0
 10
62.37187068909406
 20
74.999998975545154
 30
0.0
  0
VERTEX
  5
201B4
  8
0
 10
62.388937175273888
 20
75.82184225320816
 30
0.0
  0
VERTEX
  5
201B5
  8
0
 10
62.438701465725892
 20
76.620275806635604
 30
0.0
  0
VERTEX
  5
201B6
  8
0
 10
62.519189156591892
 20
77.371756266802535
 30
0.0
  0
VERTEX
  5
201B7
  8
0
 10
62.626228854060173
 20
78.057487215846777
 30
0.0
  0
VERTEX
  5
201B8
  8
0
 10
62.757484801113598
 20
78.666695347055793
 30
0.0
  0
VERTEX
  5
201B9
  8
0
 10
62.905907817184918
 20
79.174948111176491
 30
0.0
  0
VERTEX
  5
201BA
  8
0
 10
63.070414774119847
 20
79.57738540135324
 30
0.0
  0
VERTEX
  5
201BB
  8
0
 10
63.24113551527261
 20
79.850264079868793
 30
0.0
  0
VERTEX
  5
201BC
  8
0
 10
63.489129953086369
 20
79.999998863786445
 30
0.0
  0
SEQEND
  5
201BD
  8
0
  0
LINE
  5
1F8AB
  8
0
 10
62.37187068909406
 20
57.499998435378068
 30
0.0
 11
62.37187068909406
 21
74.999998975545154
 31
0.0
  0
POLYLINE
  5
1F8AC
  8
0
 66
     1
 10
0.0
 20
0.0
 30
0.0
 70
   128
  0
VERTEX
  5
201BE
  8
0
 10
63.489129953086369
 20
52.499999478459351
 30
0.0
  0
VERTEX
  5
201BF
  8
0
 10
63.315929099917412
 20
52.574240788817399
 30
0.0
  0
VERTEX
  5
201C0
  8
0
 10
63.140909373760223
 20
52.792706713080399
 30
0.0
  0
VERTEX
  5
201C1
  8
0
 10
62.969800271093838
 20
53.151318058371537
 30
0.0
  0
VERTEX
  5
201C2
  8
0
 10
62.808897532522671
 20
53.638740628957741
 30
0.0
  0
VERTEX
  5
201C3
  8
0
 10
62.665454298257821
 20
54.2407140135765
 30
0.0
  0
VERTEX
  5
201C4
  8
0
 10
62.544728815555573
 20
54.941357299685471
 30
0.0
  0
VERTEX
  5
201C5
  8
0
 10
62.454536743462079
 20
55.704427137970917
 30
0.0
  0
VERTEX
  5
201C6
  8
0
 10
62.395909987390041
 20
56.521392613649361
 30
0.0
  0
VERTEX
  5
201C7
  8
0
 10
62.37187068909406
 20
57.499998435378068
 30
0.0
  0
SEQEND
  5
201C8
  8
0
  0
LINE
  5
1F8AD
  8
0
 10
64.871349558234215
 20
52.499999478459351
 30
0.0
 11
63.489129953086369
 21
52.499999478459351
 31
0.0
  0
ARC
  5
1F8AE
  8
0
 10
62.900006045105727
 20
53.21216684567176
 30
0.0
 40
2.0960385506177661
 50
340.13724426632052
 51
7.8929277206340807
  0
LINE
  5
1F8AF
  8
0
 10
64.976187609136105
 20
78.999998699873686
 30
0.0
 11
64.976187609136105
 21
53.499999642372131
 31
0.0
  0
LINE
  5
1F8C3
  8
2
 10
53.50000000000005
 20
112.49999813735479
 30
0.0
 11
63.489129953086369
 21
112.49999813735479
 31
0.0
  0
LINE
  5
1F8C8
  8
2
 10
59.999999776482582
 20
84.999998752027778
 30
0.0
 11
63.489129953086369
 21
84.99999875202775
 31
0.0
  0
LINE
  5
1F8CC
  8
2
 10
59.999999776482582
 20
85.499998833984137
 30
0.0
 11
53.5
 21
85.499998833984137
 31
0.0
  0
LINE
  5
1F8D3
  8
2
 10
53.5
 20
112.49999813735479
 30
0.0
 11
53.5
 21
85.499998833984137
 31
0.0
  0
LINE
  5
1F8D5
  8
2
 10
59.999999776482582
 20
112.49999813735479
 30
0.0
 11
59.999999776482582
 21
84.999998752027778
 31
0.0
  0
LINE
  5
1F8EC
  8
2
 10
60.1500004529953
 20
78.869998874142766
 30
0.0
 11
60.1500004529953
 21
81.645553011912853
 31
0.0
  0
ARC
  5
1F8ED
  8
2
 10
58.92999999999995
 20
78.869998807907095
 30
0.0
 40
1.2200000000000011
 50
231.9526255081546
 51
0.0
  0
LINE
  5
1F8EE
  8
2
 10
53.430091543123119
 20
81.625122763216496
 30
0.0
 11
58.178098127245903
 21
77.909247204661355
 31
0.0
  0
ARC
  5
1F8EF
  8
2
 10
53.879999999999988
 20
82.199998807907122
 30
0.0
 40
0.730000000000004
 50
205.3418774291159
 51
231.9526255081546
  0
LINE
  5
1F8FF
  8
2
 10
53.50000000000005
 20
52.499999478459351
 30
0.0
 11
63.489129953086369
 21
52.499999478459351
 31
0.0
  0
LINE
  5
1F900
  8
2
 10
59.999999776482639
 20
79.999998863786445
 30
0.0
 11
63.489129953086369
 21
79.999998863786445
 31
0.0
  0
LINE
  5
1F908
  8
2
 10
59.999999776482582
 20
79.499998781830072
 30
0.0
 11
53.50000000000005
 21
79.499998781830072
 31
0.0
  0
LINE
  5
1F90A
  8
2
 10
59.999999776482582
 20
79.999998863786445
 30
0.0
 11
59.999999776482582
 21
52.499999478459351
 31
0.0
  0
LINE
  5
1F90B
  8
2
 10
53.50000000000005
 20
79.499998781830072
 30
0.0
 11
53.50000000000005
 21
52.499999478459387
 31
0.0
  0
LINE
  5
1F91D
  8
2
 10
50.0
 20
89.149998807907068
 30
0.0
 11
53.5
 21
89.149998807907068
 31
0.0
  0
LINE
  5
1F91E
  8
2
 10
53.5
 20
108.8499993383884
 30
0.0
 11
50.0
 21
108.8499993383884
 31
0.0
  0
LINE
  5
1F91F
  8
2
 10
50.0
 20
56.149998807907082
 30
0.0
 11
53.50000000000005
 21
56.149998807907082
 31
0.0
  0
LINE
  5
1F920
  8
2
 10
53.50000000000005
 20
75.849998585879774
 30
0.0
 11
50.0
 21
75.849998585879774
 31
0.0
  0
ARC
  5
1F921
  8
0
 10
165.50000049173829
 20
291.99999809265142
 30
0.0
 40
105.5
 50
257.12946437832852
 51
266.29388666732621
  0
ARC
  5
1F925
  8
0
 10
165.50000049173829
 20
291.99999809265142
 30
0.0
 40
105.5
 50
273.70611333267539
 51
282.87053562167318
  0
ARC
  5
1F92C
  8
0
 10
169.18284487914181
 20
198.49999809265131
 30
0.0
 40
0.5000000000000077
 50
135.57299665673091
 51
178.00000000000281
  0
LINE
  5
1F92D
  8
0
 10
168.4724061284214
 20
192.4825482070446
 30
0.0
 11
168.68314952589569
 21
198.51744794286779
 31
0.0
  0
ARC
  5
1F92E
  8
0
 10
167.97271071789251
 20
192.49999809265131
 30
0.0
 40
0.5000000000000077
 50
270.0
 51
358.00000000000279
  0
LINE
  5
1F92F
  8
0
 10
163.027290161699
 20
191.99999831616881
 30
0.0
 11
167.9727108217775
 21
191.99999831616881
 31
0.0
  0
ARC
  5
1F930
  8
0
 10
163.02729026558401
 20
192.49999809265131
 30
0.0
 40
0.5
 50
182.0000000000004
 51
270.0
  0
LINE
  5
1F931
  8
0
 10
162.3168514575809
 20
198.51744794286779
 30
0.0
 11
162.52759485505521
 21
192.4825482070446
 31
0.0
  0
ARC
  5
1F932
  8
0
 10
161.8171561043348
 20
198.49999809265131
 30
0.0
 40
0.5000000000000077
 50
1.9999999999971589
 51
44.427003343269057
  0
LINE
  5
1F939
  8
0
 10
137.392508238554
 20
190.76006710529319
 30
0.0
 11
137.0000004768371
 21
201.9999980926514
 31
0.0
  0
ARC
  5
1F93A
  8
0
 10
165.5003311898659
 20
292.00143812320181
 30
0.0
 40
105.50147734004589
 50
255.16488767597929
 51
257.12946392279548
  0
ARC
  5
1F93B
  8
0
 10
138.99997270504579
 20
191.94996579142489
 30
0.0
 40
1.999950222953486
 50
216.51007653654929
 51
255.16528357742101
  0
LINE
  5
1F93C
  8
0
 10
194.00000050663951
 20
201.9999980926514
 30
0.0
 11
137.0000004768371
 21
201.9999980926514
 31
0.0
  0
LINE
  5
1F93D
  8
0
 10
193.60749274492261
 20
190.76006710529319
 30
0.0
 11
194.0000005066394
 21
201.9999980926514
 31
0.0
  0
ARC
  5
1F93E
  8
0
 10
192.00005927893261
 20
191.94992011097989
 30
0.0
 40
1.9998981280870849
 50
284.83419295392031
 51
323.49044693211329
  0
ARC
  5
1F93F
  8
0
 10
165.4992364285913
 20
292.00319547369349
 30
0.0
 40
105.50328707018789
 50
282.870552928346
 51
284.8350954728823
  0
LINE
  5
1F942
  8
0
 10
159.00000035762781
 20
194.84999813139439
 30
0.0
 11
156.6500006243586
 21
194.84999813139439
 31
0.0
  0
LINE
  5
1F943
  8
0
 10
174.35000035911801
 20
194.84999813139439
 30
0.0
 11
172.00000062584871
 21
194.84999813139439
 31
0.0
  0
LINE
  5
1F948
  8
0
 10
174.35000035911801
 20
198.49999798461789
 30
0.0
 11
174.35000035911801
 21
194.84999813139439
 31
0.0
  0
LINE
  5
1F949
  8
0
 10
156.6500006243586
 20
194.84999813139439
 30
0.0
 11
156.6500006243586
 21
198.49999798461789
 31
0.0
  0
ARC
  5
1F94A
  8
0
 10
157.00000049173829
 20
198.49999809265131
 30
0.0
 40
0.3499999999999943
 50
90.0
 51
180.0
  0
LINE
  5
1F94B
  8
0
 10
157.00000002980229
 20
198.84999808855349
 30
0.0
 11
162.17422755435109
 21
198.84999808855349
 31
0.0
  0
LINE
  5
1F94C
  8
0
 10
168.82577342912549
 20
198.84999808855349
 30
0.0
 11
174.00000095367429
 21
198.84999808855349
 31
0.0
  0
ARC
  5
1F94D
  8
0
 10
174.00000049173829
 20
198.49999809265131
 30
0.0
 40
0.3499999999999943
 50
0.0
 51
90.0
  0
LINE
  5
1F951
  8
0
 10
159.00000035762781
 20
164.99999761581421
 30
0.0
 11
172.00000062584871
 21
164.99999761581421
 31
0.0
  0
LINE
  5
1F952
  8
0
 10
172.00000062584871
 20
164.99999761581421
 30
0.0
 11
172.0000006258488
 21
194.84999813139439
 31
0.0
  0
LINE
  5
1F953
  8
0
 10
159.00000035762781
 20
164.99999761581421
 30
0.0
 11
159.00000035762781
 21
194.84999813139439
 31
0.0
  0
ARC
  5
1F954
  8
0
 10
165.50000049173829
 20
291.99999809265142
 30
0.0
 40
105.4999999999997
 50
266.29388666732621
 51
266.46769111682482
  0
ARC
  5
1F955
  8
0
 10
165.50000049173829
 20
291.99999809265142
 30
0.0
 40
105.5000000000001
 50
273.53230888317682
 51
273.70611333267539
  0
LINE
  5
1F95A
  8
2
 10
177.50000059604639
 20
191.99999831616881
 30
0.0
 11
177.50000059604639
 21
198.49999809265131
 31
0.0
  0
LINE
  5
1F95F
  8
2
 10
191.0000000149011
 20
191.99999831616881
 30
0.0
 11
176.00000035017729
 21
191.9999983161687
 31
0.0
  0
LINE
  5
1F960
  8
2
 10
190.50000086426729
 20
191.99999831616881
 30
0.0
 11
190.50000086426729
 21
198.49999809265131
 31
0.0
  0
LINE
  5
1F961
  8
2
 10
190.50000086426729
 20
198.49999809265131
 30
0.0
 11
177.50000059604639
 21
198.49999809265131
 31
0.0
  0
LINE
  5
1F963
  8
2
 10
155.00000063329929
 20
191.99999831616881
 30
0.0
 11
140.00000096857539
 21
191.99999831616881
 31
0.0
  0
LINE
  5
1F964
  8
2
 10
153.50000038743019
 20
191.99999831616881
 30
0.0
 11
153.50000038743019
 21
198.49999809265131
 31
0.0
  0
LINE
  5
1F965
  8
2
 10
153.50000038743019
 20
198.49999809265131
 30
0.0
 11
140.50000011920929
 21
198.49999809265131
 31
0.0
  0
LINE
  5
1F966
  8
2
 10
140.50000011920929
 20
191.99999831616881
 30
0.0
 11
140.50000011920929
 21
198.49999809265131
 31
0.0
  0
LINE
  5
1F96E
  8
2
 10
155.00000063329929
 20
191.99999831616881
 30
0.0
 11
155.00000063329929
 21
187.02381048351521
 31
0.0
  0
LINE
  5
1F971
  8
2
 10
191.0000000149011
 20
191.99999831616881
 30
0.0
 11
191.0000000149011
 21
189.6281274035573
 31
0.0
  0
LINE
  5
1F976
  8
2
 10
176.0000003501772
 20
191.9999983161687
 30
0.0
 11
176.00000035017729
 21
187.02381048351521
 31
0.0
  0
LINE
  5
1F978
  8
2
 10
140.00000096857539
 20
191.99999831616881
 30
0.0
 11
140.00000096857539
 21
189.6281274035573
 31
0.0
  0
LINE
  5
1F987
  8
2
 10
143.8999999314546
 20
198.49999809265131
 30
0.0
 11
143.8999999314546
 21
201.9999980926514
 31
0.0
  0
LINE
  5
1F988
  8
2
 10
150.10000057518479
 20
198.49999809265131
 30
0.0
 11
150.10000057518479
 21
201.9999980926514
 31
0.0
  0
LINE
  5
1F989
  8
2
 10
180.90000040829179
 20
198.49999809265131
 30
0.0
 11
180.90000040829179
 21
201.9999980926514
 31
0.0
  0
LINE
  5
1F98A
  8
2
 10
187.1000010520219
 20
198.49999809265131
 30
0.0
 11
187.1000010520219
 21
201.9999980926514
 31
0.0
  0
LINE
  5
1FC21
  8
2
 10
190.50000086426729
 20
196.49999809265131
 30
0.0
 11
177.50000059604639
 21
196.49999809265131
 31
0.0
  0
LINE
  5
1FC22
  8
2
 10
153.50000038743019
 20
196.49999809265131
 30
0.0
 11
140.50000011920929
 21
196.49999809265131
 31
0.0
  0
LINE
  5
1FC66
  8
1
 10
165.50000049173829
 20
119.99999761581419
 30
0.0
 11
165.50000049173829
 21
45.0
 31
0.0
  0
LINE
  5
1FC69
  8
1
 10
184.00000049173829
 20
53.149998807907082
 30
0.0
 11
184.00000049173829
 21
78.849998807907113
 31
0.0
  0
LINE
  5
1FC6A
  8
1
 10
147.00000049173829
 20
111.8499988079071
 30
0.0
 11
147.00000049173829
 21
86.149998807907082
 31
0.0
  0
LINE
  5
1FC6B
  8
1
 10
140.9000004917383
 20
105.7499988079071
 30
0.0
 11
153.1000004917384
 21
105.7499988079071
 31
0.0
  0
LINE
  5
1FC6C
  8
1
 10
140.9000004917383
 20
92.249998807907104
 30
0.0
 11
153.10000049173831
 21
92.249998807907104
 31
0.0
  0
LINE
  5
1FC6D
  8
1
 10
140.9000004917383
 20
72.749998807907104
 30
0.0
 11
153.10000049173831
 21
72.749998807907104
 31
0.0
  0
LINE
  5
1FC6E
  8
1
 10
140.9000004917383
 20
59.249998807907112
 30
0.0
 11
153.1000004917384
 21
59.249998807907112
 31
0.0
  0
LINE
  5
1FC77
  8
1
 10
177.9000004917383
 20
105.7499988079071
 30
0.0
 11
190.10000049173831
 21
105.7499988079071
 31
0.0
  0
LINE
  5
1FC78
  8
1
 10
177.9000004917383
 20
92.249998807907104
 30
0.0
 11
190.10000049173831
 21
92.249998807907104
 31
0.0
  0
LINE
  5
1FC79
  8
1
 10
177.9000004917383
 20
72.749998807907104
 30
0.0
 11
190.10000049173831
 21
72.749998807907104
 31
0.0
  0
LINE
  5
1FC7A
  8
1
 10
177.9000004917383
 20
59.249998807907112
 30
0.0
 11
190.10000049173831
 21
59.249998807907112
 31
0.0
  0
LINE
  5
1FC7B
  8
1
 10
165.50000049173829
 20
206.99999809265131
 30
0.0
 11
165.50000049173829
 21
159.99999761581421
 31
0.0
  0
LINE
  5
1FC7C
  8
1
 10
147.00000025331971
 20
204.9999980926514
 30
0.0
 11
147.00000025331971
 21
185.0888200466747
 31
0.0
  0
LINE
  5
1FC7D
  8
1
 10
184.0000007301569
 20
204.9999980926514
 30
0.0
 11
184.0000007301569
 21
185.0888200466747
 31
0.0
  0
LINE
  5
1FCCA
  8
1
 10
184.00000049173829
 20
86.149998807907082
 30
0.0
 11
184.00000049173829
 21
111.8499988079071
 31
0.0
  0
LINE
  5
1FCCB
  8
1
 10
147.00000049173829
 20
78.849998807907113
 30
0.0
 11
147.0000004917384
 21
53.149998807907082
 31
0.0
  0
LINE
  5
1FE77
  8
1
 10
47.0
 20
105.7499988079071
 30
0.0
 11
68.49999974668026
 21
105.7499988079071
 31
0.0
  0
LINE
  5
1FE78
  8
1
 10
47.00000000000005
 20
92.249998585879766
 30
0.0
 11
68.49999974668026
 21
92.249998585879766
 31
0.0
  0
LINE
  5
1FE79
  8
1
 10
47.00000000000005
 20
72.749998807907104
 30
0.0
 11
68.49999974668026
 21
72.749998807907104
 31
0.0
  0
LINE
  5
1FE7A
  8
1
 10
47.000000000000107
 20
59.24999933838842
 30
0.0
 11
68.49999974668026
 21
59.24999933838842
 31
0.0
  0
LINE
  5
1FE83
  8
2
 10
55.500000000000107
 20
79.499998781830072
 30
0.0
 11
55.500000000000107
 21
52.499999478459387
 31
0.0
  0
LINE
  5
1FE84
  8
2
 10
55.500000000000057
 20
112.49999813735479
 30
0.0
 11
55.500000000000057
 21
85.499998833984137
 31
0.0
  0
ENDSEC
  0
EOF
