  0
SECTION
  2
HEADER
  9
$ACADVER
  1
AC1009
  9
$INSBASE
 10
0.0
 20
0.0
 30
0.0
  9
$EXTMIN
 10
0.0
 20
-1.4802182810368341
 30
0.0
  9
$EXTMAX
 10
172.6000000000399
 20
199.63347031936371
 30
0.0
  9
$LIMMIN
 10
0.0
 20
0.0
  9
$LIMMAX
 10
375.0
 20
270.0
  9
$ORTHOMODE
 70
     1
  9
$REGENMODE
 70
     1
  9
$FILLMODE
 70
     1
  9
$QTEXTMODE
 70
     0
  9
$MIRRTEXT
 70
     0
  9
$DRAGMODE
 70
     2
  9
$LTSCALE
 40
5.0
  9
$OSMODE
 70
    37
  9
$ATTMODE
 70
     1
  9
$TEXTSIZE
 40
4.000000000000048
  9
$TRACEWID
 40
0.05
  9
$TEXTSTYLE
  7
STANDARD
  9
$CLAYER
  8
0
  9
$CELTYPE
  6
BYLAYER
  9
$CECOLOR
 62
   256
  9
$DIMSCALE
 40
0.5
  9
$DIMASZ
 40
3.0
  9
$DIMEXO
 40
2.0
  9
$DIMDLI
 40
0.38
  9
$DIMRND
 40
0.0
  9
$DIMDLE
 40
0.0
  9
$DIMEXE
 40
2.0
  9
$DIMTP
 40
0.0
  9
$DIMTM
 40
0.0
  9
$DIMTXT
 40
3.2000000000000002
  9
$DIMCEN
 40
0.0
  9
$DIMTSZ
 40
0.0
  9
$DIMTOL
 70
     0
  9
$DIMLIM
 70
     0
  9
$DIMTIH
 70
     0
  9
$DIMTOH
 70
     0
  9
$DIMSE1
 70
     0
  9
$DIMSE2
 70
     0
  9
$DIMTAD
 70
     1
  9
$DIMZIN
 70
     0
  9
$DIMBLK
  1

  9
$DIMASO
 70
     0
  9
$DIMSHO
 70
     0
  9
$DIMPOST
  1

  9
$DIMAPOST
  1

  9
$DIMALT
 70
     0
  9
$DIMALTD
 70
     2
  9
$DIMALTF
 40
25.399999999999999
  9
$DIMLFAC
 40
1.0
  9
$DIMTOFL
 70
     0
  9
$DIMTVP
 40
1.6000000000000001
  9
$DIMTIX
 70
     1
  9
$DIMSOXD
 70
     0
  9
$DIMSAH
 70
     0
  9
$DIMBLK1
  1

  9
$DIMBLK2
  1

  9
$DIMSTYLE
  2
STANDARD
  9
$DIMCLRD
 70
     4
  9
$DIMCLRE
 70
     4
  9
$DIMCLRT
 70
     4
  9
$DIMTFAC
 40
1.0
  9
$DIMGAP
 40
0.09
  9
$LUNITS
 70
     2
  9
$LUPREC
 70
     1
  9
$SKETCHINC
 40
0.1
  9
$FILLETRAD
 40
0.0
  9
$AUNITS
 70
     0
  9
$AUPREC
 70
     0
  9
$MENU
  1
E:\r13\win\SUPPORT\ACAD
  9
$ELEVATION
 40
0.0
  9
$PELEVATION
 40
0.0
  9
$THICKNESS
 40
0.0
  9
$LIMCHECK
 70
     0
  9
$BLIPMODE
 70
     0
  9
$CHAMFERA
 40
1.1999999999999991
  9
$CHAMFERB
 40
1.1999999999999991
  9
$SKPOLY
 70
     0
  9
$TDCREATE
 40
2449983.5574884261
  9
$TDUPDATE
 40
2457968.4252911462
  9
$TDINDWG
 40
0.0402126968
  9
$TDUSRTIMER
 40
0.0402126968
  9
$USRTIMER
 70
     1
  9
$ANGBASE
 50
0.0
  9
$ANGDIR
 70
     0
  9
$PDMODE
 70
     0
  9
$PDSIZE
 40
0.0
  9
$PLINEWID
 40
0.0
  9
$COORDS
 70
     1
  9
$SPLFRAME
 70
     0
  9
$SPLINETYPE
 70
     6
  9
$SPLINESEGS
 70
     8
  9
$ATTDIA
 70
     0
  9
$ATTREQ
 70
     1
  9
$HANDLING
 70
     1
  9
$HANDSEED
  5
C67
  9
$SURFTAB1
 70
     6
  9
$SURFTAB2
 70
     6
  9
$SURFTYPE
 70
     6
  9
$SURFU
 70
     6
  9
$SURFV
 70
     6
  9
$UCSNAME
  2

  9
$UCSORG
 10
0.0
 20
0.0
 30
0.0
  9
$UCSXDIR
 10
1.0
 20
0.0
 30
0.0
  9
$UCSYDIR
 10
0.0
 20
1.0
 30
0.0
  9
$PUCSNAME
  2

  9
$PUCSORG
 10
0.0
 20
0.0
 30
0.0
  9
$PUCSXDIR
 10
1.0
 20
0.0
 30
0.0
  9
$PUCSYDIR
 10
0.0
 20
1.0
 30
0.0
  9
$USERI1
 70
     0
  9
$USERI2
 70
     1
  9
$USERI3
 70
     0
  9
$USERI4
 70
     0
  9
$USERI5
 70
     0
  9
$USERR1
 40
0.0
  9
$USERR2
 40
0.0
  9
$USERR3
 40
0.0
  9
$USERR4
 40
0.0
  9
$USERR5
 40
0.0
  9
$WORLDVIEW
 70
     1
  9
$SHADEDGE
 70
     3
  9
$SHADEDIF
 70
    70
  9
$TILEMODE
 70
     1
  9
$MAXACTVP
 70
    16
  9
$PLIMCHECK
 70
     0
  9
$PEXTMIN
 10
1.0000000000000000E+020
 20
1.0000000000000000E+020
 30
1.0000000000000000E+020
  9
$PEXTMAX
 10
-1.0000000000000000E+020
 20
-1.0000000000000000E+020
 30
-1.0000000000000000E+020
  9
$PLIMMIN
 10
0.0
 20
0.0
  9
$PLIMMAX
 10
12.0
 20
9.0
  9
$UNITMODE
 70
     0
  9
$VISRETAIN
 70
     0
  9
$PLINEGEN
 70
     0
  9
$PSLTSCALE
 70
     0
  0
ENDSEC
  0
SECTION
  2
TABLES
  0
TABLE
  2
VPORT
 70
     1
  0
VPORT
  2
*ACTIVE
 70
     0
 10
0.0
 20
0.0
 11
1.0
 21
1.0
 12
227.02991452991449
 22
125.0
 13
0.0
 23
0.0
 14
5.0
 24
5.0
 15
5.0
 25
5.0
 16
0.0
 26
0.0
 36
1.0
 17
0.0
 27
0.0
 37
0.0
 40
250.0
 41
1.816239316239316
 42
50.0
 43
0.0
 44
0.0
 50
0.0
 51
0.0
 71
     0
 72
   500
 73
     1
 74
     0
 75
     0
 76
     0
 77
     0
 78
     2
  0
ENDTAB
  0
TABLE
  2
LTYPE
 70
     3
  0
LTYPE
  2
CONTINUOUS
 70
     0
  3
Solid Line
 72
    65
 73
     0
 40
0.0
  0
LTYPE
  2
CENTER
 70
     0
  3
____ _ ____ _ ____ _ ____ _ ____ _ ____ _ ____
 72
    65
 73
     4
 40
2.0
 49
1.25
 49
-0.25
 49
0.25
 49
-0.25
  0
LTYPE
  2
PHANTOM2
 70
     0
  3
___ _ _ ___ _ _ ___ _ _ ___ _ _
 72
    65
 73
     6
 40
1.25
 49
0.625
 49
-0.125
 49
0.125
 49
-0.125
 49
0.125
 49
-0.125
  0
ENDTAB
  0
TABLE
  2
LAYER
 70
     2
  0
LAYER
  2
0
 70
     0
 62
     7
  6
CONTINUOUS
  0
LAYER
  2
1
 70
     0
 62
     1
  6
CENTER
  0
ENDTAB
  0
TABLE
  2
STYLE
 70
     2
  0
STYLE
  2
STANDARD
 70
     0
 40
0.0
 41
1.0
 50
0.0
 71
     0
 42
4.000000000000048
  3
SIMPLEX
  4
BIGFONT
  0
STYLE
  2
STANDARD1
 70
     0
 40
0.0
 41
1.0
 50
0.0
 71
     0
 42
3.0
  3
txt
  4

  0
ENDTAB
  0
TABLE
  2
VIEW
 70
     1
  0
VIEW
  2
ALL
 70
     0
 40
270.0
 10
220.78595317725751
 20
135.0
 41
441.57190635451502
 11
0.0
 21
0.0
 31
1.0
 12
0.0
 22
0.0
 32
0.0
 42
50.0
 43
0.0
 44
0.0
 50
0.0
 71
     0
  0
ENDTAB
  0
TABLE
  2
UCS
 70
     0
  0
ENDTAB
  0
TABLE
  2
APPID
 70
     4
  0
APPID
  2
ACAD
 70
     0
  0
APPID
  2
ACAD_MLEADERVER
 70
     0
  0
APPID
  2
ACAD_NAV_VCDISPLAY
 70
     0
  0
APPID
  2
ACAD_EXEMPT_FROM_CAD_STANDARDS
 70
     0
  0
ENDTAB
  0
TABLE
  2
DIMSTYLE
 70
     1
  0
DIMSTYLE
  2
STANDARD
 70
     0
  3

  4

  5

  6

  7

 40
1.0
 41
0.18
 42
0.0625
 43
0.38
 44
0.18
 45
0.0
 46
0.0
 47
0.0
 48
0.0
140
0.18
141
0.09
142
0.0
143
25.399999999999999
144
1.0
145
0.0
146
1.0
147
0.09
 71
     0
 72
     0
 73
     1
 74
     1
 75
     0
 76
     0
 77
     0
 78
     0
170
     0
171
     2
172
     0
173
     0
174
     0
175
     0
176
     0
177
     0
178
     0
  0
ENDTAB
  0
ENDSEC
  0
SECTION
  2
BLOCKS
  0
BLOCK
  8
0
  2
$MODEL_SPACE
 70
     0
 10
0.0
 20
0.0
 30
0.0
  3
$MODEL_SPACE
  1

  0
ENDBLK
  5
34A
  8
0
  0
BLOCK
 67
     1
  8
0
  2
$PAPER_SPACE
 70
     0
 10
0.0
 20
0.0
 30
0.0
  3
$PAPER_SPACE
  1

  0
ENDBLK
  5
348
 67
     1
  8
0
  0
ENDSEC
  0
SECTION
  2
ENTITIES
  0
TEXT
  5
3F7
  8
0
 62
     3
 10
0.0
 20
0.0
 30
0.0
 40
5.0
  1
EABJ8
  7
STANDARD1
  0
LINE
  5
999
  8
0
 10
65.800000000019935
 20
99.900000000039853
 30
0.0
 11
74.60000000001989
 21
99.900000000039853
 31
0.0
  0
LINE
  5
99A
  8
0
 10
64.600000000020714
 20
101.10000000003549
 30
0.0
 11
65.800000000019935
 21
99.900000000036314
 31
0.0
  0
LINE
  5
99B
  8
0
 10
83.800000000019878
 20
107.700000000128
 30
0.0
 11
83.199999999956077
 21
107.1000000000641
 31
0.0
  0
LINE
  5
99C
  8
0
 10
83.199999999956077
 20
100.5000000000155
 30
0.0
 11
83.800000000019878
 21
99.899999999951717
 31
0.0
  0
LINE
  5
99D
  8
0
 10
83.800000000019878
 20
99.900000000039853
 30
0.0
 11
96.400000000019901
 21
99.900000000039853
 31
0.0
  0
LINE
  5
99E
  8
0
 10
85.700000000108872
 20
107.70000000003979
 30
0.0
 11
83.800000000019878
 21
107.70000000003979
 31
0.0
  0
LINE
  5
99F
  8
0
 10
96.400000000019901
 20
107.70000000003979
 30
0.0
 11
95.499999999929045
 21
107.70000000003979
 31
0.0
  0
LINE
  5
9A0
  8
0
 10
96.400000000019901
 20
99.899999999962375
 30
0.0
 11
97.600000000036204
 21
101.09999999997861
 31
0.0
  0
LINE
  5
9A1
  8
0
 10
97.600000000036204
 20
106.500000000101
 30
0.0
 11
96.400000000019901
 21
107.7000000001173
 31
0.0
  0
LINE
  5
9A2
  8
0
 10
77.400000000047754
 20
99.980000000021064
 30
0.0
 11
78.000000000067672
 21
100.5800000000409
 31
0.0
  0
LINE
  5
9A3
  8
0
 10
78.000000000067672
 20
107.02000000003871
 30
0.0
 11
77.400000000047754
 21
107.6200000000586
 31
0.0
  0
LINE
  5
9A4
  8
0
 10
74.60000000001989
 20
99.980000000039865
 30
0.0
 11
77.400000000047754
 21
99.980000000039865
 31
0.0
  0
LINE
  5
9A5
  8
0
 10
77.400000000047754
 20
107.62000000003979
 30
0.0
 11
74.60000000001989
 21
107.62000000003979
 31
0.0
  0
LINE
  5
9A6
  8
0
 10
78.000000000019924
 20
100.6000000000398
 30
0.0
 11
83.200000000019912
 21
100.6000000000398
 31
0.0
  0
LINE
  5
9A7
  8
0
 10
83.200000000019912
 20
107.0000000000398
 30
0.0
 11
78.000000000019924
 21
107.0000000000398
 31
0.0
  0
ARC
  5
9A8
  8
0
 10
54.816784043419908
 20
137.4334703193239
 30
0.0
 40
1.200000000000002
 50
9.5940682268607791
 51
90.0
  0
ARC
  5
9A9
  8
0
 10
41.183215956619932
 20
137.4334703193239
 30
0.0
 40
1.200000000000002
 50
90.0
 51
170.4059317731392
  0
LINE
  5
9AA
  8
0
 10
41.000000000043109
 20
97.800000000039873
 30
0.0
 11
41.500000000059941
 21
97.300000000023033
 31
0.0
  0
LINE
  5
9AB
  8
0
 10
54.499999999979913
 20
97.300000000023033
 30
0.0
 11
54.999999999996732
 21
97.800000000039873
 31
0.0
  0
LINE
  5
9AC
  8
0
 10
55.000000000019931
 20
107.8000000000398
 30
0.0
 11
55.000000000019931
 21
121.5000000000398
 31
0.0
  0
LINE
  5
9AD
  8
0
 10
55.000000000019931
 20
97.800000000039873
 30
0.0
 11
55.000000000019931
 21
99.800000000039859
 31
0.0
  0
LINE
  5
9AE
  8
0
 10
41.000000000019917
 20
99.800000000039859
 30
0.0
 11
41.000000000019917
 21
97.800000000039873
 31
0.0
  0
LINE
  5
9AF
  8
0
 10
41.000000000019917
 20
121.5000000000398
 30
0.0
 11
41.000000000019917
 21
107.8000000000398
 31
0.0
  0
LINE
  5
9B0
  8
0
 10
51.400000000019901
 20
96.000000000039847
 30
0.0
 11
51.400000000019901
 21
97.300000000039859
 31
0.0
  0
LINE
  5
9B1
  8
0
 10
44.600000000019918
 20
97.300000000039859
 30
0.0
 11
44.600000000019918
 21
96.000000000039847
 31
0.0
  0
ARC
  5
9B2
  8
0
 10
117.4167840434199
 20
137.4334703193239
 30
0.0
 40
1.200000000000002
 50
9.5940682268607791
 51
90.0
  0
ARC
  5
9B3
  8
0
 10
103.7832159566199
 20
137.4334703193239
 30
0.0
 40
1.200000000000002
 50
90.0
 51
170.4059317731392
  0
LINE
  5
9B4
  8
0
 10
103.599999999975
 20
97.800000000039873
 30
0.0
 11
104.09999999999179
 21
97.300000000023033
 31
0.0
  0
LINE
  5
9B5
  8
0
 10
117.100000000048
 20
97.300000000023033
 30
0.0
 11
117.6000000000648
 21
97.800000000039873
 31
0.0
  0
LINE
  5
9B6
  8
0
 10
117.6000000000199
 20
107.8000000000398
 30
0.0
 11
117.6000000000199
 21
121.5000000000398
 31
0.0
  0
LINE
  5
9B7
  8
0
 10
117.6000000000199
 20
97.800000000039873
 30
0.0
 11
117.6000000000199
 21
99.800000000039859
 31
0.0
  0
LINE
  5
9B8
  8
0
 10
103.6000000000199
 20
99.800000000039859
 30
0.0
 11
103.6000000000199
 21
97.800000000039873
 31
0.0
  0
LINE
  5
9B9
  8
0
 10
103.6000000000199
 20
121.5000000000398
 30
0.0
 11
103.6000000000199
 21
107.8000000000398
 31
0.0
  0
LINE
  5
9BA
  8
0
 10
114.0000000000199
 20
96.000000000039847
 30
0.0
 11
114.0000000000199
 21
97.300000000039859
 31
0.0
  0
LINE
  5
9BB
  8
0
 10
107.2000000000199
 20
97.300000000039859
 30
0.0
 11
107.2000000000199
 21
96.000000000039847
 31
0.0
  0
LINE
  5
9BC
  8
0
 10
65.800000000018798
 20
106.4000000000398
 30
0.0
 11
65.800000000019935
 21
99.900000000039853
 31
0.0
  0
LINE
  5
9BD
  8
0
 10
74.60000000001989
 20
106.4000000000398
 30
0.0
 11
64.600000000020344
 21
106.4000000000398
 31
0.0
  0
LINE
  5
9BE
  8
0
 10
74.600000000019861
 20
107.62000000003979
 30
0.0
 11
74.60000000001989
 21
99.900000000039853
 31
0.0
  0
LINE
  5
9BF
  8
0
 10
64.600000000020344
 20
106.4000000000398
 30
0.0
 11
64.600000000021112
 21
101.10000000003591
 31
0.0
  0
LINE
  5
9C1
  8
0
 10
83.199999999956077
 20
107.1000000000641
 30
0.0
 11
83.199999999956077
 21
100.5000000000155
 31
0.0
  0
LINE
  5
9C2
  8
0
 10
83.800000000019878
 20
107.70000000003979
 30
0.0
 11
83.800000000019878
 21
99.900000000039853
 31
0.0
  0
POLYLINE
  5
9C3
  8
0
 66
     1
 10
0.0
 20
0.0
 30
0.0
 70
   128
  0
VERTEX
  5
C0F
  8
0
 10
95.499999999929088
 20
107.70000000003991
 30
0.0
  0
VERTEX
  5
C10
  8
0
 10
95.372893113980211
 20
107.6295790025613
 30
0.0
  0
VERTEX
  5
C11
  8
0
 10
95.038034413774113
 20
107.4476589456649
 30
0.0
  0
VERTEX
  5
C12
  8
0
 10
94.676705539075286
 20
107.2578736749356
 30
0.0
  0
VERTEX
  5
C13
  8
0
 10
94.245856798055257
 20
107.04180917424939
 30
0.0
  0
VERTEX
  5
C14
  8
0
 10
93.513599753074601
 20
106.70580853264229
 30
0.0
  0
VERTEX
  5
C15
  8
0
 10
92.687715645551663
 20
106.3877626704041
 30
0.0
  0
VERTEX
  5
C16
  8
0
 10
91.796527775693022
 20
106.1409222726722
 30
0.0
  0
VERTEX
  5
C17
  8
0
 10
90.830187202144913
 20
106.01689033167889
 30
0.0
  0
VERTEX
  5
C18
  8
0
 10
89.972803362184123
 20
106.0480334444148
 30
0.0
  0
VERTEX
  5
C19
  8
0
 10
89.106966067324237
 20
106.2102534533086
 30
0.0
  0
VERTEX
  5
C1A
  8
0
 10
88.197386187943408
 20
106.5001994571369
 30
0.0
  0
VERTEX
  5
C1B
  8
0
 10
87.335498823469749
 20
106.8613879269756
 30
0.0
  0
VERTEX
  5
C1C
  8
0
 10
86.848410831558354
 20
107.09370671574381
 30
0.0
  0
VERTEX
  5
C1D
  8
0
 10
86.404763271506354
 20
107.31932899932541
 30
0.0
  0
VERTEX
  5
C1E
  8
0
 10
85.923421925766064
 20
107.5767033148273
 30
0.0
  0
VERTEX
  5
C1F
  8
0
 10
85.723478298279502
 20
107.6869387908386
 30
0.0
  0
VERTEX
  5
C20
  8
0
 10
85.700000000108872
 20
107.7000000000351
 30
0.0
  0
SEQEND
  5
C21
  8
0
  0
LINE
  5
9C4
  8
0
 10
96.400000000019901
 20
99.900000000039853
 30
0.0
 11
96.400000000019901
 21
107.70000000003979
 31
0.0
  0
LINE
  5
9C5
  8
0
 10
97.600000000036204
 20
101.09999999997861
 30
0.0
 11
97.600000000036204
 21
106.500000000101
 31
0.0
  0
LINE
  5
9C6
  8
0
 10
78.000000000067672
 20
107.02000000003871
 30
0.0
 11
78.000000000067672
 21
100.5800000000409
 31
0.0
  0
LINE
  5
9C7
  8
0
 10
77.400000000047754
 20
107.6200000000586
 30
0.0
 11
77.400000000047754
 21
99.980000000021022
 31
0.0
  0
LINE
  5
9C9
  8
0
 10
54.816784043459698
 20
138.63347031932389
 30
0.0
 11
41.183215956580142
 21
138.63347031932389
 31
0.0
  0
LINE
  5
9CA
  8
0
 10
56.000000000039819
 20
137.63347031932389
 30
0.0
 11
40.0
 21
137.63347031932389
 31
0.0
  0
LINE
  5
9CB
  8
0
 10
41.000000000043109
 20
97.800000000039873
 30
0.0
 11
55.000000000019931
 21
97.800000000039873
 31
0.0
  0
LINE
  5
9CC
  8
0
 10
41.500000000059941
 20
97.300000000023033
 30
0.0
 11
54.499999999979913
 21
97.300000000023033
 31
0.0
  0
LINE
  5
9CD
  8
0
 10
41.071796769744388
 20
121.5000000000398
 30
0.0
 11
41.000000000019917
 21
121.5000000000398
 31
0.0
  0
LINE
  5
9CE
  8
0
 10
41.071796769758947
 20
123.30000000002509
 30
0.0
 11
41.071796769744388
 21
121.5000000000398
 31
0.0
  0
LINE
  5
9CF
  8
0
 10
54.928203230280872
 20
123.30000000002509
 30
0.0
 11
41.071796769758947
 21
123.30000000002509
 31
0.0
  0
LINE
  5
9D0
  8
0
 10
54.928203230295452
 20
121.5000000000398
 30
0.0
 11
54.928203230280872
 21
123.30000000002509
 31
0.0
  0
LINE
  5
9D1
  8
0
 10
55.000000000019931
 20
121.5000000000398
 30
0.0
 11
54.928203230295452
 21
121.5000000000398
 31
0.0
  0
ARC
  5
9D2
  8
0
 10
34.743583313315327
 20
103.8000000000398
 30
0.0
 40
7.4258164371115329
 50
327.40744525287181
 51
32.59255474712846
  0
ARC
  5
9D3
  8
0
 10
61.256416686724521
 20
103.8000000000398
 30
0.0
 40
7.4258164371115329
 50
147.4074452528715
 51
212.59255474712839
  0
LINE
  5
9D4
  8
0
 10
41.071796769763999
 20
123.30000000002001
 30
0.0
 11
41.577383710707267
 21
123.8000000000013
 31
0.0
  0
LINE
  5
9D5
  8
0
 10
54.422616289340233
 20
123.80000000000911
 30
0.0
 11
54.928203230266341
 21
123.3000000000104
 31
0.0
  0
LINE
  5
9D6
  8
0
 10
44.600000000019918
 20
96.000000000039847
 30
0.0
 11
51.400000000019901
 21
96.000000000039847
 31
0.0
  0
LINE
  5
9D7
  8
0
 10
117.4167840434596
 20
138.63347031932389
 30
0.0
 11
103.78321595658009
 21
138.63347031932389
 31
0.0
  0
LINE
  5
9D8
  8
0
 10
118.6000000000398
 20
137.63347031932389
 30
0.0
 11
102.59999999999999
 21
137.63347031932389
 31
0.0
  0
LINE
  5
9D9
  8
0
 10
103.6000000000198
 20
97.800000000039873
 30
0.0
 11
117.6000000000199
 21
97.800000000039873
 31
0.0
  0
LINE
  5
9DA
  8
0
 10
104.09999999999179
 20
97.300000000023033
 30
0.0
 11
117.100000000048
 21
97.300000000023033
 31
0.0
  0
LINE
  5
9DB
  8
0
 10
103.6717967697443
 20
121.5000000000398
 30
0.0
 11
103.6000000000199
 21
121.5000000000398
 31
0.0
  0
LINE
  5
9DC
  8
0
 10
103.6717967697419
 20
123.3000000000423
 30
0.0
 11
103.6717967697443
 21
121.5000000000398
 31
0.0
  0
LINE
  5
9DD
  8
0
 10
117.5282032302979
 20
123.3000000000423
 30
0.0
 11
103.6717967697419
 21
123.3000000000423
 31
0.0
  0
LINE
  5
9DE
  8
0
 10
117.5282032302954
 20
121.5000000000398
 30
0.0
 11
117.5282032302979
 21
123.3000000000423
 31
0.0
  0
LINE
  5
9DF
  8
0
 10
117.6000000000199
 20
121.5000000000398
 30
0.0
 11
117.5282032302954
 21
121.5000000000398
 31
0.0
  0
ARC
  5
9E0
  8
0
 10
97.343583313315236
 20
103.8000000000398
 30
0.0
 40
7.4258164371115729
 50
327.40744525287238
 51
32.59255474712846
  0
ARC
  5
9E1
  8
0
 10
123.8564166867246
 20
103.8000000000398
 30
0.0
 40
7.4258164371116768
 50
147.40744525287181
 51
212.59255474712839
  0
LINE
  5
9E2
  8
0
 10
103.6717967697394
 20
123.3000000000448
 30
0.0
 11
104.17738371071189
 21
123.80000000001711
 31
0.0
  0
LINE
  5
9E3
  8
0
 10
117.0226162893337
 20
123.800000000023
 30
0.0
 11
117.52820323030031
 21
123.3000000000448
 31
0.0
  0
LINE
  5
9E4
  8
0
 10
107.2000000000199
 20
96.000000000039847
 30
0.0
 11
114.0000000000199
 21
96.000000000039847
 31
0.0
  0
LINE
  5
9E5
  8
0
 10
96.400000000019901
 20
182.7334703192663
 30
0.0
 11
97.600000000036204
 21
183.93347031928261
 31
0.0
  0
LINE
  5
9E6
  8
0
 10
97.600000000036204
 20
189.333470319405
 30
0.0
 11
96.400000000019901
 21
190.5334703194213
 31
0.0
  0
LINE
  5
9E7
  8
0
 10
83.800000000019878
 20
190.5334703194319
 30
0.0
 11
83.199999999956077
 21
189.9334703193681
 31
0.0
  0
LINE
  5
9E8
  8
0
 10
83.199999999956077
 20
183.3334703193195
 30
0.0
 11
83.800000000019878
 21
182.7334703192557
 31
0.0
  0
LINE
  5
9E9
  8
0
 10
83.800000000019878
 20
182.73347031934381
 30
0.0
 11
96.400000000019901
 21
182.73347031934381
 31
0.0
  0
LINE
  5
9EA
  8
0
 10
96.400000000019901
 20
190.53347031934379
 30
0.0
 11
83.800000000019878
 21
190.53347031934379
 31
0.0
  0
LINE
  5
9EB
  8
0
 10
74.60000000001989
 20
182.81347031934379
 30
0.0
 11
77.400000000047754
 21
182.81347031934379
 31
0.0
  0
LINE
  5
9EC
  8
0
 10
77.400000000047754
 20
190.45347031934381
 30
0.0
 11
74.60000000001989
 21
190.45347031934381
 31
0.0
  0
LINE
  5
9ED
  8
0
 10
77.400000000047754
 20
182.81347031932501
 30
0.0
 11
78.000000000067672
 21
183.4134703193449
 31
0.0
  0
LINE
  5
9EE
  8
0
 10
78.000000000067672
 20
189.8534703193427
 30
0.0
 11
77.400000000047754
 21
190.45347031936259
 31
0.0
  0
LINE
  5
9EF
  8
0
 10
78.000000000019924
 20
183.4334703193438
 30
0.0
 11
83.200000000019912
 21
183.4334703193438
 31
0.0
  0
LINE
  5
9F0
  8
0
 10
83.200000000019912
 20
189.8334703193438
 30
0.0
 11
78.000000000019924
 21
189.8334703193438
 31
0.0
  0
LINE
  5
9F1
  8
0
 10
65.800000000019935
 20
190.53347031934729
 30
0.0
 11
64.600000000020714
 21
189.33347031934809
 31
0.0
  0
LINE
  5
9F2
  8
0
 10
64.600000000020714
 20
183.93347031933939
 30
0.0
 11
65.800000000019935
 21
182.7334703193402
 31
0.0
  0
LINE
  5
9F3
  8
0
 10
65.800000000019935
 20
182.73347031934381
 30
0.0
 11
74.60000000001989
 21
182.73347031934381
 31
0.0
  0
LINE
  5
9F4
  8
0
 10
74.60000000001989
 20
190.53347031934379
 30
0.0
 11
65.800000000019935
 21
190.53347031934379
 31
0.0
  0
LINE
  5
9F5
  8
0
 10
96.400000000019901
 20
182.7334703192663
 30
0.0
 11
96.400000000019901
 21
190.5334703194213
 31
0.0
  0
LINE
  5
9F6
  8
0
 10
97.600000000036204
 20
183.93347031928261
 30
0.0
 11
97.600000000036204
 21
189.333470319405
 31
0.0
  0
LINE
  5
9F7
  8
0
 10
83.199999999956077
 20
189.9334703193681
 30
0.0
 11
83.199999999956077
 21
183.3334703193195
 31
0.0
  0
LINE
  5
9F9
  8
0
 10
83.800000000019878
 20
190.5334703194319
 30
0.0
 11
83.800000000019878
 21
182.7334703192557
 31
0.0
  0
POLYLINE
  5
9FA
  8
0
 66
     1
 10
0.0
 20
0.0
 30
0.0
 70
   128
  0
VERTEX
  5
C22
  8
0
 10
85.700000000108872
 20
186.63347031934379
 30
0.0
  0
VERTEX
  5
C23
  8
0
 10
85.731441007341957
 20
187.0023621271435
 30
0.0
  0
VERTEX
  5
C24
  8
0
 10
85.827106886059624
 20
187.3712539349431
 30
0.0
  0
VERTEX
  5
C25
  8
0
 10
85.97137187470949
 20
187.7027887386088
 30
0.0
  0
VERTEX
  5
C26
  8
0
 10
86.161965586265779
 20
188.0135370628029
 30
0.0
  0
VERTEX
  5
C27
  8
0
 10
86.33337261438615
 20
188.23336872972661
 30
0.0
  0
VERTEX
  5
C28
  8
0
 10
86.523294460964593
 20
188.4371082121767
 30
0.0
  0
VERTEX
  5
C29
  8
0
 10
86.731840111470333
 20
188.6273272056535
 30
0.0
  0
VERTEX
  5
C2A
  8
0
 10
86.954143201984749
 20
188.80157393264531
 30
0.0
  0
VERTEX
  5
C2B
  8
0
 10
87.308688359827642
 20
189.03395749188999
 30
0.0
  0
VERTEX
  5
C2C
  8
0
 10
87.686400246965349
 20
189.2346771107878
 30
0.0
  0
VERTEX
  5
C2D
  8
0
 10
88.089935859863914
 20
189.4076302515104
 30
0.0
  0
VERTEX
  5
C2E
  8
0
 10
88.512284354488216
 20
189.551257899321
 30
0.0
  0
VERTEX
  5
C2F
  8
0
 10
88.949684069588471
 20
189.66590276611379
 30
0.0
  0
VERTEX
  5
C30
  8
0
 10
89.403472224346984
 20
189.75277840183489
 30
0.0
  0
VERTEX
  5
C31
  8
0
 10
89.880171095378529
 20
189.81235138725441
 30
0.0
  0
VERTEX
  5
C32
  8
0
 10
90.369812797895094
 20
189.84211446562821
 30
0.0
  0
VERTEX
  5
C33
  8
0
 10
90.600000000020174
 20
189.8454806437899
 30
0.0
  0
VERTEX
  5
C34
  8
0
 10
90.981872543103734
 20
189.8362045454561
 30
0.0
  0
VERTEX
  5
C35
  8
0
 10
91.363745086187194
 20
189.80815219122809
 30
0.0
  0
VERTEX
  5
C36
  8
0
 10
91.748156723007952
 20
189.7602565749086
 30
0.0
  0
VERTEX
  5
C37
  8
0
 10
92.127490172354243
 20
189.69248439239249
 30
0.0
  0
VERTEX
  5
C38
  8
0
 10
92.588084223031885
 20
189.5802428438368
 30
0.0
  0
VERTEX
  5
C39
  8
0
 10
93.036024133924016
 20
189.43537980772129
 30
0.0
  0
VERTEX
  5
C3A
  8
0
 10
93.475061124703544
 20
189.2528987408198
 30
0.0
  0
VERTEX
  5
C3B
  8
0
 10
93.895966270332266
 20
189.03120931223941
 30
0.0
  0
VERTEX
  5
C3C
  8
0
 10
94.139558086682911
 20
188.8765015598218
 30
0.0
  0
VERTEX
  5
C3D
  8
0
 10
94.373344495855264
 20
188.7048020570457
 30
0.0
  0
VERTEX
  5
C3E
  8
0
 10
94.597639585311896
 20
188.51277336873841
 30
0.0
  0
VERTEX
  5
C3F
  8
0
 10
94.807821606559088
 20
188.3002096423231
 30
0.0
  0
VERTEX
  5
C40
  8
0
 10
95.067646471040817
 20
187.97085267015049
 30
0.0
  0
VERTEX
  5
C41
  8
0
 10
95.283375553664342
 20
187.59181140454371
 30
0.0
  0
VERTEX
  5
C42
  8
0
 10
95.403271141726094
 20
187.2781696644908
 30
0.0
  0
VERTEX
  5
C43
  8
0
 10
95.478629788644199
 20
186.9377666464834
 30
0.0
  0
VERTEX
  5
C44
  8
0
 10
95.499999999929088
 20
186.6334703193439
 30
0.0
  0
VERTEX
  5
C45
  8
0
 10
95.468558992697837
 20
186.26457851154419
 30
0.0
  0
VERTEX
  5
C46
  8
0
 10
95.372893113980211
 20
185.8956867037445
 30
0.0
  0
VERTEX
  5
C47
  8
0
 10
95.228628125330289
 20
185.56415190007891
 30
0.0
  0
VERTEX
  5
C48
  8
0
 10
95.038034413774113
 20
185.25340357588479
 30
0.0
  0
VERTEX
  5
C49
  8
0
 10
94.866627385653743
 20
185.03357190896111
 30
0.0
  0
VERTEX
  5
C4A
  8
0
 10
94.676705539075286
 20
184.82983242651099
 30
0.0
  0
VERTEX
  5
C4B
  8
0
 10
94.468159888569588
 20
184.6396134330341
 30
0.0
  0
VERTEX
  5
C4C
  8
0
 10
94.245856798055257
 20
184.4653667060424
 30
0.0
  0
VERTEX
  5
C4D
  8
0
 10
93.891311640212308
 20
184.23298314679761
 30
0.0
  0
VERTEX
  5
C4E
  8
0
 10
93.513599753074601
 20
184.0322635278998
 30
0.0
  0
VERTEX
  5
C4F
  8
0
 10
93.110064140176107
 20
183.85931038717729
 30
0.0
  0
VERTEX
  5
C50
  8
0
 10
92.687715645551663
 20
183.7156827393666
 30
0.0
  0
VERTEX
  5
C51
  8
0
 10
92.250315930451535
 20
183.60103787257381
 30
0.0
  0
VERTEX
  5
C52
  8
0
 10
91.796527775693022
 20
183.5141622368528
 30
0.0
  0
VERTEX
  5
C53
  8
0
 10
91.319828904661463
 20
183.45458925143319
 30
0.0
  0
VERTEX
  5
C54
  8
0
 10
90.830187202144913
 20
183.42482617305939
 30
0.0
  0
VERTEX
  5
C55
  8
0
 10
90.402553744219034
 20
183.42393621405839
 30
0.0
  0
VERTEX
  5
C56
  8
0
 10
89.972803362184123
 20
183.44656811924861
 30
0.0
  0
VERTEX
  5
C57
  8
0
 10
89.537159400276636
 20
183.49429821043091
 30
0.0
  0
VERTEX
  5
C58
  8
0
 10
89.106966067324237
 20
183.56741776092079
 30
0.0
  0
VERTEX
  5
C59
  8
0
 10
88.645950944300381
 20
183.67719675299691
 30
0.0
  0
VERTEX
  5
C5A
  8
0
 10
88.197386187943408
 20
183.81941223680661
 30
0.0
  0
VERTEX
  5
C5B
  8
0
 10
87.757510705656586
 20
183.9989387604335
 30
0.0
  0
VERTEX
  5
C5C
  8
0
 10
87.335498823469749
 20
184.2172948371381
 30
0.0
  0
VERTEX
  5
C5D
  8
0
 10
87.086985522433025
 20
184.37247803051821
 30
0.0
  0
VERTEX
  5
C5E
  8
0
 10
86.848410831558354
 20
184.5450508042735
 30
0.0
  0
VERTEX
  5
C5F
  8
0
 10
86.619422448562801
 20
184.73843857986969
 30
0.0
  0
VERTEX
  5
C60
  8
0
 10
86.404763271506354
 20
184.95289797791131
 30
0.0
  0
VERTEX
  5
C61
  8
0
 10
86.142156859917606
 20
185.2817735845428
 30
0.0
  0
VERTEX
  5
C62
  8
0
 10
85.923421925766064
 20
185.66058179948479
 30
0.0
  0
VERTEX
  5
C63
  8
0
 10
85.801258084682004
 20
185.97401610498849
 30
0.0
  0
VERTEX
  5
C64
  8
0
 10
85.723478298279502
 20
186.31455522628079
 30
0.0
  0
VERTEX
  5
C65
  8
0
 10
85.700000000108872
 20
186.63347031934379
 30
0.0
  0
SEQEND
  5
C66
  8
0
  0
LINE
  5
9FC
  8
0
 10
77.400000000047754
 20
190.45347031934381
 30
0.0
 11
77.400000000047754
 21
182.81347031932501
 31
0.0
  0
LINE
  5
9FE
  8
0
 10
78.000000000067672
 20
189.8534703193427
 30
0.0
 11
78.000000000067672
 21
183.4134703193449
 31
0.0
  0
LINE
  5
A00
  8
0
 10
64.600000000020714
 20
189.33347031934809
 30
0.0
 11
64.600000000019719
 21
183.93347031934039
 31
0.0
  0
ARC
  5
A01
  8
0
 10
71.407347757628543
 20
188.23466978942039
 30
0.0
 40
7.194804017859374
 50
198.88895783865701
 51
218.79791776160641
  0
LINE
  5
A02
  8
0
 10
65.800000000018798
 20
183.72658194859321
 30
0.0
 11
65.800000000019935
 21
182.7334703193402
 31
0.0
  0
LINE
  5
A03
  8
0
 10
65.800000000019935
 20
190.53347031934729
 30
0.0
 11
65.800000000018798
 21
189.54035869009439
 31
0.0
  0
ARC
  5
A04
  8
0
 10
71.307637002547011
 20
185.0871857825685
 30
0.0
 40
7.082712354455805
 50
141.04289820109091
 51
161.27022619862279
  0
LINE
  5
A05
  8
0
 10
74.60000000001989
 20
183.726581948594
 30
0.0
 11
65.800000000018798
 21
183.72658194859321
 31
0.0
  0
LINE
  5
A06
  8
0
 10
65.800000000018798
 20
189.54035869009439
 30
0.0
 11
74.60000000001989
 21
189.54035869009351
 31
0.0
  0
LINE
  5
A08
  8
0
 10
74.60000000001989
 20
190.53347031934379
 30
0.0
 11
74.600000000019918
 21
182.73347031934381
 31
0.0
  0
CIRCLE
  5
A0E
  8
0
 10
48.000000000019917
 20
186.63347031934379
 30
0.0
 40
8.0000000000199236
  0
CIRCLE
  5
A11
  8
0
 10
110.6000000000199
 20
186.63347031934379
 30
0.0
 40
8.0000000000198952
  0
ARC
  5
A12
  8
0
 10
171.41678404341999
 20
137.4334703193239
 30
0.0
 40
1.2000000000000091
 50
9.5940682268607791
 51
90.0
  0
ARC
  5
A13
  8
0
 10
157.7832159566199
 20
137.4334703193239
 30
0.0
 40
1.200000000000002
 50
90.0
 51
170.4059317731392
  0
LINE
  5
A14
  8
0
 10
171.60000000001989
 20
97.800000000039873
 30
0.0
 11
171.60000000001989
 21
123.3000000000398
 31
0.0
  0
LINE
  5
A15
  8
0
 10
157.60000000001989
 20
123.3000000000398
 30
0.0
 11
157.60000000001989
 21
97.800000000039873
 31
0.0
  0
LINE
  5
A16
  8
0
 10
157.59999999997501
 20
97.800000000039873
 30
0.0
 11
158.09999999999181
 21
97.300000000023033
 31
0.0
  0
LINE
  5
A17
  8
0
 10
171.100000000048
 20
97.300000000023033
 30
0.0
 11
171.60000000006491
 21
97.800000000039873
 31
0.0
  0
LINE
  5
A18
  8
0
 10
158.10000000004871
 20
123.8000000000216
 30
0.0
 11
157.60000000001
 21
123.3000000000398
 31
0.0
  0
LINE
  5
A19
  8
0
 10
171.60000000002981
 20
123.3000000000398
 30
0.0
 11
171.09999999999121
 21
123.8000000000216
 31
0.0
  0
LINE
  5
A1A
  8
0
 10
168.00000000002001
 20
96.000000000039847
 30
0.0
 11
168.00000000002001
 21
97.300000000039859
 31
0.0
  0
LINE
  5
A1B
  8
0
 10
161.20000000001991
 20
97.300000000039859
 30
0.0
 11
161.20000000001991
 21
96.000000000039847
 31
0.0
  0
CIRCLE
  5
A1C
  8
0
 10
164.60000000001989
 20
103.8000000000398
 30
0.0
 40
3.899999999999991
  0
CIRCLE
  5
A1D
  8
0
 10
164.60000000001989
 20
103.8000000000398
 30
0.0
 40
2.7000000000612081
  0
LINE
  5
A1E
  8
0
 10
171.41678404341999
 20
138.63347031932389
 30
0.0
 11
157.78321595658019
 21
138.63347031932389
 31
0.0
  0
LINE
  5
A20
  8
0
 10
172.6000000000399
 20
137.63347031932389
 30
0.0
 11
156.59999999999999
 21
137.63347031932389
 31
0.0
  0
LINE
  5
A22
  8
0
 10
171.60000000001989
 20
123.3000000000398
 30
0.0
 11
165.60000000001989
 21
123.30000000004419
 31
0.0
  0
LINE
  5
A23
  8
0
 10
163.60000000001989
 20
123.3000000000423
 30
0.0
 11
157.60000000001989
 21
123.3000000000398
 31
0.0
  0
LINE
  5
A24
  8
0
 10
163.60000000001989
 20
121.5000000000398
 30
0.0
 11
163.60000000001989
 21
123.8000000000013
 31
0.0
  0
LINE
  5
A25
  8
0
 10
165.60000000001989
 20
121.5000000000398
 30
0.0
 11
163.60000000001989
 21
121.5000000000398
 31
0.0
  0
LINE
  5
A26
  8
0
 10
165.60000000001989
 20
123.8000000000013
 30
0.0
 11
165.60000000001989
 21
121.5000000000398
 31
0.0
  0
LINE
  5
A28
  8
0
 10
157.60000000001989
 20
97.800000000039873
 30
0.0
 11
171.60000000006491
 21
97.800000000039873
 31
0.0
  0
LINE
  5
A2A
  8
0
 10
158.09999999999181
 20
97.300000000023033
 30
0.0
 11
171.100000000048
 21
97.300000000023033
 31
0.0
  0
LINE
  5
A2E
  8
0
 10
161.20000000001991
 20
96.000000000039847
 30
0.0
 11
168.00000000002001
 21
96.000000000039847
 31
0.0
  0
LINE
  5
A2F
  8
0
 10
83.800000000019878
 20
44.100000000019918
 30
0.0
 11
96.400000000019901
 21
44.100000000019918
 31
0.0
  0
LINE
  5
A30
  8
0
 10
96.400000000019901
 20
51.900000000019908
 30
0.0
 11
83.800000000019878
 21
51.900000000019908
 31
0.0
  0
LINE
  5
A31
  8
0
 10
83.800000000019878
 20
51.900000000108051
 30
0.0
 11
83.199999999956077
 21
51.300000000044207
 31
0.0
  0
LINE
  5
A32
  8
0
 10
83.199999999956077
 20
44.699999999995633
 30
0.0
 11
83.800000000019878
 21
44.099999999931782
 31
0.0
  0
LINE
  5
A33
  8
0
 10
65.800000000019935
 20
51.900000000023461
 30
0.0
 11
64.600000000020714
 21
50.700000000024289
 31
0.0
  0
LINE
  5
A34
  8
0
 10
64.600000000020714
 20
45.300000000015551
 30
0.0
 11
65.800000000019935
 21
44.100000000016372
 31
0.0
  0
LINE
  5
A35
  8
0
 10
65.800000000019935
 20
44.100000000019918
 30
0.0
 11
74.60000000001989
 21
44.100000000019918
 31
0.0
  0
LINE
  5
A36
  8
0
 10
74.60000000001989
 20
51.900000000019908
 30
0.0
 11
65.800000000019935
 21
51.900000000019908
 31
0.0
  0
LINE
  5
A37
  8
0
 10
96.400000000019901
 20
44.099999999942419
 30
0.0
 11
97.600000000036204
 21
45.299999999958708
 31
0.0
  0
LINE
  5
A38
  8
0
 10
97.600000000036204
 20
50.700000000081133
 30
0.0
 11
96.400000000019901
 21
51.900000000097407
 31
0.0
  0
LINE
  5
A39
  8
0
 10
77.400000000047754
 20
44.180000000001108
 30
0.0
 11
78.000000000067672
 21
44.780000000021019
 31
0.0
  0
LINE
  5
A3A
  8
0
 10
78.000000000067672
 20
51.220000000018807
 30
0.0
 11
77.400000000047754
 21
51.820000000038732
 31
0.0
  0
LINE
  5
A3B
  8
0
 10
74.60000000001989
 20
44.180000000019923
 30
0.0
 11
77.400000000047754
 21
44.180000000019923
 31
0.0
  0
LINE
  5
A3C
  8
0
 10
77.400000000047754
 20
51.82000000001991
 30
0.0
 11
74.60000000001989
 21
51.82000000001991
 31
0.0
  0
LINE
  5
A3D
  8
0
 10
78.000000000019924
 20
44.800000000019907
 30
0.0
 11
83.200000000019912
 21
44.800000000019907
 31
0.0
  0
LINE
  5
A3E
  8
0
 10
83.200000000019912
 20
51.200000000019912
 30
0.0
 11
78.000000000019924
 21
51.200000000019912
 31
0.0
  0
LINE
  5
A40
  8
0
 10
83.800000000019878
 20
51.900000000019908
 30
0.0
 11
83.800000000019935
 21
44.100000000019918
 31
0.0
  0
LINE
  5
A42
  8
0
 10
96.400000000019901
 20
44.100000000019918
 30
0.0
 11
96.400000000019972
 21
51.900000000019908
 31
0.0
  0
LINE
  5
A43
  8
0
 10
83.199999999956077
 20
51.300000000044207
 30
0.0
 11
83.199999999956077
 21
44.699999999995633
 31
0.0
  0
LINE
  5
A44
  8
0
 10
64.600000000020714
 20
50.700000000024289
 30
0.0
 11
64.600000000020714
 21
45.300000000015551
 31
0.0
  0
LINE
  5
A45
  8
0
 10
65.800000000019935
 20
51.900000000023461
 30
0.0
 11
65.800000000019935
 21
44.100000000016372
 31
0.0
  0
LINE
  5
A46
  8
0
 10
74.60000000001989
 20
51.900000000019908
 30
0.0
 11
74.60000000001989
 21
44.100000000019918
 31
0.0
  0
LINE
  5
A47
  8
0
 10
97.600000000036204
 20
45.299999999958708
 30
0.0
 11
97.600000000036204
 21
50.700000000081133
 31
0.0
  0
LINE
  5
A49
  8
0
 10
78.000000000067672
 20
51.220000000018807
 30
0.0
 11
78.000000000067672
 21
44.78000000002104
 31
0.0
  0
LINE
  5
A4A
  8
0
 10
77.400000000047754
 20
51.820000000038732
 30
0.0
 11
77.400000000047754
 21
44.180000000001108
 31
0.0
  0
CIRCLE
  5
A4B
  8
0
 10
48.000000000019917
 20
48.000000000019917
 30
0.0
 40
3.4000000000000048
  0
CIRCLE
  5
A4C
  8
0
 10
48.000000000019917
 20
48.000000000019917
 30
0.0
 40
6.4999999999599822
  0
CIRCLE
  5
A4D
  8
0
 10
48.000000000019917
 20
48.000000000019917
 30
0.0
 40
7.0
  0
CIRCLE
  5
A4E
  8
0
 10
48.000000000019917
 20
48.000000000019917
 30
0.0
 40
8.0000000000199236
  0
CIRCLE
  5
A4F
  8
0
 10
110.6000000000199
 20
48.000000000019917
 30
0.0
 40
3.4000000000000048
  0
CIRCLE
  5
A50
  8
0
 10
110.6000000000199
 20
48.000000000019917
 30
0.0
 40
6.5000000000281091
  0
CIRCLE
  5
A51
  8
0
 10
110.6000000000199
 20
48.000000000019917
 30
0.0
 40
7.0
  0
CIRCLE
  5
A52
  8
0
 10
110.6000000000199
 20
48.000000000019917
 30
0.0
 40
8.0000000000199236
  0
LINE
  5
A53
  8
1
 10
48.000000000019917
 20
91.000000000039847
 30
0.0
 11
48.000000000019917
 21
143.63347031932389
 31
0.0
  0
LINE
  5
A54
  8
1
 10
110.6000000000199
 20
91.000000000039847
 30
0.0
 11
110.6000000000199
 21
143.63347031932389
 31
0.0
  0
LINE
  5
A98
  8
0
 10
41.577383710707267
 20
123.8000000000013
 30
0.0
 11
54.42261628934807
 21
123.8000000000013
 31
0.0
  0
LINE
  5
A99
  8
0
 10
104.17738371069591
 20
123.8000000000013
 30
0.0
 11
117.0226162893555
 21
123.8000000000013
 31
0.0
  0
LINE
  5
A9A
  8
0
 10
158.1000000000283
 20
123.8000000000013
 30
0.0
 11
171.10000000001151
 21
123.8000000000013
 31
0.0
  0
LINE
  5
AA7
  8
1
 10
164.60000000001989
 20
91.000000000039847
 30
0.0
 11
164.60000000001989
 21
143.63347031932389
 31
0.0
  0
LINE
  5
AAA
  8
1
 10
171.5000000000199
 20
103.8000000000398
 30
0.0
 11
157.70000000001991
 21
103.8000000000398
 31
0.0
  0
LINE
  5
AAD
  8
1
 10
119.43060024961299
 20
103.8000000000398
 30
0.0
 11
39.169399750426862
 21
103.8000000000398
 31
0.0
  0
LINE
  5
AB1
  8
1
 10
48.000000000019917
 20
199.63347031936371
 30
0.0
 11
48.000000000019917
 21
173.63347031932389
 31
0.0
  0
LINE
  5
AB2
  8
1
 10
110.6000000000199
 20
199.63347031936371
 30
0.0
 11
110.6000000000199
 21
173.63347031932389
 31
0.0
  0
LINE
  5
AB3
  8
1
 10
35.0
 20
186.63347031934379
 30
0.0
 11
123.6000000000398
 21
186.63347031934379
 31
0.0
  0
LINE
  5
AFA
  8
1
 10
48.000000000019917
 20
61.000000000039861
 30
0.0
 11
48.000000000019917
 21
35.000000000000021
 31
0.0
  0
LINE
  5
AFB
  8
1
 10
110.6000000000199
 20
61.00000000003984
 30
0.0
 11
110.6000000000199
 21
35.000000000000043
 31
0.0
  0
LINE
  5
AFC
  8
1
 10
35.0
 20
48.000000000019931
 30
0.0
 11
123.6000000000398
 21
48.000000000019931
 31
0.0
  0
LINE
  5
B6A
  8
0
 10
45.250000000019917
 20
130.33347031932391
 30
0.0
 11
45.250000000019917
 21
137.63347031932389
 31
0.0
  0
LINE
  5
B6B
  8
0
 10
50.750000000019917
 20
130.33347031932391
 30
0.0
 11
50.750000000019917
 21
137.63347031932389
 31
0.0
  0
LINE
  5
B6C
  8
0
 10
50.750000000019917
 20
130.33347031932379
 30
0.0
 11
45.250000000019917
 21
130.33347031932391
 31
0.0
  0
LINE
  5
B6F
  8
0
 10
113.3500000000199
 20
130.33347031932379
 30
0.0
 11
107.8500000000199
 21
130.33347031932391
 31
0.0
  0
LINE
  5
B70
  8
0
 10
107.8500000000199
 20
130.33347031932391
 30
0.0
 11
107.8500000000199
 21
137.63347031932389
 31
0.0
  0
LINE
  5
B71
  8
0
 10
113.3500000000199
 20
130.33347031932391
 30
0.0
 11
113.3500000000199
 21
137.63347031932389
 31
0.0
  0
LINE
  5
B72
  8
0
 10
167.35000000002
 20
130.33347031932379
 30
0.0
 11
161.85000000002
 21
130.33347031932391
 31
0.0
  0
LINE
  5
B73
  8
0
 10
161.85000000002
 20
130.33347031932391
 30
0.0
 11
161.85000000002
 21
137.63347031932389
 31
0.0
  0
LINE
  5
B74
  8
0
 10
167.35000000002
 20
130.33347031932391
 30
0.0
 11
167.35000000002
 21
137.63347031932389
 31
0.0
  0
ENDSEC
  0
EOF
