  0
SECTION
  2
HEADER
  9
$ACADVER
  1
AC1009
  9
$INSBASE
 10
0.0
 20
0.0
 30
0.0
  9
$EXTMIN
 10
0.0
 20
-2.960436562073669
 30
0.0
  9
$EXTMAX
 10
290.76019804473759
 20
215.61513964869599
 30
0.0
  9
$LIMMIN
 10
0.0
 20
0.0
  9
$LIMMAX
 10
375.0
 20
270.0
  9
$ORTHOMODE
 70
     1
  9
$REGENMODE
 70
     1
  9
$FILLMODE
 70
     1
  9
$QTEXTMODE
 70
     0
  9
$MIRRTEXT
 70
     0
  9
$DRAGMODE
 70
     2
  9
$LTSCALE
 40
10.0
  9
$OSMODE
 70
  3071
  9
$ATTMODE
 70
     1
  9
$TEXTSIZE
 40
0.2
  9
$TRACEWID
 40
0.05
  9
$TEXTSTYLE
  7
STANDARD
  9
$CLAYER
  8
0
  9
$CELTYPE
  6
BYLAYER
  9
$CECOLOR
 62
   256
  9
$DIMSCALE
 40
1.0
  9
$DIMASZ
 40
3.0
  9
$DIMEXO
 40
0.0625
  9
$DIMDLI
 40
0.38
  9
$DIMRND
 40
0.0
  9
$DIMDLE
 40
0.0
  9
$DIMEXE
 40
0.18
  9
$DIMTP
 40
0.0
  9
$DIMTM
 40
0.0
  9
$DIMTXT
 40
3.0
  9
$DIMCEN
 40
0.09
  9
$DIMTSZ
 40
0.0
  9
$DIMTOL
 70
     0
  9
$DIMLIM
 70
     0
  9
$DIMTIH
 70
     1
  9
$DIMTOH
 70
     1
  9
$DIMSE1
 70
     0
  9
$DIMSE2
 70
     0
  9
$DIMTAD
 70
     0
  9
$DIMZIN
 70
     0
  9
$DIMBLK
  1

  9
$DIMASO
 70
     1
  9
$DIMSHO
 70
     1
  9
$DIMPOST
  1

  9
$DIMAPOST
  1

  9
$DIMALT
 70
     0
  9
$DIMALTD
 70
     2
  9
$DIMALTF
 40
25.399999999999999
  9
$DIMLFAC
 40
1.0
  9
$DIMTOFL
 70
     0
  9
$DIMTVP
 40
0.0
  9
$DIMTIX
 70
     0
  9
$DIMSOXD
 70
     0
  9
$DIMSAH
 70
     0
  9
$DIMBLK1
  1

  9
$DIMBLK2
  1

  9
$DIMSTYLE
  2
STANDARD
  9
$DIMCLRD
 70
     0
  9
$DIMCLRE
 70
     0
  9
$DIMCLRT
 70
     0
  9
$DIMTFAC
 40
1.0
  9
$DIMGAP
 40
0.09
  9
$LUNITS
 70
     2
  9
$LUPREC
 70
     4
  9
$SKETCHINC
 40
0.1
  9
$FILLETRAD
 40
0.0
  9
$AUNITS
 70
     0
  9
$AUPREC
 70
     0
  9
$MENU
  1
E:\r13\win\SUPPORT\ACAD
  9
$ELEVATION
 40
0.0
  9
$PELEVATION
 40
0.0
  9
$THICKNESS
 40
0.0
  9
$LIMCHECK
 70
     0
  9
$BLIPMODE
 70
     0
  9
$CHAMFERA
 40
0.0
  9
$CHAMFERB
 40
0.0
  9
$SKPOLY
 70
     0
  9
$TDCREATE
 40
2451600.4596545142
  9
$TDUPDATE
 40
2456598.621544132
  9
$TDINDWG
 40
0.0036803009
  9
$TDUSRTIMER
 40
0.0036803009
  9
$USRTIMER
 70
     1
  9
$ANGBASE
 50
0.0
  9
$ANGDIR
 70
     0
  9
$PDMODE
 70
     0
  9
$PDSIZE
 40
0.0
  9
$PLINEWID
 40
0.0
  9
$COORDS
 70
     1
  9
$SPLFRAME
 70
     0
  9
$SPLINETYPE
 70
     6
  9
$SPLINESEGS
 70
     8
  9
$ATTDIA
 70
     0
  9
$ATTREQ
 70
     1
  9
$HANDLING
 70
     1
  9
$HANDSEED
  5
49A
  9
$SURFTAB1
 70
     6
  9
$SURFTAB2
 70
     6
  9
$SURFTYPE
 70
     6
  9
$SURFU
 70
     6
  9
$SURFV
 70
     6
  9
$UCSNAME
  2

  9
$UCSORG
 10
0.0
 20
0.0
 30
0.0
  9
$UCSXDIR
 10
1.0
 20
0.0
 30
0.0
  9
$UCSYDIR
 10
0.0
 20
1.0
 30
0.0
  9
$PUCSNAME
  2

  9
$PUCSORG
 10
0.0
 20
0.0
 30
0.0
  9
$PUCSXDIR
 10
1.0
 20
0.0
 30
0.0
  9
$PUCSYDIR
 10
0.0
 20
1.0
 30
0.0
  9
$USERI1
 70
     3
  9
$USERI2
 70
     1
  9
$USERI3
 70
     1
  9
$USERI4
 70
     0
  9
$USERI5
 70
     0
  9
$USERR1
 40
1.0
  9
$USERR2
 40
3.0
  9
$USERR3
 40
3.0
  9
$USERR4
 40
3.0
  9
$USERR5
 40
10.0
  9
$WORLDVIEW
 70
     1
  9
$SHADEDGE
 70
     3
  9
$SHADEDIF
 70
    70
  9
$TILEMODE
 70
     1
  9
$MAXACTVP
 70
    16
  9
$PLIMCHECK
 70
     0
  9
$PEXTMIN
 10
1.0000000000000000E+020
 20
1.0000000000000000E+020
 30
1.0000000000000000E+020
  9
$PEXTMAX
 10
-1.0000000000000000E+020
 20
-1.0000000000000000E+020
 30
-1.0000000000000000E+020
  9
$PLIMMIN
 10
0.0
 20
0.0
  9
$PLIMMAX
 10
12.0
 20
9.0
  9
$UNITMODE
 70
     0
  9
$VISRETAIN
 70
     0
  9
$PLINEGEN
 70
     0
  9
$PSLTSCALE
 70
     0
  0
ENDSEC
  0
SECTION
  2
TABLES
  0
TABLE
  2
VPORT
 70
     1
  0
VPORT
  2
*ACTIVE
 70
     0
 10
0.0
 20
0.0
 11
1.0
 21
1.0
 12
195.0581083320873
 22
133.5127261426681
 13
0.0
 23
0.0
 14
10.0
 24
10.0
 15
10.0
 25
10.0
 16
0.0
 26
0.0
 36
1.0
 17
0.0
 27
0.0
 37
0.0
 40
275.42274993631997
 41
1.831871345029239
 42
50.0
 43
0.0
 44
0.0
 50
0.0
 51
0.0
 71
     0
 72
   100
 73
     1
 74
     0
 75
     0
 76
     0
 77
     0
 78
     0
  0
ENDTAB
  0
TABLE
  2
LTYPE
 70
     4
  0
LTYPE
  2
CONTINUOUS
 70
     0
  3
Solid Line
 72
    65
 73
     0
 40
0.0
  0
LTYPE
  2
CENTER
 70
     0
  3
____ _ ____ _ ____ _ ____ _ ____ _ ____ _ ____
 72
    65
 73
     4
 40
2.0
 49
1.25
 49
-0.25
 49
0.25
 49
-0.25
  0
LTYPE
  2
HIDDEN
 70
     0
  3
_ _ _ _ _ _ _ _ _ _ _ _ _ _ _ _ _ _ _ _ _ _ _
 72
    65
 73
     2
 40
0.375
 49
0.25
 49
-0.125
  0
LTYPE
  2
PHANTOM2
 70
     0
  3
___ _ _ ___ _ _ ___ _ _ ___ _ _
 72
    65
 73
     6
 40
1.25
 49
0.625
 49
-0.125
 49
0.125
 49
-0.125
 49
0.125
 49
-0.125
  0
ENDTAB
  0
TABLE
  2
LAYER
 70
     3
  0
LAYER
  2
0
 70
     0
 62
     7
  6
CONTINUOUS
  0
LAYER
  2
1
 70
     0
 62
     1
  6
CENTER
  0
LAYER
  2
2
 70
     0
 62
     2
  6
HIDDEN
  0
ENDTAB
  0
TABLE
  2
STYLE
 70
     2
  0
STYLE
  2
STANDARD
 70
     0
 40
0.0
 41
1.0
 50
0.0
 71
     0
 42
0.2
  3
SIMPLEX
  4
BIGFONT
  0
STYLE
  2
STANDARD1
 70
     0
 40
0.0
 41
1.0
 50
0.0
 71
     0
 42
3.0
  3
txt
  4

  0
ENDTAB
  0
TABLE
  2
VIEW
 70
     0
  0
ENDTAB
  0
TABLE
  2
UCS
 70
     0
  0
ENDTAB
  0
TABLE
  2
APPID
 70
     3
  0
APPID
  2
ACAD
 70
     0
  0
APPID
  2
ACAD_MLEADERVER
 70
     0
  0
APPID
  2
ACAD_NAV_VCDISPLAY
 70
     0
  0
ENDTAB
  0
TABLE
  2
DIMSTYLE
 70
     1
  0
DIMSTYLE
  2
STANDARD
 70
     0
  3

  4

  5

  6

  7

 40
1.0
 41
0.18
 42
0.0625
 43
0.38
 44
0.18
 45
0.0
 46
0.0
 47
0.0
 48
0.0
140
0.18
141
0.09
142
0.0
143
25.399999999999999
144
1.0
145
0.0
146
1.0
147
0.09
 71
     0
 72
     0
 73
     1
 74
     1
 75
     0
 76
     0
 77
     0
 78
     0
170
     0
171
     2
172
     0
173
     0
174
     0
175
     0
176
     0
177
     0
178
     0
  0
ENDTAB
  0
ENDSEC
  0
SECTION
  2
BLOCKS
  0
BLOCK
  8
0
  2
$MODEL_SPACE
 70
     0
 10
0.0
 20
0.0
 30
0.0
  3
$MODEL_SPACE
  1

  0
ENDBLK
  5
24E
  8
0
  0
BLOCK
 67
     1
  8
0
  2
$PAPER_SPACE
 70
     0
 10
0.0
 20
0.0
 30
0.0
  3
$PAPER_SPACE
  1

  0
ENDBLK
  5
24C
 67
     1
  8
0
  0
ENDSEC
  0
SECTION
  2
ENTITIES
  0
ARC
  5
19D
  8
0
 10
227.9101980447376
 20
-100.8848603513039
 30
0.0
 40
212.0
 50
80.881973066249685
 51
99.118026933750329
1001
ACAD
1000
ASC_BOUNDS
1002
{
1070
    19
1002
}
  0
ARC
  5
19E
  8
0
 10
227.9101980447376
 20
-101.3848603513039
 30
0.0
 40
220.0
 50
77.73110100404341
 51
102.2688989959566
1001
ACAD
1000
ASC_BOUNDS
1002
{
1070
    19
1002
}
  0
LINE
  5
19F
  8
0
 10
274.76019804473759
 20
210.6151396486961
 30
0.0
 11
181.06019804473749
 21
210.6151396486961
 31
0.0
  0
LINE
  5
1A0
  8
0
 10
274.76019804473759
 20
188.61513964869599
 30
0.0
 11
181.06019804473749
 21
188.61513964869599
 31
0.0
  0
LINE
  5
1A1
  8
1
 10
290.76019804473759
 20
199.6151396486961
 30
0.0
 11
165.06019804473749
 21
199.6151396486961
 31
0.0
  0
ARC
  5
1A5
  8
0
 10
89.212513443031014
 20
70.6151396486961
 30
0.0
 40
48.0
 50
78.122555294549826
 51
101.8774447054501
1001
ACAD
1000
ASC_BOUNDS
1002
{
1070
    19
1002
}
  0
ARC
  5
1A6
  8
2
 10
89.212513443031014
 20
128.71513964869609
 30
0.0
 40
17.600000000000001
 50
237.14238462809709
 51
302.85761537190291
1001
ACAD
1000
ASC_BOUNDS
1002
{
1070
    19
1002
}
  0
LINE
  5
1A7
  8
0
 10
78.352755871481165
 20
83.6151396486961
 30
0.0
 11
100.07227101458081
 21
83.6151396486961
 31
0.0
  0
LINE
  5
1A8
  8
1
 10
89.212513443031014
 20
121.46036743292549
 30
0.0
 11
89.212513443031014
 21
80.811556265889664
 31
0.0
1001
ACAD
1000
ASC_BOUNDS
1002
{
1070
    19
1002
}
  0
LINE
  5
1A9
  8
0
 10
78.068719324274468
 20
116.1625041804969
 30
0.0
 11
78.352755871481165
 21
83.6151396486961
 31
0.0
  0
POINT
  5
1AA
  8
0
 10
78.352755871481165
 20
83.6151396486961
 30
0.0
  0
ARC
  5
1AB
  8
0
 10
79.66251344303106
 20
116.0217195683514
 30
0.0
 40
1.6000000000000001
 50
101.8774447054509
 51
174.95199422471649
1001
ACAD
1000
ASC_BOUNDS
1002
{
1070
    19
1002
}
  0
ARC
  5
1AC
  8
2
 10
80.738260219345634
 20
116.38449055969841
 30
0.0
 40
2.6787546627133469
 50
184.75350931114929
 51
246.34756274262401
1001
ACAD
1000
ASC_BOUNDS
1002
{
1070
    19
1002
}
  0
POINT
  5
1AD
  8
0
 10
93.793923887230903
 20
118.39600065330509
 30
0.0
  0
POINT
  5
1AE
  8
0
 10
92.868704787556226
 20
118.47568984248539
 30
0.0
  0
LINE
  5
1AF
  8
0
 10
181.16019804473751
 20
113.59057429181991
 30
0.0
 11
171.22204585339321
 21
111.2046350461725
 31
0.0
1001
ACAD
1000
ASC_BOUNDS
1002
{
1070
    19
1002
}
  0
LINE
  5
1B0
  8
0
 10
170.3001980447375
 20
83.615139648695987
 30
0.0
 11
192.0201980447375
 21
83.615139648695987
 31
0.0
1001
ACAD
1000
ASC_BOUNDS
1002
{
1070
    19
1002
}
  0
LINE
  5
1B1
  8
0
 10
170.3001980447375
 20
83.615139648695987
 30
0.0
 11
170.07227101458079
 21
109.73299036232849
 31
0.0
1001
ACAD
1000
ASC_BOUNDS
1002
{
1070
    19
1002
}
  0
LINE
  5
1B2
  8
0
 10
100.3563075617876
 20
116.1625041804967
 30
0.0
 11
100.07227101458081
 21
83.6151396486961
 31
0.0
  0
POINT
  5
1B3
  8
0
 10
100.07227101458081
 20
83.6151396486961
 30
0.0
  0
ARC
  5
1B4
  8
0
 10
98.762513443031125
 20
116.0217195683515
 30
0.0
 40
1.6000000000000001
 50
5.0480057752825198
 51
78.122555294548903
1001
ACAD
1000
ASC_BOUNDS
1002
{
1070
    19
1002
}
  0
ARC
  5
1B5
  8
2
 10
97.686766666716494
 20
116.38449055969841
 30
0.0
 40
2.6787546627132861
 50
293.65243725737378
 51
355.24649068885179
1001
ACAD
1000
ASC_BOUNDS
1002
{
1070
    19
1002
}
  0
POINT
  5
1B6
  8
0
 10
171.22204585339321
 20
111.2046350461725
 30
0.0
  0
ARC
  5
1B7
  8
0
 10
171.57221389917709
 20
109.746080165576
 30
0.0
 40
1.5
 50
103.5
 51
180.50000000000011
1001
ACAD
1000
ASC_BOUNDS
1002
{
1070
    19
1002
}
  0
LINE
  5
1B8
  8
2
 10
178.77363304473749
 20
84.228574648695997
 30
0.0
 11
178.77363304473749
 21
97.615139648696001
 31
0.0
  0
LINE
  5
1B9
  8
2
 10
183.5467630447375
 20
84.228574648695997
 30
0.0
 11
183.5467630447375
 21
97.615139648696001
 31
0.0
  0
LINE
  5
1BA
  8
2
 10
178.16019804473751
 20
83.615139648695987
 30
0.0
 11
178.16019804473751
 21
95.615139648695987
 31
0.0
  0
LINE
  5
1BB
  8
2
 10
184.16019804473751
 20
83.615139648695987
 30
0.0
 11
184.16019804473751
 21
95.615139648695987
 31
0.0
  0
LINE
  5
1BC
  8
2
 10
186.16019804473751
 20
83.615139648695987
 30
0.0
 11
186.16019804473751
 21
99.315139648696032
 31
0.0
1001
ACAD
1000
ASC_BOUNDS
1002
{
1070
    19
1002
}
  0
LINE
  5
1BD
  8
0
 10
192.0201980447375
 20
83.615139648695987
 30
0.0
 11
192.21109455695449
 21
105.9897132980412
 31
0.0
1001
ACAD
1000
ASC_BOUNDS
1002
{
1070
    19
1002
}
  0
LINE
  5
1BE
  8
2
 10
176.16019804473751
 20
99.315139648696032
 30
0.0
 11
176.16019804473751
 21
83.615139648695987
 31
0.0
1001
ACAD
1000
ASC_BOUNDS
1002
{
1070
    19
1002
}
  0
LINE
  5
1BF
  8
1
 10
181.1601980447374
 20
118.7047520796329
 30
0.0
 11
181.16019804473751
 21
78.615139648696001
 31
0.0
  0
LINE
  5
1C0
  8
2
 10
183.5467630447375
 20
84.228574648695997
 30
0.0
 11
178.77363304473749
 21
84.228574648695997
 31
0.0
  0
LINE
  5
1C1
  8
2
 10
178.77363304473749
 20
84.228574648695997
 30
0.0
 11
178.16019804473751
 21
83.615139648695987
 31
0.0
  0
LINE
  5
1C2
  8
2
 10
184.16019804473751
 20
83.615139648695987
 30
0.0
 11
183.5467630447375
 21
84.228574648695997
 31
0.0
  0
ARC
  5
1C3
  8
0
 10
194.71099936461479
 20
105.9678969592953
 30
0.0
 40
2.5
 50
99.118026933750784
 51
179.5
1001
ACAD
1000
ASC_BOUNDS
1002
{
1070
    19
1002
}
  0
LINE
  5
1C4
  8
2
 10
186.4101980447378
 20
107.115139648696
 30
0.0
 11
186.4101980447378
 21
100.615139648696
 31
0.0
1001
ACAD
1000
ASC_BOUNDS
1002
{
1070
    19
1002
}
  0
LINE
  5
1C5
  8
2
 10
175.91019804473771
 20
107.115139648696
 30
0.0
 11
175.9101980447378
 21
100.615139648696
 31
0.0
1001
ACAD
1000
ASC_BOUNDS
1002
{
1070
    19
1002
}
  0
LINE
  5
1C6
  8
2
 10
183.5467630447375
 20
97.615139648696001
 30
0.0
 11
181.16019804473751
 21
98.99302359388453
 31
0.0
  0
LINE
  5
1C7
  8
2
 10
183.5467630447375
 20
97.615139648696001
 30
0.0
 11
178.77363304473749
 21
97.615139648696001
 31
0.0
  0
LINE
  5
1C8
  8
2
 10
184.16019804473751
 20
95.615139648695987
 30
0.0
 11
178.16019804473751
 21
95.615139648695987
 31
0.0
  0
LINE
  5
1C9
  8
2
 10
175.9101980447378
 20
100.615139648696
 30
0.0
 11
186.4101980447378
 21
100.615139648696
 31
0.0
1001
ACAD
1000
ASC_BOUNDS
1002
{
1070
    19
1002
}
  0
LINE
  5
1CA
  8
2
 10
178.16019804473751
 20
95.615139648695987
 30
0.0
 11
178.77363304473749
 21
96.677640235837004
 31
0.0
  0
LINE
  5
1CB
  8
2
 10
177.4601980447375
 20
100.615139648696
 30
0.0
 11
176.16019804473751
 21
99.315139648696032
 31
0.0
1001
ACAD
1000
ASC_BOUNDS
1002
{
1070
    19
1002
}
  0
LINE
  5
1CC
  8
2
 10
178.77363304473749
 20
97.615139648696001
 30
0.0
 11
181.16019804473751
 21
98.99302359388453
 31
0.0
  0
LINE
  5
1CD
  8
2
 10
184.16019804473751
 20
95.615139648695987
 30
0.0
 11
183.5467630447375
 21
96.677640235837004
 31
0.0
  0
LINE
  5
1CE
  8
2
 10
184.8601980447375
 20
100.615139648696
 30
0.0
 11
186.16019804473751
 21
99.315139648696032
 31
0.0
1001
ACAD
1000
ASC_BOUNDS
1002
{
1070
    19
1002
}
  0
ARC
  5
1CF
  8
2
 10
240.4101980447374
 20
-135.6053540655127
 30
0.0
 40
254.80000000000001
 50
102.1665148007886
 51
104.7331245753486
1001
ACAD
1000
ASC_BOUNDS
1002
{
1070
    19
1002
}
  0
LINE
  5
1D0
  8
2
 10
174.3101980447374
 20
107.115139648696
 30
0.0
 11
188.01019804473739
 21
107.115139648696
 31
0.0
1001
ACAD
1000
ASC_BOUNDS
1002
{
1070
    19
1002
}
  0
LINE
  5
1D1
  8
2
 10
174.3101980447374
 20
111.9460347921209
 30
0.0
 11
174.3101980447374
 21
110.19514839290861
 31
0.0
1001
ACAD
1000
ASC_BOUNDS
1002
{
1070
    19
1005
0
1002
}
  0
ARC
  5
1D2
  8
2
 10
174.9532176697883
 20
109.54624981724081
 30
0.0
 40
0.9135335788596957
 50
134.73927394698191
 51
225.2607260530169
1001
ACAD
1000
ASC_BOUNDS
1002
{
1070
    19
1005
0
1002
}
  0
LINE
  5
1D3
  8
2
 10
174.3101980447374
 20
108.89735124157311
 30
0.0
 11
174.3101980447374
 21
107.115139648696
 31
0.0
1001
ACAD
1000
ASC_BOUNDS
1002
{
1070
    19
1005
0
1002
}
  0
POINT
  5
1D4
  8
2
 10
175.16019804478771
 20
107.115139648696
 30
0.0
  0
LINE
  5
1D5
  8
2
 10
175.61019804473739
 20
110.8170475135645
 30
0.0
 11
175.61019804473739
 21
107.115139648696
 31
0.0
1001
ACAD
1000
ASC_BOUNDS
1002
{
1070
    19
1002
}
  0
POINT
  5
1D6
  8
2
 10
181.1601980447378
 20
113.59057429181991
 30
0.0
  0
POINT
  5
1D7
  8
2
 10
181.1601980447374
 20
113.59057429181991
 30
0.0
  0
LINE
  5
1D8
  8
2
 10
188.01019804473739
 20
114.95352125124791
 30
0.0
 11
188.01019804473739
 21
110.19514839290861
 31
0.0
1001
ACAD
1000
ASC_BOUNDS
1002
{
1070
    19
1005
0
1002
}
  0
LINE
  5
1D9
  8
2
 10
186.71019804473741
 20
113.4716420621908
 30
0.0
 11
186.71019804473741
 21
107.115139648696
 31
0.0
1001
ACAD
1000
ASC_BOUNDS
1002
{
1070
    19
1002
}
  0
ARC
  5
1DA
  8
2
 10
187.3671784196865
 20
109.54624981724081
 30
0.0
 40
0.9135335788596957
 50
314.73927394698308
 51
45.260726053018132
1001
ACAD
1000
ASC_BOUNDS
1002
{
1070
    19
1005
0
1002
}
  0
LINE
  5
1DB
  8
2
 10
188.01019804473739
 20
108.89735124157311
 30
0.0
 11
188.01019804473739
 21
107.115139648696
 31
0.0
1001
ACAD
1000
ASC_BOUNDS
1002
{
1070
    19
1005
0
1002
}
  0
LINE
  5
1DC
  8
1
 10
227.9101980447376
 20
123.6151396486961
 30
0.0
 11
227.9101980447376
 21
106.115139648696
 31
0.0
  0
ARC
  5
1DD
  8
0
 10
181.06019804473749
 20
199.6151396486961
 30
0.0
 40
11.0
 50
90.0
 51
270.0
  0
CIRCLE
  5
1DE
  8
0
 10
181.1601980447374
 20
199.6151396486961
 30
0.0
 40
6.8500000000000218
  0
LINE
  5
1DF
  8
1
 10
181.16019804473731
 20
215.61513964869599
 30
0.0
 11
181.1601980447374
 21
183.61513964869599
 31
0.0
  0
LINE
  5
1E0
  8
1
 10
227.9101980447376
 20
215.61513964869599
 30
0.0
 11
227.9101980447376
 21
183.61513964869599
 31
0.0
  0
CIRCLE
  5
1E1
  8
0
 10
233.41253965984049
 20
199.6151396486961
 30
0.0
 40
1.175500645462477
  0
CIRCLE
  5
1E2
  8
0
 10
222.40785642963459
 20
199.6151396486961
 30
0.0
 40
1.175500645462477
  0
CIRCLE
  5
1E3
  8
0
 10
216.84000979536771
 20
199.6151396486961
 30
0.0
 40
1.175500645462477
  0
CIRCLE
  5
1E4
  8
0
 10
227.91019804473751
 20
199.6151396486961
 30
0.0
 40
1.175500645462477
  0
CIRCLE
  5
1E5
  8
0
 10
238.9803862941074
 20
199.6151396486961
 30
0.0
 40
1.175500645462477
  0
LINE
  5
1F2
  8
2
 10
271.66019804473768
 20
83.615139648695987
 30
0.0
 11
271.66019804473768
 21
95.615139648695987
 31
0.0
  0
LINE
  5
1F3
  8
2
 10
277.66019804473768
 20
83.615139648695987
 30
0.0
 11
277.66019804473768
 21
95.615139648695987
 31
0.0
  0
LINE
  5
1F4
  8
2
 10
272.27363304473772
 20
84.228574648695997
 30
0.0
 11
272.27363304473772
 21
97.615139648696001
 31
0.0
  0
LINE
  5
1F5
  8
2
 10
277.0467630447377
 20
84.228574648695997
 30
0.0
 11
277.0467630447377
 21
97.615139648696001
 31
0.0
  0
LINE
  5
1F6
  8
2
 10
269.66019804473768
 20
83.615139648695987
 30
0.0
 11
269.66019804473768
 21
99.315139648696032
 31
0.0
1001
ACAD
1000
ASC_BOUNDS
1002
{
1070
    19
1002
}
  0
LINE
  5
1F7
  8
2
 10
279.66019804473768
 20
99.315139648696032
 30
0.0
 11
279.66019804473768
 21
83.615139648695987
 31
0.0
1001
ACAD
1000
ASC_BOUNDS
1002
{
1070
    19
1002
}
  0
LINE
  5
1F8
  8
1
 10
274.6601980447374
 20
118.704752079633
 30
0.0
 11
274.6601980447374
 21
78.615139648696044
 31
0.0
1001
ACAD
1000
ASC_BOUNDS
1002
{
1070
    19
1005
0
1005
0
1005
0
1002
}
  0
LINE
  5
1F9
  8
0
 10
285.5201980447377
 20
83.615139648695987
 30
0.0
 11
285.74812507489452
 21
109.73299036232849
 31
0.0
1001
ACAD
1000
ASC_BOUNDS
1002
{
1070
    19
1002
}
  0
LINE
  5
1FA
  8
0
 10
263.80019804473773
 20
83.615139648695987
 30
0.0
 11
263.6093015325207
 21
105.9897132980412
 31
0.0
1001
ACAD
1000
ASC_BOUNDS
1002
{
1070
    19
1002
}
  0
LINE
  5
1FB
  8
2
 10
271.66019804473768
 20
83.615139648695987
 30
0.0
 11
272.27363304473772
 21
84.228574648695997
 31
0.0
  0
LINE
  5
1FC
  8
0
 10
263.80019804473778
 20
83.615139648695987
 30
0.0
 11
285.52019804473792
 21
83.6151396486961
 31
0.0
1001
ACAD
1000
ASC_BOUNDS
1002
{
1070
    19
1002
}
  0
LINE
  5
1FD
  8
2
 10
272.27363304473772
 20
84.228574648695997
 30
0.0
 11
277.0467630447377
 21
84.228574648695997
 31
0.0
  0
LINE
  5
1FE
  8
2
 10
277.0467630447377
 20
84.228574648695997
 30
0.0
 11
277.66019804473768
 21
83.615139648695987
 31
0.0
  0
LINE
  5
1FF
  8
2
 10
271.66019804473768
 20
95.615139648695987
 30
0.0
 11
272.27363304473772
 21
96.677640235837004
 31
0.0
  0
LINE
  5
200
  8
2
 10
271.66019804473768
 20
95.615139648695987
 30
0.0
 11
277.66019804473768
 21
95.615139648695987
 31
0.0
  0
LINE
  5
201
  8
2
 10
279.9101980447374
 20
100.615139648696
 30
0.0
 11
269.4101980447374
 21
100.615139648696
 31
0.0
1001
ACAD
1000
ASC_BOUNDS
1002
{
1070
    19
1002
}
  0
LINE
  5
202
  8
2
 10
281.51019804473782
 20
107.115139648696
 30
0.0
 11
267.81019804473777
 21
107.115139648696
 31
0.0
1001
ACAD
1000
ASC_BOUNDS
1002
{
1070
    19
1002
}
  0
ARC
  5
203
  8
2
 10
215.41019804473791
 20
-135.6053540655127
 30
0.0
 40
254.80000000000001
 50
75.266875424651431
 51
77.833485199211324
1001
ACAD
1000
ASC_BOUNDS
1002
{
1070
    19
1002
}
  0
LINE
  5
204
  8
2
 10
269.4101980447374
 20
107.115139648696
 30
0.0
 11
269.4101980447374
 21
100.615139648696
 31
0.0
1001
ACAD
1000
ASC_BOUNDS
1002
{
1070
    19
1002
}
  0
ARC
  5
205
  8
0
 10
261.10939672486029
 20
105.9678969592953
 30
0.0
 40
2.5
 50
0.5000000000000199
 51
80.881973066249216
1001
ACAD
1000
ASC_BOUNDS
1002
{
1070
    19
1002
}
  0
LINE
  5
206
  8
2
 10
270.96019804473769
 20
100.615139648696
 30
0.0
 11
269.66019804473768
 21
99.315139648696032
 31
0.0
1001
ACAD
1000
ASC_BOUNDS
1002
{
1070
    19
1002
}
  0
LINE
  5
207
  8
2
 10
267.81019804473777
 20
114.95352125124791
 30
0.0
 11
267.81019804473777
 21
110.19514839290861
 31
0.0
1001
ACAD
1000
ASC_BOUNDS
1002
{
1070
    19
1005
0
1002
}
  0
LINE
  5
208
  8
2
 10
269.11019804473779
 20
113.4716420621908
 30
0.0
 11
269.11019804473779
 21
107.115139648696
 31
0.0
1001
ACAD
1000
ASC_BOUNDS
1002
{
1070
    19
1002
}
  0
ARC
  5
209
  8
2
 10
268.45321766978873
 20
109.54624981724081
 30
0.0
 40
0.9135335788596957
 50
134.73927394698191
 51
225.2607260530169
1001
ACAD
1000
ASC_BOUNDS
1002
{
1070
    19
1005
0
1002
}
  0
LINE
  5
20A
  8
2
 10
267.81019804473777
 20
108.89735124157311
 30
0.0
 11
267.81019804473777
 21
107.115139648696
 31
0.0
1001
ACAD
1000
ASC_BOUNDS
1002
{
1070
    19
1005
0
1002
}
  0
LINE
  5
20B
  8
2
 10
279.91019804473751
 20
107.115139648696
 30
0.0
 11
279.9101980447374
 21
100.615139648696
 31
0.0
1001
ACAD
1000
ASC_BOUNDS
1002
{
1070
    19
1002
}
  0
LINE
  5
20C
  8
2
 10
272.27363304473772
 20
97.615139648696001
 30
0.0
 11
277.0467630447377
 21
97.615139648696001
 31
0.0
  0
LINE
  5
20D
  8
2
 10
277.0467630447377
 20
97.615139648696001
 30
0.0
 11
274.6601980447378
 21
98.99302359388453
 31
0.0
  0
LINE
  5
20E
  8
2
 10
272.27363304473772
 20
97.615139648696001
 30
0.0
 11
274.6601980447378
 21
98.99302359388453
 31
0.0
  0
LINE
  5
20F
  8
2
 10
277.66019804473768
 20
95.615139648695987
 30
0.0
 11
277.0467630447377
 21
96.677640235837004
 31
0.0
  0
LINE
  5
210
  8
2
 10
278.36019804473767
 20
100.615139648696
 30
0.0
 11
279.66019804473768
 21
99.315139648696032
 31
0.0
1001
ACAD
1000
ASC_BOUNDS
1002
{
1070
    19
1002
}
  0
LINE
  5
211
  8
0
 10
274.6601980447378
 20
113.59057429181991
 30
0.0
 11
284.59835023608213
 21
111.2046350461725
 31
0.0
1001
ACAD
1000
ASC_BOUNDS
1002
{
1070
    19
1002
}
  0
LINE
  5
212
  8
2
 10
281.51019804473782
 20
111.9460347921209
 30
0.0
 11
281.51019804473782
 21
110.19514839290861
 31
0.0
1001
ACAD
1000
ASC_BOUNDS
1002
{
1070
    19
1005
0
1002
}
  0
LINE
  5
213
  8
2
 10
280.21019804473781
 20
110.8170475135645
 30
0.0
 11
280.21019804473781
 21
107.115139648696
 31
0.0
1001
ACAD
1000
ASC_BOUNDS
1002
{
1070
    19
1002
}
  0
ARC
  5
214
  8
2
 10
280.86717841968692
 20
109.54624981724081
 30
0.0
 40
0.9135335788596957
 50
314.73927394698308
 51
45.260726053018132
1001
ACAD
1000
ASC_BOUNDS
1002
{
1070
    19
1005
0
1002
}
  0
LINE
  5
215
  8
2
 10
281.51019804473782
 20
108.89735124157311
 30
0.0
 11
281.51019804473782
 21
107.115139648696
 31
0.0
1001
ACAD
1000
ASC_BOUNDS
1002
{
1070
    19
1005
0
1002
}
  0
POINT
  5
216
  8
2
 10
280.66019804468749
 20
107.115139648696
 30
0.0
  0
POINT
  5
217
  8
0
 10
274.6601980447378
 20
113.59057429181991
 30
0.0
  0
POINT
  5
218
  8
0
 10
274.6601980447374
 20
113.59057429181991
 30
0.0
  0
ARC
  5
219
  8
0
 10
284.24818219029822
 20
109.746080165576
 30
0.0
 40
1.5
 50
359.5
 51
76.499999999999972
1001
ACAD
1000
ASC_BOUNDS
1002
{
1070
    19
1002
}
  0
ARC
  5
21A
  8
0
 10
274.76019804473759
 20
199.6151396486961
 30
0.0
 40
11.0
 50
270.0
 51
90.0
  0
LINE
  5
21B
  8
1
 10
274.6601980447378
 20
215.61513964869599
 30
0.0
 11
274.66019804473763
 21
183.61513964869599
 31
0.0
  0
CIRCLE
  5
21C
  8
0
 10
274.6601980447378
 20
199.6151396486961
 30
0.0
 40
6.8500000000000218
  0
TEXT
  5
40E
  8
0
 62
     3
 10
0.0
 20
0.0
 30
0.0
 40
10.0
  1
EAG110B-GR
  7
STANDARD1
  0
ENDSEC
  0
EOF
