  0
SECTION
  2
HEADER
  9
$ACADVER
  1
AC1009
  9
$INSBASE
 10
0.0
 20
0.0
 30
0.0
  9
$EXTMIN
 10
0.0
 20
-2.960436562073669
 30
0.0
  9
$EXTMAX
 10
159.75
 20
160.75
 30
0.0
  9
$LIMMIN
 10
0.0
 20
0.0
  9
$LIMMAX
 10
375.0
 20
270.0
  9
$ORTHOMODE
 70
     1
  9
$REGENMODE
 70
     1
  9
$FILLMODE
 70
     1
  9
$QTEXTMODE
 70
     0
  9
$MIRRTEXT
 70
     0
  9
$DRAGMODE
 70
     2
  9
$LTSCALE
 40
10.0
  9
$OSMODE
 70
  3071
  9
$ATTMODE
 70
     1
  9
$TEXTSIZE
 40
2.0
  9
$TRACEWID
 40
0.05
  9
$TEXTSTYLE
  7
STANDARD
  9
$CLAYER
  8
0
  9
$CELTYPE
  6
BYLAYER
  9
$CECOLOR
 62
   256
  9
$DIMSCALE
 40
1.0
  9
$DIMASZ
 40
2.5
  9
$DIMEXO
 40
2.0
  9
$DIMDLI
 40
0.38
  9
$DIMRND
 40
0.0
  9
$DIMDLE
 40
0.0
  9
$DIMEXE
 40
2.0
  9
$DIMTP
 40
0.0
  9
$DIMTM
 40
0.0
  9
$DIMTXT
 40
3.0
  9
$DIMCEN
 40
0.09
  9
$DIMTSZ
 40
0.0
  9
$DIMTOL
 70
     0
  9
$DIMLIM
 70
     0
  9
$DIMTIH
 70
     0
  9
$DIMTOH
 70
     0
  9
$DIMSE1
 70
     0
  9
$DIMSE2
 70
     0
  9
$DIMTAD
 70
     1
  9
$DIMZIN
 70
     0
  9
$DIMBLK
  1

  9
$DIMASO
 70
     1
  9
$DIMSHO
 70
     0
  9
$DIMPOST
  1

  9
$DIMAPOST
  1

  9
$DIMALT
 70
     0
  9
$DIMALTD
 70
     2
  9
$DIMALTF
 40
25.399999999999999
  9
$DIMLFAC
 40
1.0
  9
$DIMTOFL
 70
     0
  9
$DIMTVP
 40
1.6000000000000001
  9
$DIMTIX
 70
     1
  9
$DIMSOXD
 70
     0
  9
$DIMSAH
 70
     0
  9
$DIMBLK1
  1

  9
$DIMBLK2
  1

  9
$DIMSTYLE
  2
STANDARD
  9
$DIMCLRD
 70
     0
  9
$DIMCLRE
 70
     0
  9
$DIMCLRT
 70
     0
  9
$DIMTFAC
 40
1.0
  9
$DIMGAP
 40
0.09
  9
$LUNITS
 70
     2
  9
$LUPREC
 70
     4
  9
$SKETCHINC
 40
0.1
  9
$FILLETRAD
 40
2.5
  9
$AUNITS
 70
     0
  9
$AUPREC
 70
     0
  9
$MENU
  1
E:\r13\win\SUPPORT\ACAD
  9
$ELEVATION
 40
0.0
  9
$PELEVATION
 40
0.0
  9
$THICKNESS
 40
0.0
  9
$LIMCHECK
 70
     0
  9
$BLIPMODE
 70
     0
  9
$CHAMFERA
 40
0.0
  9
$CHAMFERB
 40
0.0
  9
$SKPOLY
 70
     0
  9
$TDCREATE
 40
2448650.5678784722
  9
$TDUPDATE
 40
2456598.6218989589
  9
$TDINDWG
 40
0.0313180556
  9
$TDUSRTIMER
 40
0.0313180556
  9
$USRTIMER
 70
     1
  9
$ANGBASE
 50
0.0
  9
$ANGDIR
 70
     0
  9
$PDMODE
 70
     0
  9
$PDSIZE
 40
0.0
  9
$PLINEWID
 40
0.0
  9
$COORDS
 70
     1
  9
$SPLFRAME
 70
     0
  9
$SPLINETYPE
 70
     6
  9
$SPLINESEGS
 70
     8
  9
$ATTDIA
 70
     0
  9
$ATTREQ
 70
     1
  9
$HANDLING
 70
     1
  9
$HANDSEED
  5
8BE
  9
$SURFTAB1
 70
     6
  9
$SURFTAB2
 70
     6
  9
$SURFTYPE
 70
     6
  9
$SURFU
 70
     6
  9
$SURFV
 70
     6
  9
$UCSNAME
  2

  9
$UCSORG
 10
0.0
 20
0.0
 30
0.0
  9
$UCSXDIR
 10
1.0
 20
0.0
 30
0.0
  9
$UCSYDIR
 10
0.0
 20
1.0
 30
0.0
  9
$PUCSNAME
  2

  9
$PUCSORG
 10
0.0
 20
0.0
 30
0.0
  9
$PUCSXDIR
 10
1.0
 20
0.0
 30
0.0
  9
$PUCSYDIR
 10
0.0
 20
1.0
 30
0.0
  9
$USERI1
 70
     0
  9
$USERI2
 70
     1
  9
$USERI3
 70
     1
  9
$USERI4
 70
     0
  9
$USERI5
 70
     0
  9
$USERR1
 40
0.0
  9
$USERR2
 40
0.0
  9
$USERR3
 40
0.0
  9
$USERR4
 40
0.0
  9
$USERR5
 40
0.0
  9
$WORLDVIEW
 70
     1
  9
$SHADEDGE
 70
     3
  9
$SHADEDIF
 70
    70
  9
$TILEMODE
 70
     1
  9
$MAXACTVP
 70
    16
  9
$PLIMCHECK
 70
     0
  9
$PEXTMIN
 10
1.0000000000000000E+020
 20
1.0000000000000000E+020
 30
1.0000000000000000E+020
  9
$PEXTMAX
 10
-1.0000000000000000E+020
 20
-1.0000000000000000E+020
 30
-1.0000000000000000E+020
  9
$PLIMMIN
 10
0.0
 20
0.0
  9
$PLIMMAX
 10
12.0
 20
9.0
  9
$UNITMODE
 70
     0
  9
$VISRETAIN
 70
     0
  9
$PLINEGEN
 70
     1
  9
$PSLTSCALE
 70
     0
  0
ENDSEC
  0
SECTION
  2
TABLES
  0
TABLE
  2
VPORT
 70
     1
  0
VPORT
  2
*ACTIVE
 70
     0
 10
0.0
 20
0.0
 11
1.0
 21
1.0
 12
195.0581083320873
 22
133.5127261426681
 13
0.0
 23
0.0
 14
10.0
 24
10.0
 15
10.0
 25
10.0
 16
0.0
 26
0.0
 36
1.0
 17
0.0
 27
0.0
 37
0.0
 40
275.42274993631997
 41
1.831871345029239
 42
50.0
 43
0.0
 44
0.0
 50
0.0
 51
0.0
 71
     0
 72
   500
 73
     1
 74
     0
 75
     0
 76
     0
 77
     0
 78
     2
  0
ENDTAB
  0
TABLE
  2
LTYPE
 70
     4
  0
LTYPE
  2
CONTINUOUS
 70
     0
  3
Solid Line
 72
    65
 73
     0
 40
0.0
  0
LTYPE
  2
CENTER
 70
     0
  3
____ _ ____ _ ____ _ ____ _ ____ _ ____ _ ____
 72
    65
 73
     4
 40
2.0
 49
1.25
 49
-0.25
 49
0.25
 49
-0.25
  0
LTYPE
  2
HIDDEN
 70
     0
  3
_ _ _ _ _ _ _ _ _ _ _ _ _ _ _ _ _ _ _ _ _ _ _
 72
    65
 73
     2
 40
0.375
 49
0.25
 49
-0.125
  0
LTYPE
  2
PHANTOM2
 70
     0
  3
___ _ _ ___ _ _ ___ _ _ ___ _ _
 72
    65
 73
     6
 40
1.25
 49
0.625
 49
-0.125
 49
0.125
 49
-0.125
 49
0.125
 49
-0.125
  0
ENDTAB
  0
TABLE
  2
LAYER
 70
     3
  0
LAYER
  2
0
 70
     0
 62
     7
  6
CONTINUOUS
  0
LAYER
  2
1
 70
     0
 62
     1
  6
CENTER
  0
LAYER
  2
2
 70
     0
 62
     2
  6
HIDDEN
  0
ENDTAB
  0
TABLE
  2
STYLE
 70
     2
  0
STYLE
  2
STANDARD
 70
     0
 40
0.0
 41
1.0
 50
0.0
 71
     0
 42
2.0
  3
TXT
  4
BIGFONT
  0
STYLE
  2
STANDARD1
 70
     0
 40
0.0
 41
1.0
 50
0.0
 71
     0
 42
3.0
  3
txt
  4

  0
ENDTAB
  0
TABLE
  2
VIEW
 70
     1
  0
VIEW
  2
ALL
 70
     0
 40
270.0
 10
220.99159663865549
 20
135.0
 41
0.0
 11
0.0
 21
0.0
 31
1.0
 12
0.0
 22
0.0
 32
0.0
 42
0.0
 43
0.0
 44
0.0
 50
0.0
 71
     0
  0
ENDTAB
  0
TABLE
  2
UCS
 70
     0
  0
ENDTAB
  0
TABLE
  2
APPID
 70
     4
  0
APPID
  2
ACAD
 70
     0
  0
APPID
  2
ACAD_EXEMPT_FROM_CAD_STANDARDS
 70
     0
  0
APPID
  2
ACAD_MLEADERVER
 70
     0
  0
APPID
  2
ACAD_NAV_VCDISPLAY
 70
     0
  0
ENDTAB
  0
TABLE
  2
DIMSTYLE
 70
     1
  0
DIMSTYLE
  2
STANDARD
 70
     0
  3

  4

  5

  6

  7

 40
1.0
 41
0.18
 42
0.0625
 43
0.38
 44
0.18
 45
0.0
 46
0.0
 47
0.0
 48
0.0
140
0.18
141
0.09
142
0.0
143
25.399999999999999
144
1.0
145
0.0
146
1.0
147
0.09
 71
     0
 72
     0
 73
     1
 74
     1
 75
     0
 76
     0
 77
     0
 78
     0
170
     0
171
     2
172
     0
173
     0
174
     0
175
     0
176
     0
177
     0
178
     0
  0
ENDTAB
  0
ENDSEC
  0
SECTION
  2
BLOCKS
  0
BLOCK
  8
0
  2
$MODEL_SPACE
 70
     0
 10
0.0
 20
0.0
 30
0.0
  3
$MODEL_SPACE
  1

  0
ENDBLK
  5
217
  8
0
  0
BLOCK
 67
     1
  8
0
  2
$PAPER_SPACE
 70
     0
 10
0.0
 20
0.0
 30
0.0
  3
$PAPER_SPACE
  1

  0
ENDBLK
  5
215
 67
     1
  8
0
  0
ENDSEC
  0
SECTION
  2
ENTITIES
  0
CIRCLE
  5
626
  8
0
 10
50.0
 20
144.5
 30
0.0
 40
10.4
  0
LINE
  5
627
  8
0
 10
39.599999999999973
 20
102.7499999999999
 30
0.0
 11
39.600000000000023
 21
104.25
 31
0.0
  0
LINE
  5
628
  8
0
 10
60.400000000000027
 20
102.7499999999999
 30
0.0
 11
60.399999999999977
 21
104.25
 31
0.0
  0
CIRCLE
  5
629
  8
0
 10
50.0
 20
144.5
 30
0.0
 40
11.25
  0
CIRCLE
  5
62A
  8
0
 10
50.0
 20
50.0
 30
0.0
 40
11.25
  0
ARC
  5
62D
  8
0
 10
42.247404786250108
 20
107.95
 30
0.0
 40
0.3
 50
90.0
 51
180.0
  0
LINE
  5
62E
  8
0
 10
41.947404786250097
 20
107.95
 30
0.0
 11
41.94740478625004
 21
104.2499999999999
 31
0.0
  0
ARC
  5
62F
  8
0
 10
57.752595213750112
 20
107.9499999999999
 30
0.0
 40
0.3
 50
0.0
 51
90.0
  0
LINE
  5
630
  8
0
 10
58.052595213750124
 20
107.9499999999999
 30
0.0
 11
58.052595213750124
 21
104.25
 31
0.0
  0
LINE
  5
631
  8
1
 10
50.0
 20
128.25
 30
0.0
 11
50.0
 21
160.75
 31
0.0
  0
LINE
  5
632
  8
1
 10
33.75
 20
144.5
 30
0.0
 11
66.25
 21
144.5
 31
0.0
  0
LINE
  5
633
  8
0
 10
58.98317872470539
 20
50.549999999999962
 30
0.0
 11
58.457766917496087
 21
50.549999999999962
 31
0.0
  0
LINE
  5
634
  8
0
 10
58.98317872470539
 20
49.44999999999996
 30
0.0
 11
58.47606486792057
 21
49.44999999999996
 31
0.0
  0
LINE
  5
635
  8
0
 10
56.323892565757603
 20
49.44999999999996
 30
0.0
 11
55.97473848800098
 21
49.44999999999996
 31
0.0
  0
LINE
  5
636
  8
0
 10
56.342190516182093
 20
50.549999999999962
 30
0.0
 11
55.97473848800098
 21
50.549999999999919
 31
0.0
  0
LINE
  5
637
  8
0
 10
43.657809483817907
 20
50.549999999999962
 30
0.0
 11
44.02526151199902
 21
50.549999999999919
 31
0.0
  0
LINE
  5
638
  8
0
 10
43.67610743424239
 20
49.44999999999996
 30
0.0
 11
44.02526151199902
 21
49.44999999999996
 31
0.0
  0
LINE
  5
639
  8
0
 10
41.016821275294603
 20
49.44999999999996
 30
0.0
 11
41.523935132079423
 21
49.44999999999996
 31
0.0
  0
LINE
  5
63A
  8
0
 10
41.016821275294603
 20
50.549999999999962
 30
0.0
 11
41.542233082503913
 21
50.549999999999962
 31
0.0
  0
LINE
  5
63B
  8
0
 10
50.550000000000061
 20
41.016821275294539
 30
0.0
 11
50.550000000000011
 21
41.532876000022888
 31
0.0
  0
LINE
  5
63C
  8
0
 10
49.449999999999989
 20
41.016821275294518
 30
0.0
 11
49.449999999999989
 21
41.532876000022888
 31
0.0
  0
LINE
  5
63D
  8
0
 10
50.550000000000011
 20
43.667123999977029
 30
0.0
 11
50.550000000000011
 21
44.025261511998991
 31
0.0
  0
LINE
  5
63E
  8
0
 10
49.449999999999989
 20
43.667123999977029
 30
0.0
 11
49.449999999999989
 21
44.025261511998991
 31
0.0
  0
LINE
  5
63F
  8
0
 10
49.449999999999989
 20
56.33287600002285
 30
0.0
 11
49.449999999999989
 21
55.974738488000888
 31
0.0
  0
LINE
  5
640
  8
0
 10
50.550000000000011
 20
56.33287600002285
 30
0.0
 11
50.550000000000011
 21
55.974738488000888
 31
0.0
  0
LINE
  5
641
  8
0
 10
49.449999999999989
 20
58.983178724705368
 30
0.0
 11
49.449999999999989
 21
58.467123999976991
 31
0.0
  0
LINE
  5
642
  8
0
 10
50.550000000000061
 20
58.98317872470534
 30
0.0
 11
50.550000000000011
 21
58.467123999976991
 31
0.0
  0
LINE
  5
643
  8
1
 10
33.75
 20
49.999999999999943
 30
0.0
 11
66.25
 21
49.999999999999943
 31
0.0
  0
LINE
  5
6B7
  8
0
 10
38.75
 20
102.75
 30
0.0
 11
38.75
 21
86.25
 31
0.0
  0
LINE
  5
6B8
  8
0
 10
61.25
 20
102.75
 30
0.0
 11
61.25
 21
86.25
 31
0.0
  0
LINE
  5
6B9
  8
2
 10
46.750000000000462
 20
103.7500000000002
 30
0.0
 11
46.749999999998863
 21
86.250000000000284
 31
0.0
  0
CIRCLE
  5
6BA
  8
0
 10
50.0
 20
144.5
 30
0.0
 40
3.25
  0
CIRCLE
  5
6BB
  8
0
 10
50.0
 20
50.0
 30
0.0
 40
3.25
  0
LINE
  5
6BC
  8
2
 10
53.25
 20
103.75
 30
0.0
 11
53.25
 21
86.25
 31
0.0
  0
CIRCLE
  5
6BD
  8
0
 10
42.600021283160913
 20
49.982252033136199
 30
0.0
 40
1.20052223275
  0
CIRCLE
  5
6BE
  8
0
 10
57.39997871683908
 20
49.982252033136199
 30
0.0
 40
1.20052223275
  0
CIRCLE
  5
6BF
  8
0
 10
50.0
 20
57.39999999999992
 30
0.0
 40
1.20052223275
  0
CIRCLE
  5
6C0
  8
0
 10
50.0
 20
49.999999999999943
 30
0.0
 40
9.0
  0
CIRCLE
  5
6C1
  8
0
 10
50.0
 20
42.599999999999973
 30
0.0
 40
1.20052223275
  0
CIRCLE
  5
6C2
  8
0
 10
50.0
 20
49.999999999999943
 30
0.0
 40
6.0
  0
ARC
  5
6C3
  8
2
 10
43.549999999999947
 20
104.05
 30
0.0
 40
0.3
 50
180.0
 51
269.9999999913008
  0
ARC
  5
6C4
  8
2
 10
56.450000000000038
 20
104.05
 30
0.0
 40
0.3
 50
270.00000000869909
 51
0.0
  0
CIRCLE
  5
6C5
  8
0
 10
50.0
 20
144.5
 30
0.0
 40
6.75
  0
CIRCLE
  5
6C6
  8
0
 10
50.0
 20
144.5
 30
0.0
 40
8.0525952137499992
  0
LINE
  5
6C7
  8
1
 10
50.0
 20
66.25
 30
0.0
 11
50.0
 21
33.75
 31
0.0
  0
LINE
  5
6C8
  8
0
 10
57.752595213750112
 20
108.25
 30
0.0
 11
42.247404786250108
 21
108.25
 31
0.0
  0
LINE
  5
6C9
  8
0
 10
60.400000000000027
 20
104.25
 30
0.0
 11
39.600000000000023
 21
104.25
 31
0.0
  0
LINE
  5
6CA
  8
2
 10
56.450000000000038
 20
103.75
 30
0.0
 11
43.549999999999947
 21
103.75
 31
0.0
  0
LINE
  5
6CB
  8
2
 10
56.749999999999943
 20
108.25
 30
0.0
 11
56.75
 21
104.05
 31
0.0
  0
LINE
  5
6CC
  8
0
 10
61.25
 20
102.75
 30
0.0
 11
38.75
 21
102.75
 31
0.0
  0
LINE
  5
6CD
  8
1
 10
50.0
 20
81.250000000000028
 30
0.0
 11
50.0
 21
113.2499999999999
 31
0.0
  0
LINE
  5
6CE
  8
2
 10
43.25
 20
108.25
 30
0.0
 11
43.25
 21
104.05
 31
0.0
  0
LINE
  5
6CF
  8
0
 10
61.25
 20
86.249999999999986
 30
0.0
 11
38.75
 21
86.250000000000028
 31
0.0
  0
CIRCLE
  5
73C
  8
0
 10
143.5
 20
144.5
 30
0.0
 40
10.4
  0
LINE
  5
73D
  8
0
 10
133.09999999999991
 20
102.7499999999999
 30
0.0
 11
133.09999999999999
 21
104.25
 31
0.0
  0
LINE
  5
73E
  8
0
 10
153.90000000000001
 20
102.7499999999999
 30
0.0
 11
153.89999999999989
 21
104.25
 31
0.0
  0
CIRCLE
  5
73F
  8
0
 10
143.5
 20
144.5
 30
0.0
 40
11.25
  0
CIRCLE
  5
740
  8
0
 10
143.5
 20
50.0
 30
0.0
 40
11.25
  0
ARC
  5
741
  8
0
 10
135.74740478625009
 20
107.95
 30
0.0
 40
0.3
 50
90.0
 51
180.0
  0
LINE
  5
742
  8
0
 10
135.4474047862501
 20
107.95
 30
0.0
 11
135.44740478624999
 21
104.2499999999999
 31
0.0
  0
ARC
  5
743
  8
0
 10
151.25259521375011
 20
107.9499999999999
 30
0.0
 40
0.3
 50
0.0
 51
90.0
  0
LINE
  5
744
  8
0
 10
151.5525952137501
 20
107.9499999999999
 30
0.0
 11
151.5525952137501
 21
104.25
 31
0.0
  0
LINE
  5
745
  8
1
 10
143.5
 20
128.25
 30
0.0
 11
143.5
 21
160.75
 31
0.0
  0
LINE
  5
746
  8
1
 10
127.25
 20
144.5
 30
0.0
 11
159.75
 21
144.5
 31
0.0
  0
LINE
  5
747
  8
0
 10
152.4831787247054
 20
50.549999999999962
 30
0.0
 11
151.95776691749609
 21
50.549999999999962
 31
0.0
  0
LINE
  5
748
  8
0
 10
152.4831787247054
 20
49.44999999999996
 30
0.0
 11
151.97606486792051
 21
49.44999999999996
 31
0.0
  0
LINE
  5
749
  8
0
 10
149.8238925657576
 20
49.44999999999996
 30
0.0
 11
149.47473848800101
 21
49.44999999999996
 31
0.0
  0
LINE
  5
74A
  8
0
 10
149.84219051618209
 20
50.549999999999962
 30
0.0
 11
149.47473848800101
 21
50.549999999999919
 31
0.0
  0
LINE
  5
74B
  8
0
 10
137.15780948381791
 20
50.549999999999962
 30
0.0
 11
137.52526151199899
 21
50.549999999999919
 31
0.0
  0
LINE
  5
74C
  8
0
 10
137.1761074342424
 20
49.44999999999996
 30
0.0
 11
137.52526151199899
 21
49.44999999999996
 31
0.0
  0
LINE
  5
74D
  8
0
 10
134.5168212752946
 20
49.44999999999996
 30
0.0
 11
135.0239351320794
 21
49.44999999999996
 31
0.0
  0
LINE
  5
74E
  8
0
 10
134.5168212752946
 20
50.549999999999962
 30
0.0
 11
135.04223308250391
 21
50.549999999999962
 31
0.0
  0
LINE
  5
74F
  8
0
 10
144.0500000000001
 20
41.016821275294539
 30
0.0
 11
144.05000000000001
 21
41.532876000022888
 31
0.0
  0
LINE
  5
750
  8
0
 10
142.94999999999999
 20
41.016821275294518
 30
0.0
 11
142.94999999999999
 21
41.532876000022888
 31
0.0
  0
LINE
  5
751
  8
0
 10
144.05000000000001
 20
43.667123999977029
 30
0.0
 11
144.05000000000001
 21
44.025261511998991
 31
0.0
  0
LINE
  5
752
  8
0
 10
142.94999999999999
 20
43.667123999977029
 30
0.0
 11
142.94999999999999
 21
44.025261511998991
 31
0.0
  0
LINE
  5
753
  8
0
 10
142.94999999999999
 20
56.33287600002285
 30
0.0
 11
142.94999999999999
 21
55.974738488000888
 31
0.0
  0
LINE
  5
754
  8
0
 10
144.05000000000001
 20
56.33287600002285
 30
0.0
 11
144.05000000000001
 21
55.974738488000888
 31
0.0
  0
LINE
  5
755
  8
0
 10
142.94999999999999
 20
58.983178724705368
 30
0.0
 11
142.94999999999999
 21
58.467123999976991
 31
0.0
  0
LINE
  5
756
  8
0
 10
144.0500000000001
 20
58.98317872470534
 30
0.0
 11
144.05000000000001
 21
58.467123999976991
 31
0.0
  0
LINE
  5
757
  8
1
 10
127.25
 20
49.999999999999943
 30
0.0
 11
159.75
 21
49.999999999999943
 31
0.0
  0
LINE
  5
758
  8
0
 10
132.25
 20
102.75
 30
0.0
 11
132.25
 21
86.25
 31
0.0
  0
LINE
  5
759
  8
0
 10
154.75
 20
102.75
 30
0.0
 11
154.75
 21
86.25
 31
0.0
  0
LINE
  5
75A
  8
2
 10
140.2500000000004
 20
103.7500000000002
 30
0.0
 11
140.24999999999889
 21
86.250000000000284
 31
0.0
  0
CIRCLE
  5
75B
  8
0
 10
143.5
 20
144.5
 30
0.0
 40
3.25
  0
CIRCLE
  5
75C
  8
0
 10
143.5
 20
50.0
 30
0.0
 40
3.25
  0
LINE
  5
75D
  8
2
 10
146.75
 20
103.75
 30
0.0
 11
146.75
 21
86.25
 31
0.0
  0
CIRCLE
  5
75E
  8
0
 10
136.10002128316091
 20
49.982252033136199
 30
0.0
 40
1.20052223275
  0
CIRCLE
  5
75F
  8
0
 10
150.89997871683909
 20
49.982252033136199
 30
0.0
 40
1.20052223275
  0
CIRCLE
  5
760
  8
0
 10
143.5
 20
57.39999999999992
 30
0.0
 40
1.20052223275
  0
CIRCLE
  5
761
  8
0
 10
143.5
 20
49.999999999999943
 30
0.0
 40
9.0
  0
CIRCLE
  5
762
  8
0
 10
143.5
 20
42.599999999999973
 30
0.0
 40
1.20052223275
  0
CIRCLE
  5
763
  8
0
 10
143.5
 20
49.999999999999943
 30
0.0
 40
6.0
  0
ARC
  5
764
  8
2
 10
137.0499999999999
 20
104.05
 30
0.0
 40
0.3
 50
180.0
 51
269.9999999913008
  0
ARC
  5
765
  8
2
 10
149.94999999999999
 20
104.05
 30
0.0
 40
0.3
 50
270.00000000869909
 51
0.0
  0
CIRCLE
  5
766
  8
0
 10
143.5
 20
144.5
 30
0.0
 40
6.75
  0
CIRCLE
  5
767
  8
0
 10
143.5
 20
144.5
 30
0.0
 40
8.0525952137499992
  0
LINE
  5
768
  8
1
 10
143.5
 20
66.25
 30
0.0
 11
143.5
 21
33.75
 31
0.0
  0
LINE
  5
769
  8
0
 10
151.25259521375011
 20
108.25
 30
0.0
 11
135.74740478625009
 21
108.25
 31
0.0
  0
LINE
  5
76A
  8
0
 10
153.90000000000001
 20
104.25
 30
0.0
 11
133.09999999999999
 21
104.25
 31
0.0
  0
LINE
  5
76B
  8
2
 10
149.94999999999999
 20
103.75
 30
0.0
 11
137.0499999999999
 21
103.75
 31
0.0
  0
LINE
  5
76C
  8
2
 10
150.24999999999989
 20
108.25
 30
0.0
 11
150.25
 21
104.05
 31
0.0
  0
LINE
  5
76D
  8
0
 10
154.75
 20
102.75
 30
0.0
 11
132.25
 21
102.75
 31
0.0
  0
LINE
  5
76E
  8
1
 10
143.5
 20
81.250000000000028
 30
0.0
 11
143.5
 21
113.2499999999999
 31
0.0
  0
LINE
  5
76F
  8
2
 10
136.75
 20
108.25
 30
0.0
 11
136.75
 21
104.05
 31
0.0
  0
LINE
  5
770
  8
0
 10
154.75
 20
86.249999999999986
 30
0.0
 11
132.25
 21
86.250000000000028
 31
0.0
  0
TEXT
  5
85A
  8
0
 62
     3
 10
0.0
 20
0.0
 30
0.0
 40
10.0
  1
EAG110SS
  7
STANDARD1
  0
ENDSEC
  0
EOF
