  0
SECTION
  2
HEADER
  9
$ACADVER
  1
AC1009
  9
$INSBASE
 10
0.0
 20
0.0
 30
0.0
  9
$EXTMIN
 10
0.0
 20
-2.960436562073669
 30
0.0
  9
$EXTMAX
 10
322.00000000000011
 20
235.47039853263581
 30
0.0
  9
$LIMMIN
 10
0.0
 20
0.0
  9
$LIMMAX
 10
75.0
 20
54.0
  9
$ORTHOMODE
 70
     1
  9
$REGENMODE
 70
     1
  9
$FILLMODE
 70
     1
  9
$QTEXTMODE
 70
     0
  9
$MIRRTEXT
 70
     0
  9
$DRAGMODE
 70
     2
  9
$LTSCALE
 40
10.0
  9
$OSMODE
 70
    37
  9
$ATTMODE
 70
     1
  9
$TEXTSIZE
 40
0.2
  9
$TRACEWID
 40
0.05
  9
$TEXTSTYLE
  7
STANDARD
  9
$CLAYER
  8
0
  9
$CELTYPE
  6
BYLAYER
  9
$CECOLOR
 62
   256
  9
$DIMSCALE
 40
0.2
  9
$DIMASZ
 40
3.0
  9
$DIMEXO
 40
2.0
  9
$DIMDLI
 40
10.0
  9
$DIMRND
 40
0.0
  9
$DIMDLE
 40
0.0
  9
$DIMEXE
 40
2.0
  9
$DIMTP
 40
0.0
  9
$DIMTM
 40
0.0
  9
$DIMTXT
 40
3.0
  9
$DIMCEN
 40
0.09
  9
$DIMTSZ
 40
0.0
  9
$DIMTOL
 70
     0
  9
$DIMLIM
 70
     0
  9
$DIMTIH
 70
     0
  9
$DIMTOH
 70
     0
  9
$DIMSE1
 70
     0
  9
$DIMSE2
 70
     0
  9
$DIMTAD
 70
     1
  9
$DIMZIN
 70
     0
  9
$DIMBLK
  1

  9
$DIMASO
 70
     0
  9
$DIMSHO
 70
     0
  9
$DIMPOST
  1

  9
$DIMAPOST
  1

  9
$DIMALT
 70
     0
  9
$DIMALTD
 70
     2
  9
$DIMALTF
 40
25.399999999999999
  9
$DIMLFAC
 40
1.0
  9
$DIMTOFL
 70
     1
  9
$DIMTVP
 40
1.6000000000000001
  9
$DIMTIX
 70
     1
  9
$DIMSOXD
 70
     0
  9
$DIMSAH
 70
     0
  9
$DIMBLK1
  1

  9
$DIMBLK2
  1

  9
$DIMSTYLE
  2
STANDARD
  9
$DIMCLRD
 70
     0
  9
$DIMCLRE
 70
     0
  9
$DIMCLRT
 70
     0
  9
$DIMTFAC
 40
1.0
  9
$DIMGAP
 40
0.09
  9
$LUNITS
 70
     2
  9
$LUPREC
 70
     4
  9
$SKETCHINC
 40
0.1
  9
$FILLETRAD
 40
0.0
  9
$AUNITS
 70
     0
  9
$AUPREC
 70
     0
  9
$MENU
  1
E:\r13\win\SUPPORT\ACAD
  9
$ELEVATION
 40
0.0
  9
$PELEVATION
 40
0.0
  9
$THICKNESS
 40
0.0
  9
$LIMCHECK
 70
     0
  9
$BLIPMODE
 70
     0
  9
$CHAMFERA
 40
0.0
  9
$CHAMFERB
 40
0.0
  9
$SKPOLY
 70
     0
  9
$TDCREATE
 40
2449840.618888889
  9
$TDUPDATE
 40
2459432.4194577662
  9
$TDINDWG
 40
0.315244838
  9
$TDUSRTIMER
 40
0.315244838
  9
$USRTIMER
 70
     1
  9
$ANGBASE
 50
0.0
  9
$ANGDIR
 70
     0
  9
$PDMODE
 70
     0
  9
$PDSIZE
 40
0.0
  9
$PLINEWID
 40
0.0
  9
$COORDS
 70
     1
  9
$SPLFRAME
 70
     0
  9
$SPLINETYPE
 70
     6
  9
$SPLINESEGS
 70
     8
  9
$ATTDIA
 70
     0
  9
$ATTREQ
 70
     1
  9
$HANDLING
 70
     1
  9
$HANDSEED
  5
106B
  9
$SURFTAB1
 70
     6
  9
$SURFTAB2
 70
     6
  9
$SURFTYPE
 70
     6
  9
$SURFU
 70
     6
  9
$SURFV
 70
     6
  9
$UCSNAME
  2

  9
$UCSORG
 10
0.0
 20
0.0
 30
0.0
  9
$UCSXDIR
 10
1.0
 20
0.0
 30
0.0
  9
$UCSYDIR
 10
0.0
 20
1.0
 30
0.0
  9
$PUCSNAME
  2

  9
$PUCSORG
 10
0.0
 20
0.0
 30
0.0
  9
$PUCSXDIR
 10
1.0
 20
0.0
 30
0.0
  9
$PUCSYDIR
 10
0.0
 20
1.0
 30
0.0
  9
$USERI1
 70
     0
  9
$USERI2
 70
     1
  9
$USERI3
 70
     1
  9
$USERI4
 70
     0
  9
$USERI5
 70
     0
  9
$USERR1
 40
0.0
  9
$USERR2
 40
0.0
  9
$USERR3
 40
0.0
  9
$USERR4
 40
0.0
  9
$USERR5
 40
0.0
  9
$WORLDVIEW
 70
     1
  9
$SHADEDGE
 70
     3
  9
$SHADEDIF
 70
    70
  9
$TILEMODE
 70
     1
  9
$MAXACTVP
 70
    16
  9
$PLIMCHECK
 70
     0
  9
$PEXTMIN
 10
1.0000000000000000E+020
 20
1.0000000000000000E+020
 30
1.0000000000000000E+020
  9
$PEXTMAX
 10
-1.0000000000000000E+020
 20
-1.0000000000000000E+020
 30
-1.0000000000000000E+020
  9
$PLIMMIN
 10
0.0
 20
0.0
  9
$PLIMMAX
 10
12.0
 20
9.0
  9
$UNITMODE
 70
     0
  9
$VISRETAIN
 70
     0
  9
$PLINEGEN
 70
     0
  9
$PSLTSCALE
 70
     0
  0
ENDSEC
  0
SECTION
  2
TABLES
  0
TABLE
  2
VPORT
 70
     1
  0
VPORT
  2
*ACTIVE
 70
     0
 10
0.0
 20
0.0
 11
1.0
 21
1.0
 12
278.4018746125675
 22
116.26308919686601
 13
0.0
 23
0.0
 14
2.0
 24
2.0
 15
2.0
 25
2.0
 16
0.0
 26
0.0
 36
1.0
 17
0.0
 27
0.0
 37
0.0
 40
240.51945428646579
 41
2.3805970149253728
 42
50.0
 43
0.0
 44
0.0
 50
0.0
 51
0.0
 71
     0
 72
   100
 73
     1
 74
     0
 75
     0
 76
     0
 77
     0
 78
     2
  0
ENDTAB
  0
TABLE
  2
LTYPE
 70
     4
  0
LTYPE
  2
CONTINUOUS
 70
     0
  3
Solid Line
 72
    65
 73
     0
 40
0.0
  0
LTYPE
  2
CENTER
 70
     0
  3
____ _ ____ _ ____ _ ____ _ ____ _ ____ _ ____
 72
    65
 73
     4
 40
2.0
 49
1.25
 49
-0.25
 49
0.25
 49
-0.25
  0
LTYPE
  2
HIDDEN
 70
     0
  3
_ _ _ _ _ _ _ _ _ _ _ _ _ _ _ _ _ _ _ _ _ _ _
 72
    65
 73
     2
 40
0.375
 49
0.25
 49
-0.125
  0
LTYPE
  2
PHANTOM2
 70
     0
  3
___ _ _ ___ _ _ ___ _ _ ___ _ _
 72
    65
 73
     6
 40
1.25
 49
0.625
 49
-0.125
 49
0.125
 49
-0.125
 49
0.125
 49
-0.125
  0
ENDTAB
  0
TABLE
  2
LAYER
 70
     3
  0
LAYER
  2
0
 70
     0
 62
     7
  6
CONTINUOUS
  0
LAYER
  2
1
 70
     0
 62
     1
  6
CENTER
  0
LAYER
  2
2
 70
     0
 62
     2
  6
HIDDEN
  0
ENDTAB
  0
TABLE
  2
STYLE
 70
     2
  0
STYLE
  2
STANDARD
 70
     0
 40
0.0
 41
1.0
 50
0.0
 71
     0
 42
0.2
  3
TXT
  4
BIGFONT
  0
STYLE
  2
STANDARD1
 70
     0
 40
0.0
 41
1.0
 50
0.0
 71
     0
 42
3.0
  3
txt
  4

  0
ENDTAB
  0
TABLE
  2
VIEW
 70
     1
  0
VIEW
  2
ALL
 70
     0
 40
54.0
 10
44.198318999999998
 20
27.0
 41
0.0
 11
0.0
 21
0.0
 31
1.0
 12
0.0
 22
0.0
 32
0.0
 42
0.0
 43
0.0
 44
0.0
 50
0.0
 71
     0
  0
ENDTAB
  0
TABLE
  2
UCS
 70
     0
  0
ENDTAB
  0
TABLE
  2
APPID
 70
     5
  0
APPID
  2
ACAD
 70
     0
  0
APPID
  2
DCO15
 70
     0
  0
APPID
  2
ACAD_MLEADERVER
 70
     0
  0
APPID
  2
ACAD_NAV_VCDISPLAY
 70
     0
  0
APPID
  2
ACAD_EXEMPT_FROM_CAD_STANDARDS
 70
     0
  0
ENDTAB
  0
TABLE
  2
DIMSTYLE
 70
     1
  0
DIMSTYLE
  2
STANDARD
 70
     0
  3

  4

  5

  6

  7

 40
1.0
 41
0.18
 42
0.0625
 43
0.38
 44
0.18
 45
0.0
 46
0.0
 47
0.0
 48
0.0
140
0.18
141
0.09
142
0.0
143
25.399999999999999
144
1.0
145
0.0
146
1.0
147
0.09
 71
     0
 72
     0
 73
     1
 74
     1
 75
     0
 76
     0
 77
     0
 78
     0
170
     0
171
     2
172
     0
173
     0
174
     0
175
     0
176
     0
177
     0
178
     0
  0
ENDTAB
  0
ENDSEC
  0
SECTION
  2
BLOCKS
  0
BLOCK
  8
0
  2
$MODEL_SPACE
 70
     0
 10
0.0
 20
0.0
 30
0.0
  3
$MODEL_SPACE
  1

  0
ENDBLK
  5
2D4
  8
0
  0
BLOCK
 67
     1
  8
0
  2
$PAPER_SPACE
 70
     0
 10
0.0
 20
0.0
 30
0.0
  3
$PAPER_SPACE
  1

  0
ENDBLK
  5
2D2
 67
     1
  8
0
  0
ENDSEC
  0
SECTION
  2
ENTITIES
  0
TEXT
  5
A93
  8
0
 62
     3
 10
0.0
 20
0.0
 30
0.0
 40
10.0
  1
EAG140-SA-CL
  7
STANDARD1
  0
LINE
  5
BBC
  8
2
 10
180.0
 20
135.67315114334411
 30
0.0
 11
180.0
 21
131.5
 31
0.0
  0
LINE
  5
BBD
  8
2
 10
181.94999999999999
 20
135.0
 30
0.0
 11
192.75
 21
135.0
 31
0.0
  0
LINE
  5
BBE
  8
2
 10
181.94999999999999
 20
131.5
 30
0.0
 11
181.94999999999999
 21
135.0
 31
0.0
  0
LINE
  5
BBF
  8
2
 10
192.75
 20
131.5
 30
0.0
 11
192.75
 21
135.0
 31
0.0
  0
LINE
  5
BC0
  8
2
 10
179.25
 20
135.5
 30
0.0
 11
194.25000000000011
 21
138.96302286688351
 31
0.0
  0
LINE
  5
BC3
  8
2
 10
194.25
 20
131.5
 30
0.0
 11
179.25
 21
131.5
 31
0.0
  0
LINE
  5
BC6
  8
2
 10
182.5
 20
123.0
 30
0.0
 11
182.5
 21
105.0
 31
0.0
  0
LINE
  5
BC7
  8
2
 10
191.0
 20
105.0
 30
0.0
 11
191.0
 21
123.0
 31
0.0
  0
LINE
  5
BC8
  8
2
 10
180.25
 20
131.5
 30
0.0
 11
180.25
 21
123.0
 31
0.0
  0
LINE
  5
BC9
  8
2
 10
193.25
 20
123.0
 30
0.0
 11
193.25
 21
131.5
 31
0.0
  0
LINE
  5
BCA
  8
2
 10
193.25
 20
123.0
 30
0.0
 11
180.25
 21
123.0
 31
0.0
  0
LINE
  5
BCE
  8
2
 10
179.25
 20
136.6749890439684
 30
0.0
 11
179.25
 21
131.5
 31
0.0
  0
LINE
  5
BCF
  8
2
 10
194.25
 20
131.5
 30
0.0
 11
194.25000000000011
 21
139.6479394838266
 31
0.0
  0
LINE
  5
BD8
  8
1
 10
186.75
 20
143.16146426389739
 30
0.0
 11
186.75
 21
100.0
 31
0.0
  0
LINE
  5
BD9
  8
1
 10
245.25
 20
148.99108300061101
 30
0.0
 11
245.25
 21
130.4999999999975
 31
0.0
  0
ARC
  5
BDC
  8
0
 10
244.8987899705306
 20
-158.52712903403199
 30
0.0
 40
302.56697372667662
 50
76.16512000753147
 51
77.342117604397188
  0
ARC
  5
BE1
  8
0
 10
245.24999999999969
 20
-156.9999999999915
 30
0.0
 40
300.99999999999147
 50
86.936257226854224
 51
93.063742773138046
  0
ARC
  5
BE2
  8
0
 10
245.25000000000281
 20
-157.0000000000253
 30
0.0
 40
301.00000000002541
 50
93.063742773139396
 51
99.754982951619183
  0
ARC
  5
BE3
  8
0
 10
245.60121163392409
 20
-158.52713586836319
 30
0.0
 40
302.56698074648801
 50
102.6675867236283
 51
103.8348799780052
  0
ARC
  5
BE9
  8
0
 10
245.25000000000011
 20
-157.00000000000111
 30
0.0
 40
292.50000000000108
 50
81.050981934670816
 51
98.949018065329227
  0
LINE
  5
BF0
  8
0
 10
173.25
 20
135.2620402650484
 30
0.0
 11
173.25
 21
105.0
 31
0.0
  0
LINE
  5
BF1
  8
0
 10
199.75
 20
105.0
 30
0.0
 11
199.75
 21
131.9394400216072
 31
0.0
  0
LINE
  5
BF2
  8
0
 10
199.75
 20
105.0
 30
0.0
 11
173.25
 21
105.0
 31
0.0
  0
LINE
  5
BF7
  8
0
 10
290.75
 20
131.9394400216072
 30
0.0
 11
290.75
 21
105.0
 31
0.0
  0
LINE
  5
BF8
  8
0
 10
317.25
 20
105.0
 30
0.0
 11
317.25
 21
135.26204026495861
 31
0.0
  0
LINE
  5
BF9
  8
0
 10
317.25
 20
105.0
 30
0.0
 11
290.75
 21
105.0
 31
0.0
  0
LINE
  5
C01
  8
0
 10
310.5
 20
215.72039853263581
 30
0.0
 11
310.5
 21
218.72039853263581
 31
0.0
  0
LINE
  5
C02
  8
0
 10
310.5
 20
218.72039853263581
 30
0.0
 11
311.0415752146464
 21
218.72039853263581
 31
0.0
  0
LINE
  5
C03
  8
0
 10
311.04348236303503
 20
215.72039853263581
 30
0.0
 11
310.5
 21
215.72039853263581
 31
0.0
  0
LINE
  5
C09
  8
0
 10
180.0
 20
218.72039853263581
 30
0.0
 11
180.0
 21
215.72039853263581
 31
0.0
  0
LINE
  5
C0A
  8
0
 10
180.0
 20
215.72039853263581
 30
0.0
 11
179.45538223468219
 21
215.72039853263581
 31
0.0
  0
LINE
  5
C0B
  8
0
 10
179.45829899554769
 20
218.72039853263581
 30
0.0
 11
180.0
 21
218.72039853263581
 31
0.0
  0
CIRCLE
  5
C0C
  8
2
 10
303.75
 20
217.22039853263581
 30
0.0
 40
4.2499999999999956
  0
CIRCLE
  5
C0D
  8
2
 10
186.75
 20
217.22039853263581
 30
0.0
 40
4.2500000000000027
  0
LINE
  5
C13
  8
1
 10
303.75
 20
206.72039853263581
 30
0.0
 11
303.75
 21
227.72039853263581
 31
0.0
  0
LINE
  5
C14
  8
1
 10
168.5003277764061
 20
217.22039853263581
 30
0.0
 11
322.00000000000011
 21
217.22039853263581
 31
0.0
  0
LINE
  5
C15
  8
1
 10
186.75
 20
206.72039853263581
 30
0.0
 11
186.75
 21
227.72039853263581
 31
0.0
  0
LINE
  5
C16
  8
1
 10
245.25
 20
198.97039853263581
 30
0.0
 11
245.25000000000011
 21
235.47039853263581
 31
0.0
  0
LINE
  5
C21
  8
0
 10
186.4999999999998
 20
203.97039853263581
 30
0.0
 11
303.99999999999989
 21
203.9703985326357
 31
0.0
  0
LINE
  5
C5E
  8
0
 10
99.330571964619807
 20
144.00001229929401
 30
0.0
 11
98.111111111111256
 21
143.97026011920769
 31
0.0
  0
LINE
  5
C5F
  8
0
 10
100.66942803538009
 20
143.9999877007059
 30
0.0
 11
99.330571964619807
 21
144.00001229929401
 31
0.0
  0
LINE
  5
C60
  8
0
 10
101.8888888888885
 20
143.97026011920769
 30
0.0
 11
100.67080489217621
 21
143.99998767540919
 31
0.0
  0
LINE
  5
C61
  8
1
 10
100.0
 20
148.99108300061101
 30
0.0
 11
100.0
 21
100.0
 31
0.0
  0
ARC
  5
C65
  8
0
 10
89.149999999999963
 20
140.61625208365521
 30
0.0
 40
2.3999999999999928
 50
100.6044550090391
 51
180.0
  0
ARC
  5
C67
  8
0
 10
110.84999999999999
 20
140.61625208365521
 30
0.0
 40
2.4000000000000248
 50
0.0
 51
79.39554188970375
  0
LINE
  5
C68
  8
0
 10
113.25
 20
105.0
 30
0.0
 11
86.75
 21
105.0
 31
0.0
  0
LINE
  5
C6D
  8
0
 10
86.75
 20
140.61625208365521
 30
0.0
 11
86.75
 21
105.0
 31
0.0
  0
LINE
  5
C6E
  8
0
 10
113.25
 20
105.0
 30
0.0
 11
113.25
 21
140.61625208365521
 31
0.0
  0
ARC
  5
C73
  8
0
 10
99.421236756756912
 20
75.723045043279015
 30
0.0
 40
68.291784796041966
 50
79.990044171462984
 51
87.934237480542478
  0
ARC
  5
C74
  8
0
 10
100.5788789720565
 20
75.722104816653982
 30
0.0
 40
68.292730827394934
 50
92.066234447915875
 51
100.00991422192909
  0
ARC
  5
D54
  8
0
 10
186.4999999999998
 20
217.2203985326357
 30
0.0
 40
13.24999999999986
 50
90.0
 51
270.0
  0
ARC
  5
D55
  8
0
 10
303.99999999999989
 20
217.22039853263581
 30
0.0
 40
13.25000000000011
 50
270.0
 51
90.0
  0
ARC
  5
D57
  8
0
 10
245.24999999999719
 20
-157.0000000000253
 30
0.0
 40
301.00000000002541
 50
80.235359706746408
 51
86.936257226854096
  0
CIRCLE
  5
D6B
  8
0
 10
255.84999999999999
 20
217.2203985326357
 30
0.0
 40
1.5
  0
CIRCLE
  5
D6C
  8
0
 10
245.25
 20
217.2203985326357
 30
0.0
 40
1.5
  0
CIRCLE
  5
D6D
  8
0
 10
234.65000000000009
 20
217.2203985326357
 30
0.0
 40
1.5
  0
CIRCLE
  5
D6E
  8
0
 10
239.9500000000001
 20
217.2203985326357
 30
0.0
 40
1.5
  0
CIRCLE
  5
D6F
  8
0
 10
250.55000000000001
 20
217.2203985326357
 30
0.0
 40
1.5
  0
LINE
  5
D76
  8
2
 10
186.75
 20
123.0
 30
0.0
 11
186.75
 21
131.5
 31
0.0
  0
CIRCLE
  5
D7E
  8
0
 10
186.75
 20
217.22039853263581
 30
0.0
 40
7.5
  0
CIRCLE
  5
D7F
  8
0
 10
303.75
 20
217.22039853263581
 30
0.0
 40
7.5
  0
LINE
  5
D98
  8
0
 10
179.25
 20
136.6749890439684
 30
0.0
 11
194.25000000000011
 21
139.64793948382649
 31
0.0
  0
LINE
  5
D99
  8
2
 10
310.5
 20
135.67315114334411
 30
0.0
 11
310.5
 21
131.5
 31
0.0
  0
LINE
  5
D9A
  8
2
 10
308.55000000000001
 20
135.0
 30
0.0
 11
297.75
 21
135.0
 31
0.0
  0
LINE
  5
D9B
  8
2
 10
308.55000000000001
 20
131.5
 30
0.0
 11
308.55000000000001
 21
135.0
 31
0.0
  0
LINE
  5
D9C
  8
2
 10
297.75
 20
131.5
 30
0.0
 11
297.75
 21
135.0
 31
0.0
  0
LINE
  5
D9D
  8
2
 10
311.25
 20
135.5
 30
0.0
 11
296.24999999999989
 21
138.96302286688351
 31
0.0
  0
LINE
  5
D9E
  8
2
 10
296.25
 20
131.5
 30
0.0
 11
311.25
 21
131.5
 31
0.0
  0
LINE
  5
D9F
  8
2
 10
308.0
 20
123.0
 30
0.0
 11
308.0
 21
105.0
 31
0.0
  0
LINE
  5
DA0
  8
2
 10
299.5
 20
105.0
 30
0.0
 11
299.5
 21
123.0
 31
0.0
  0
LINE
  5
DA1
  8
2
 10
310.25
 20
131.5
 30
0.0
 11
310.25
 21
123.0
 31
0.0
  0
LINE
  5
DA2
  8
2
 10
297.25
 20
123.0
 30
0.0
 11
297.25
 21
131.5
 31
0.0
  0
LINE
  5
DA3
  8
2
 10
297.25
 20
123.0
 30
0.0
 11
310.25
 21
123.0
 31
0.0
  0
LINE
  5
DA4
  8
2
 10
311.25
 20
136.6749890439684
 30
0.0
 11
311.25
 21
131.5
 31
0.0
  0
LINE
  5
DA5
  8
2
 10
296.25
 20
131.5
 30
0.0
 11
296.24999999999989
 21
139.6479394838266
 31
0.0
  0
LINE
  5
DA6
  8
1
 10
303.75
 20
143.16146426389739
 30
0.0
 11
303.75
 21
100.0
 31
0.0
  0
LINE
  5
DA7
  8
2
 10
303.75
 20
123.0
 30
0.0
 11
303.75
 21
131.5
 31
0.0
  0
LINE
  5
DA8
  8
0
 10
311.25
 20
136.6749890439684
 30
0.0
 11
296.24999999999989
 21
139.64793948382649
 31
0.0
  0
LINE
  5
DAB
  8
0
 10
186.4999999999998
 20
230.47039853263561
 30
0.0
 11
303.99999999999977
 21
230.4703985326359
 31
0.0
  0
ARC
  5
E50
  8
2
 10
100.0
 20
165.156223357388
 30
0.0
 40
29.656755488696501
 50
245.96256367453151
 51
294.03743632546838
  0
ARC
  5
E5D
  8
2
 10
111.25
 20
139.89087309751761
 30
0.0
 40
1.999999999999984
 50
294.52525763841589
 51
0.0
  0
ARC
  5
E5E
  8
2
 10
88.749999999999957
 20
139.89087309751761
 30
0.0
 40
1.9999999999999529
 50
180.0
 51
245.4747423615834
  0
ENDSEC
  0
EOF
