  0
SECTION
  2
HEADER
  9
$ACADVER
  1
AC1009
  9
$INSBASE
 10
0.0
 20
0.0
 30
0.0
  9
$EXTMIN
 10
0.0
 20
-2.960436562073669
 30
0.0
  9
$EXTMAX
 10
378.00000000000051
 20
271.30000000000001
 30
0.0
  9
$LIMMIN
 10
0.0
 20
0.0
  9
$LIMMAX
 10
385.0
 20
270.0
  9
$ORTHOMODE
 70
     1
  9
$REGENMODE
 70
     1
  9
$FILLMODE
 70
     1
  9
$QTEXTMODE
 70
     0
  9
$MIRRTEXT
 70
     0
  9
$DRAGMODE
 70
     2
  9
$LTSCALE
 40
10.0
  9
$OSMODE
 70
    37
  9
$ATTMODE
 70
     1
  9
$TEXTSIZE
 40
0.2
  9
$TRACEWID
 40
0.05
  9
$TEXTSTYLE
  7
STANDARD
  9
$CLAYER
  8
0
  9
$CELTYPE
  6
BYLAYER
  9
$CECOLOR
 62
   256
  9
$DIMSCALE
 40
1.0
  9
$DIMASZ
 40
3.0
  9
$DIMEXO
 40
0.5
  9
$DIMDLI
 40
0.38
  9
$DIMRND
 40
0.0
  9
$DIMDLE
 40
0.0
  9
$DIMEXE
 40
1.0
  9
$DIMTP
 40
0.0
  9
$DIMTM
 40
0.0
  9
$DIMTXT
 40
3.0
  9
$DIMCEN
 40
0.0
  9
$DIMTSZ
 40
0.0
  9
$DIMTOL
 70
     0
  9
$DIMLIM
 70
     0
  9
$DIMTIH
 70
     0
  9
$DIMTOH
 70
     0
  9
$DIMSE1
 70
     0
  9
$DIMSE2
 70
     0
  9
$DIMTAD
 70
     1
  9
$DIMZIN
 70
     0
  9
$DIMBLK
  1

  9
$DIMASO
 70
     1
  9
$DIMSHO
 70
     1
  9
$DIMPOST
  1

  9
$DIMAPOST
  1

  9
$DIMALT
 70
     0
  9
$DIMALTD
 70
     2
  9
$DIMALTF
 40
25.399999999999999
  9
$DIMLFAC
 40
1.0
  9
$DIMTOFL
 70
     0
  9
$DIMTVP
 40
0.0
  9
$DIMTIX
 70
     0
  9
$DIMSOXD
 70
     0
  9
$DIMSAH
 70
     0
  9
$DIMBLK1
  1

  9
$DIMBLK2
  1

  9
$DIMSTYLE
  2
STANDARD
  9
$DIMCLRD
 70
     0
  9
$DIMCLRE
 70
     0
  9
$DIMCLRT
 70
     0
  9
$DIMTFAC
 40
1.0
  9
$DIMGAP
 40
0.5
  9
$LUNITS
 70
     2
  9
$LUPREC
 70
     1
  9
$SKETCHINC
 40
0.1
  9
$FILLETRAD
 40
2.399999999999999
  9
$AUNITS
 70
     0
  9
$AUPREC
 70
     1
  9
$MENU
  1
E:\r13\win\SUPPORT\ACAD
  9
$ELEVATION
 40
0.0
  9
$PELEVATION
 40
0.0
  9
$THICKNESS
 40
0.0
  9
$LIMCHECK
 70
     0
  9
$BLIPMODE
 70
     0
  9
$CHAMFERA
 40
0.0
  9
$CHAMFERB
 40
0.0
  9
$SKPOLY
 70
     0
  9
$TDCREATE
 40
2451600.4576087962
  9
$TDUPDATE
 40
2458837.7113691429
  9
$TDINDWG
 40
0.3802688194
  9
$TDUSRTIMER
 40
0.3802688194
  9
$USRTIMER
 70
     1
  9
$ANGBASE
 50
0.0
  9
$ANGDIR
 70
     0
  9
$PDMODE
 70
     0
  9
$PDSIZE
 40
0.0
  9
$PLINEWID
 40
0.0
  9
$COORDS
 70
     1
  9
$SPLFRAME
 70
     0
  9
$SPLINETYPE
 70
     6
  9
$SPLINESEGS
 70
     8
  9
$ATTDIA
 70
     0
  9
$ATTREQ
 70
     1
  9
$HANDLING
 70
     1
  9
$HANDSEED
  5
26E9
  9
$SURFTAB1
 70
     6
  9
$SURFTAB2
 70
     6
  9
$SURFTYPE
 70
     6
  9
$SURFU
 70
     6
  9
$SURFV
 70
     6
  9
$UCSNAME
  2

  9
$UCSORG
 10
0.0
 20
0.0
 30
0.0
  9
$UCSXDIR
 10
1.0
 20
0.0
 30
0.0
  9
$UCSYDIR
 10
0.0
 20
1.0
 30
0.0
  9
$PUCSNAME
  2

  9
$PUCSORG
 10
0.0
 20
0.0
 30
0.0
  9
$PUCSXDIR
 10
1.0
 20
0.0
 30
0.0
  9
$PUCSYDIR
 10
0.0
 20
1.0
 30
0.0
  9
$USERI1
 70
     3
  9
$USERI2
 70
     1
  9
$USERI3
 70
     1
  9
$USERI4
 70
     0
  9
$USERI5
 70
     0
  9
$USERR1
 40
1.0
  9
$USERR2
 40
3.0
  9
$USERR3
 40
3.0
  9
$USERR4
 40
3.0
  9
$USERR5
 40
10.0
  9
$WORLDVIEW
 70
     1
  9
$SHADEDGE
 70
     3
  9
$SHADEDIF
 70
    70
  9
$TILEMODE
 70
     1
  9
$MAXACTVP
 70
    16
  9
$PLIMCHECK
 70
     0
  9
$PEXTMIN
 10
1.0000000000000000E+020
 20
1.0000000000000000E+020
 30
1.0000000000000000E+020
  9
$PEXTMAX
 10
-1.0000000000000000E+020
 20
-1.0000000000000000E+020
 30
-1.0000000000000000E+020
  9
$PLIMMIN
 10
0.0
 20
0.0
  9
$PLIMMAX
 10
12.0
 20
9.0
  9
$UNITMODE
 70
     0
  9
$VISRETAIN
 70
     0
  9
$PLINEGEN
 70
     0
  9
$PSLTSCALE
 70
     0
  0
ENDSEC
  0
SECTION
  2
TABLES
  0
TABLE
  2
VPORT
 70
     1
  0
VPORT
  2
*ACTIVE
 70
     0
 10
0.0
 20
0.0
 11
1.0
 21
1.0
 12
483.12883435582819
 22
200.0
 13
0.0
 23
0.0
 14
5.0
 24
5.0
 15
0.0
 25
0.0
 16
0.0
 26
0.0
 36
1.0
 17
0.0
 27
0.0
 37
0.0
 40
400.0
 41
2.415644171779141
 42
50.0
 43
0.0
 44
0.0
 50
0.0
 51
0.0
 71
     0
 72
  1000
 73
     1
 74
     0
 75
     0
 76
     0
 77
     0
 78
     0
  0
ENDTAB
  0
TABLE
  2
LTYPE
 70
     4
  0
LTYPE
  2
CONTINUOUS
 70
     0
  3
Solid Line
 72
    65
 73
     0
 40
0.0
  0
LTYPE
  2
CENTER
 70
     0
  3
____ _ ____ _ ____ _ ____ _ ____ _ ____ _ ____
 72
    65
 73
     4
 40
2.0
 49
1.25
 49
-0.25
 49
0.25
 49
-0.25
  0
LTYPE
  2
HIDDEN
 70
     0
  3
_ _ _ _ _ _ _ _ _ _ _ _ _ _ _ _ _ _ _ _ _ _ _
 72
    65
 73
     2
 40
0.375
 49
0.25
 49
-0.125
  0
LTYPE
  2
PHANTOM2
 70
     0
  3
___ _ _ ___ _ _ ___ _ _ ___ _ _
 72
    65
 73
     6
 40
1.25
 49
0.625
 49
-0.125
 49
0.125
 49
-0.125
 49
0.125
 49
-0.125
  0
ENDTAB
  0
TABLE
  2
LAYER
 70
     5
  0
LAYER
  2
0
 70
     0
 62
     7
  6
CONTINUOUS
  0
LAYER
  2
1
 70
     0
 62
     1
  6
CENTER
  0
LAYER
  2
2
 70
     0
 62
     2
  6
HIDDEN
  0
LAYER
  2
3
 70
     0
 62
     3
  6
CONTINUOUS
  0
LAYER
  2
DEFPOINTS
 70
     0
 62
     7
  6
CONTINUOUS
  0
ENDTAB
  0
TABLE
  2
STYLE
 70
     2
  0
STYLE
  2
STANDARD
 70
     0
 40
0.0
 41
1.0
 50
0.0
 71
     0
 42
0.2
  3
SIMPLEX
  4
BIGFONT
  0
STYLE
  2
STANDARD1
 70
     0
 40
0.0
 41
1.0
 50
0.0
 71
     0
 42
3.0
  3
txt
  4

  0
ENDTAB
  0
TABLE
  2
VIEW
 70
     0
  0
ENDTAB
  0
TABLE
  2
UCS
 70
     0
  0
ENDTAB
  0
TABLE
  2
APPID
 70
    41
  0
APPID
  2
ACAD
 70
     0
  0
APPID
  2
ACAD_MLEADERVER
 70
     0
  0
APPID
  2
ACAD_EXEMPT_FROM_CAD_STANDARDS
 70
     0
  0
APPID
  2
ACAD_NAV_VCDISPLAY
 70
     0
  0
APPID
  2
ACAD_DSTYLE_DIMRADIAL_EXTENSION
 70
     0
  0
APPID
  2
ACAD_DSTYLE_DIMJAG
 70
     0
  0
APPID
  2
ACAD_DSTYLE_DIMTALN
 70
     0
  0
APPID
  2
GENIUS_GENODEF_13
 70
     0
  0
APPID
  2
GENIUS_GENOBJ-N-FIL_13
 70
     0
  0
APPID
  2
ACCMTRANSPARENCY
 70
     0
  0
APPID
  2
GRADIENTCOLOR1ACI
 70
     0
  0
APPID
  2
GRADIENTCOLOR2ACI
 70
     0
  0
APPID
  2
DCO15
 70
     0
  0
APPID
  2
GENIUS_GENOREF_13
 70
     0
  0
APPID
  2
MCAD_NO_VIS
 70
     0
  0
APPID
  2
ACAD_TEMP_GRAPHIC
 70
     0
  0
APPID
  2
ACATTRIBSERVICES
 70
     0
  0
APPID
  2
GENIUS_GENCFG_13
 70
     0
  0
APPID
  2
GENIUS_GENCFG0_13
 70
     0
  0
APPID
  2
GENIUS_GENCFG1_13
 70
     0
  0
APPID
  2
ASM_BASE
 70
     0
  0
APPID
  2
GENIUS_GENFIL_13
 70
     0
  0
APPID
  2
GENIUS_GENOBJ-N-CHA_13
 70
     0
  0
APPID
  2
GENIUS_GENDTOL_13
 70
     0
  0
APPID
  2
GENIUS_GENOBJ-N-HTC_13
 70
     0
  0
APPID
  2
GENIUS_GENHATCH_13
 70
     0
  0
APPID
  2
GENIUS_GENDIMSH_14
 70
     0
  0
APPID
  2
GENIUS_GENOBJ-N-CRS_13
 70
     0
  0
APPID
  2
GENIUS_GENOLIS_13
 70
     0
  0
APPID
  2
GENIUS_GENOENT_13
 70
     0
  0
APPID
  2
CONTENTTABDATA
 70
     0
  0
APPID
  2
CONTENTCURRENTTAB
 70
     0
  0
APPID
  2
GENIUS_GENCFG2_13
 70
     0
  0
APPID
  2
GENIUS_GENCFG3_13
 70
     0
  0
APPID
  2
GENIUS_GENCFG4_13
 70
     0
  0
APPID
  2
GENIUS_GEVCFG0_13
 70
     0
  0
APPID
  2
GENIUS_GENBLKED_14
 70
     0
  0
APPID
  2
ADE
 70
     0
  0
APPID
  2
ACAD_PSEXT
 70
     0
  0
APPID
  2
ACAD_DSTYLE_DIMBREAK
 70
     0
  0
APPID
  2
ACAECLAYERSTANDARD
 70
     0
  0
ENDTAB
  0
TABLE
  2
DIMSTYLE
 70
     1
  0
DIMSTYLE
  2
STANDARD
 70
     0
  3

  4

  5

  6

  7

 40
1.0
 41
0.18
 42
0.0625
 43
0.38
 44
0.18
 45
0.0
 46
0.0
 47
0.0
 48
0.0
140
0.18
141
0.09
142
0.0
143
25.399999999999999
144
1.0
145
0.0
146
1.0
147
0.09
 71
     0
 72
     0
 73
     1
 74
     1
 75
     0
 76
     0
 77
     0
 78
     0
170
     0
171
     2
172
     0
173
     0
174
     0
175
     0
176
     0
177
     0
178
     0
  0
ENDTAB
  0
ENDSEC
  0
SECTION
  2
BLOCKS
  0
BLOCK
  8
0
  2
$MODEL_SPACE
 70
     0
 10
0.0
 20
0.0
 30
0.0
  3
$MODEL_SPACE
  1

  0
ENDBLK
  5
239
  8
0
  0
BLOCK
 67
     1
  8
0
  2
$PAPER_SPACE
 70
     0
 10
0.0
 20
0.0
 30
0.0
  3
$PAPER_SPACE
  1

  0
ENDBLK
  5
237
 67
     1
  8
0
  0
ENDSEC
  0
SECTION
  2
ENTITIES
  0
TEXT
  5
3FB
  8
0
 62
     3
 10
0.0
 20
0.0
 30
0.0
 40
10.0
  1
EAG140LK-22
  7
STANDARD1
  0
ARC
  5
22D3
  8
0
 10
256.5
 20
133.72608695652161
 30
0.0
 40
7.726086956521681
 50
224.61241010981911
 51
315.38758989022222
  0
LINE
  5
22D5
  8
0
 10
250.9999999999998
 20
129.30000000000001
 30
0.0
 11
250.9999999999998
 21
128.30000000000001
 31
0.0
  0
LINE
  5
22D6
  8
0
 10
262.0
 20
128.30000000000001
 30
0.0
 11
262.0
 21
129.30000000000001
 31
0.0
  0
LINE
  5
22FE
  8
0
 10
296.50099999999998
 20
125.2999999999999
 30
0.0
 11
296.50099999999998
 21
129.30000000000001
 31
0.0
  0
LINE
  5
22FF
  8
0
 10
301.49999999999977
 20
129.30000000000001
 30
0.0
 11
301.49999999999977
 21
125.2999999999999
 31
0.0
  0
LINE
  5
2302
  8
0
 10
247.9999999999998
 20
129.30000000000001
 30
0.0
 11
247.9999999999998
 21
133.2999999999999
 31
0.0
  0
LINE
  5
2303
  8
0
 10
250.49000000000001
 20
133.2999999999999
 30
0.0
 11
250.49000000000001
 21
129.30000000000001
 31
0.0
  0
LINE
  5
2306
  8
0
 10
285.5
 20
125.3
 30
0.0
 11
273.5
 21
129.30000000000001
 31
0.0
  0
LINE
  5
2307
  8
0
 10
273.9868329805052
 20
133.2999999999999
 30
0.0
 11
285.98683298050508
 21
129.30000000000001
 31
0.0
  0
LINE
  5
2308
  8
0
 10
247.9999999999998
 20
133.30000000000001
 30
0.0
 11
273.9868329805052
 21
133.2999999999999
 31
0.0
  0
LINE
  5
2309
  8
0
 10
285.98683298050508
 20
129.30000000000001
 30
0.0
 11
301.4999999999996
 21
129.30000000000001
 31
0.0
  0
LINE
  5
230A
  8
0
 10
273.5
 20
129.30000000000001
 30
0.0
 11
247.9999999999998
 21
129.30000000000001
 31
0.0
  0
LINE
  5
230B
  8
0
 10
301.49999999999977
 20
125.3
 30
0.0
 11
285.5
 21
125.3
 31
0.0
  0
LINE
  5
2313
  8
0
 10
251.0
 20
128.30000000000001
 30
0.0
 11
262.0
 21
128.30000000000001
 31
0.0
  0
LINE
  5
2339
  8
0
 10
273.98683298050543
 20
263.30000000000001
 30
0.0
 11
273.98683298050543
 21
243.30000000000001
 31
0.0
  0
LINE
  5
233A
  8
0
 10
285.98683298050543
 20
263.30000000000001
 30
0.0
 11
285.98683298050543
 21
243.30000000000001
 31
0.0
  0
LINE
  5
234D
  8
0
 10
285.50000000000023
 20
52.999999999999972
 30
0.0
 11
285.50000000000023
 21
73.0
 31
0.0
  0
LINE
  5
2354
  8
0
 10
273.50000000000023
 20
52.999999999999972
 30
0.0
 11
273.50000000000023
 21
73.0
 31
0.0
  0
LINE
  5
23A4
  8
0
 10
73.0
 20
129.30000000000001
 30
0.0
 11
53.0
 21
129.30000000000001
 31
0.0
  0
LINE
  5
23A5
  8
0
 10
53.0
 20
133.2999999999999
 30
0.0
 11
52.999999999999943
 21
125.3
 31
0.0
  0
LINE
  5
23A6
  8
0
 10
55.486685152344528
 20
133.2999999999999
 30
0.0
 11
55.486685152344528
 21
129.30000000000001
 31
0.0
  0
LINE
  5
23A7
  8
0
 10
53.0
 20
133.2999999999999
 30
0.0
 11
73.0
 21
133.2999999999999
 31
0.0
  0
LINE
  5
23A8
  8
0
 10
70.513314847655465
 20
129.30000000000001
 30
0.0
 11
70.513314847655465
 21
133.2999999999999
 31
0.0
  0
LINE
  5
23AC
  8
0
 10
73.0
 20
133.2999999999999
 30
0.0
 11
72.999999999999943
 21
125.3
 31
0.0
  0
LINE
  5
23B4
  8
0
 10
53.0
 20
125.3
 30
0.0
 11
73.0
 21
125.3
 31
0.0
  0
LINE
  5
23D0
  8
0
 10
374.5000000000004
 20
125.3
 30
0.0
 11
354.50000000000051
 21
125.3
 31
0.0
  0
LINE
  5
23D1
  8
0
 10
354.50000000000051
 20
129.30000000000001
 30
0.0
 11
374.5000000000004
 21
129.30000000000001
 31
0.0
  0
LINE
  5
23D8
  8
0
 10
374.5000000000004
 20
133.2999999999999
 30
0.0
 11
354.50000000000051
 21
133.2999999999999
 31
0.0
  0
LINE
  5
23D9
  8
0
 10
354.50000000000051
 20
133.2999999999999
 30
0.0
 11
354.50000000000051
 21
125.3
 31
0.0
  0
LINE
  5
23DA
  8
0
 10
374.5000000000004
 20
133.2999999999999
 30
0.0
 11
374.5000000000004
 21
125.3
 31
0.0
  0
LINE
  5
23F4
  8
0
 10
152.0
 20
151.30000000000001
 30
0.0
 11
152.0
 21
174.86046311927319
 31
0.0
  0
LINE
  5
23F5
  8
0
 10
244.0
 20
174.86046311927319
 30
0.0
 11
244.0
 21
151.30000000000001
 31
0.0
  0
LINE
  5
23F6
  8
0
 10
245.5
 20
138.30000000000001
 30
0.0
 11
245.5
 21
137.00999999999999
 31
0.0
  0
LINE
  5
23F7
  8
0
 10
267.5
 20
137.00999999999999
 30
0.0
 11
267.5
 21
138.30000000000001
 31
0.0
  0
LINE
  5
23F8
  8
0
 10
245.5
 20
151.30000000000001
 30
0.0
 11
245.5
 21
143.30000000000001
 31
0.0
  0
LINE
  5
23F9
  8
0
 10
267.5
 20
143.30000000000001
 30
0.0
 11
267.5
 21
151.30000000000001
 31
0.0
  0
LINE
  5
23FA
  8
0
 10
248.0
 20
136.2999999999999
 30
0.0
 11
248.0
 21
134.00999999999999
 31
0.0
  0
LINE
  5
23FB
  8
0
 10
265.0
 20
134.00999999999999
 30
0.0
 11
265.0
 21
136.2999999999999
 31
0.0
  0
LINE
  5
23FC
  8
0
 10
248.0
 20
134.00999999999999
 30
0.0
 11
248.70999999999989
 21
133.30000000000001
 31
0.0
  0
LINE
  5
23FD
  8
0
 10
264.29000000000008
 20
133.30000000000001
 30
0.0
 11
265.0
 21
134.00999999999999
 31
0.0
  0
LINE
  5
23FE
  8
0
 10
241.0
 20
139.4547005383792
 30
0.0
 11
243.0
 21
138.30000000000001
 31
0.0
  0
LINE
  5
23FF
  8
0
 10
270.0
 20
138.30000000000001
 30
0.0
 11
272.0
 21
139.4547005383792
 31
0.0
  0
LINE
  5
2403
  8
0
 10
241.0
 20
143.30000000000001
 30
0.0
 11
241.0
 21
139.4547005383792
 31
0.0
  0
LINE
  5
2404
  8
0
 10
272.0
 20
139.4547005383792
 30
0.0
 11
272.0
 21
143.30000000000001
 31
0.0
  0
LINE
  5
2405
  8
0
 10
126.0000000000001
 20
151.30000000000001
 30
0.0
 11
126.0
 21
179.4815535006974
 31
0.0
  0
LINE
  5
2406
  8
0
 10
270.0
 20
179.4815535006974
 30
0.0
 11
270.0
 21
151.30000000000001
 31
0.0
  0
ARC
  5
2407
  8
0
 10
197.99999999999969
 20
-57.638778484395829
 30
0.0
 40
239.442164868682
 50
79.521843583570927
 51
100.478156416429
  0
ARC
  5
2408
  8
0
 10
198.0
 20
-54.699999999999982
 30
0.0
 40
245.0
 50
72.909757375246414
 51
107.0902426247535
  0
LINE
  5
2409
  8
0
 10
152.0
 20
151.30000000000001
 30
0.0
 11
126.0
 21
151.30000000000001
 31
0.0
  0
LINE
  5
240A
  8
0
 10
270.0
 20
151.30000000000001
 30
0.0
 11
244.0
 21
151.30000000000001
 31
0.0
  0
ARC
  5
240B
  8
0
 10
256.23085819325451
 20
165.7671991100475
 30
0.0
 40
27.468517693227192
 50
270.56140402415292
 51
286.6815934519451
  0
LINE
  5
240C
  8
0
 10
264.11577310586392
 20
139.4547005383792
 30
0.0
 11
264.38345639815788
 21
139.4547005383792
 31
0.0
  0
POLYLINE
  5
240D
  8
0
 66
     1
 10
0.0
 20
0.0
 30
0.0
 70
   128
  0
VERTEX
  5
2699
  8
0
 10
264.38345639815788
 20
139.4547005383792
 30
0.0
  0
VERTEX
  5
269A
  8
0
 10
266.25030998077187
 20
138.6158563627705
 30
0.0
  0
VERTEX
  5
269B
  8
0
 10
268.19134295108989
 20
138.30000000000001
 30
0.0
  0
SEQEND
  5
269C
  8
0
  0
ARC
  5
240E
  8
0
 10
244.65075899772091
 20
145.67673903268451
 30
0.0
 40
7.378428731844008
 50
271.22622077327372
 51
302.51250187546128
  0
LINE
  5
240F
  8
0
 10
248.61654360184201
 20
139.4547005383792
 30
0.0
 11
248.88422689413611
 21
139.4547005383792
 31
0.0
  0
ARC
  5
2410
  8
0
 10
256.85922505022552
 20
166.36133890662791
 30
0.0
 40
28.063638108223621
 50
253.49042993257021
 51
269.26657259132799
  0
LINE
  5
2411
  8
0
 10
248.88422689413611
 20
143.30000000000001
 30
0.0
 11
248.88422689413611
 21
139.4547005383792
 31
0.0
  0
LINE
  5
2412
  8
0
 10
264.11577310586392
 20
139.4547005383792
 30
0.0
 11
264.11577310586392
 21
143.30000000000001
 31
0.0
  0
LINE
  5
2413
  8
0
 10
264.38345639815788
 20
143.30000000000001
 30
0.0
 11
264.38345639815788
 21
139.4547005383792
 31
0.0
  0
LINE
  5
2414
  8
0
 10
248.61654360184201
 20
139.4547005383792
 30
0.0
 11
248.61654360184201
 21
143.30000000000001
 31
0.0
  0
POLYLINE
  5
2415
  8
0
 66
     1
 10
0.0
 20
0.0
 30
0.0
 70
   128
  0
VERTEX
  5
269D
  8
0
 10
241.0
 20
139.4547005383792
 30
0.0
  0
VERTEX
  5
269E
  8
0
 10
242.8676240785922
 20
138.6158563627705
 30
0.0
  0
VERTEX
  5
269F
  8
0
 10
244.80865704890999
 20
138.30000000000001
 30
0.0
  0
SEQEND
  5
26A0
  8
0
  0
LINE
  5
2416
  8
0
 10
246.21000000000001
 20
136.2999999999999
 30
0.0
 11
266.79000000000008
 21
136.2999999999999
 31
0.0
  0
LINE
  5
241D
  8
0
 10
248.0
 20
134.00999999999999
 30
0.0
 11
265.0
 21
134.00999999999999
 31
0.0
  0
LINE
  5
241E
  8
0
 10
243.0
 20
138.30000000000001
 30
0.0
 11
270.00000000000011
 21
138.30000000000001
 31
0.0
  0
LINE
  5
2420
  8
0
 10
241.0
 20
143.30000000000001
 30
0.0
 11
272.0
 21
143.30000000000001
 31
0.0
  0
LINE
  5
2421
  8
2
 10
141.95849999999999
 20
151.8415
 30
0.0
 11
137.0414999999999
 21
151.8415
 31
0.0
  0
LINE
  5
2422
  8
2
 10
141.95849999999999
 20
166.8805843631973
 30
0.0
 11
137.0414999999999
 21
166.8805843631973
 31
0.0
  0
LINE
  5
2423
  8
2
 10
142.5
 20
151.30000000000001
 30
0.0
 11
141.95849999999999
 21
151.8415
 31
0.0
  0
LINE
  5
2424
  8
2
 10
137.0414999999999
 20
151.8415
 30
0.0
 11
136.5
 21
151.30000000000001
 31
0.0
  0
LINE
  5
2425
  8
2
 10
141.95849999999999
 20
151.8415
 30
0.0
 11
141.95849999999999
 21
166.8805843631973
 31
0.0
  0
LINE
  5
2426
  8
2
 10
137.0414999999999
 20
166.8805843631973
 30
0.0
 11
137.0414999999999
 21
151.8415
 31
0.0
  0
LINE
  5
2427
  8
2
 10
141.95849999999999
 20
166.8805843631973
 30
0.0
 11
139.5
 21
168.30000000000001
 31
0.0
  0
LINE
  5
2428
  8
2
 10
139.5
 20
168.30000000000001
 30
0.0
 11
137.0414999999999
 21
166.8805843631973
 31
0.0
  0
ARC
  5
2429
  8
0
 10
138.99272265862569
 20
253.29724319574831
 30
0.0
 40
13.022903674198959
 50
93.187450965698773
 51
176.0984735921046
  0
LINE
  5
242A
  8
0
 10
138.26861244812511
 20
266.30000000000001
 30
0.0
 11
257.7313875518746
 21
266.30000000000001
 31
0.0
  0
ARC
  5
242B
  8
0
 10
257.00585241025522
 20
253.2958003941682
 30
0.0
 40
13.02442354309939
 50
3.9074322161469288
 51
86.806643226044443
  0
LINE
  5
242C
  8
0
 10
270.0
 20
254.18334591185959
 30
0.0
 11
270.0
 21
252.41665408814089
 31
0.0
  0
ARC
  5
242D
  8
0
 10
257.00727734137462
 20
253.3027568042514
 30
0.0
 40
13.02290367419862
 50
273.18745096569882
 51
356.09847359210943
  0
LINE
  5
242E
  8
0
 10
138.2686124481248
 20
240.30000000000001
 30
0.0
 11
257.731387551875
 21
240.30000000000001
 31
0.0
  0
ARC
  5
242F
  8
0
 10
138.98999999999981
 20
253.2999999999997
 30
0.0
 40
13.01999999999968
 50
183.89023816900661
 51
266.8238372731895
  0
LINE
  5
2430
  8
0
 10
126.0
 20
252.41665408814021
 30
0.0
 11
126.0
 21
254.1833459118599
 31
0.0
  0
ARC
  5
2431
  8
0
 10
256.5
 20
253.2999999999999
 30
0.0
 40
15.500000000000011
 50
299.42870717686702
 51
300.57129282313531
  0
LINE
  5
2432
  8
0
 10
264.11577310586392
 20
239.80000000000001
 30
0.0
 11
248.88422689413611
 21
239.80000000000001
 31
0.0
  0
ARC
  5
2433
  8
0
 10
256.5
 20
253.2999999999999
 30
0.0
 40
15.499999999999989
 50
239.42870717686469
 51
240.57129282313289
  0
LINE
  5
2434
  8
0
 10
248.61654360184201
 20
239.95454702086349
 30
0.0
 11
248.4170962313454
 21
240.29999999999981
 31
0.0
  0
LINE
  5
2435
  8
0
 10
264.38345639815788
 20
266.64545297913639
 30
0.0
 11
271.9992295040218
 21
253.45454702086349
 31
0.0
  0
ARC
  5
2436
  8
0
 10
256.5
 20
253.2999999999999
 30
0.0
 40
15.49999999999998
 50
359.42870717686827
 51
0.5712928231331443
  0
LINE
  5
2437
  8
0
 10
271.9992295040218
 20
253.14545297913639
 30
0.0
 11
264.38345639815788
 21
239.9545470208634
 31
0.0
  0
ARC
  5
2438
  8
0
 10
256.5
 20
253.2999999999999
 30
0.0
 40
15.5
 50
59.428707176864727
 51
60.57129282313295
  0
LINE
  5
2439
  8
0
 10
248.4170962313452
 20
266.29999999999978
 30
0.0
 11
248.61654360184201
 21
266.64545297913639
 31
0.0
  0
ARC
  5
243A
  8
0
 10
256.5
 20
253.2999999999999
 30
0.0
 40
15.5
 50
119.42870717686699
 51
120.57129282313529
  0
LINE
  5
243B
  8
0
 10
248.88422689413611
 20
266.80000000000001
 30
0.0
 11
264.11577310586392
 21
266.80000000000001
 31
0.0
  0
ARC
  5
243C
  8
0
 10
289.00099999999998
 20
253.2999999999999
 30
0.0
 40
12.50000000000002
 50
0.7247454859977499
 51
53.13010235415436
  0
LINE
  5
243D
  8
0
 10
301.5
 20
253.4581107206993
 30
0.0
 11
301.5
 21
253.1418892793007
 31
0.0
  0
ARC
  5
243E
  8
0
 10
289.00099999999998
 20
253.2999999999999
 30
0.0
 40
12.50000000000002
 50
306.8698976458457
 51
359.27525451400379
  0
LINE
  5
243F
  8
0
 10
266.31495457622361
 20
243.30000000000001
 30
0.0
 11
296.50099999999998
 21
243.30000000000001
 31
0.0
  0
LINE
  5
2440
  8
0
 10
266.31495457622361
 20
263.30000000000001
 30
0.0
 11
296.50099999999998
 21
263.30000000000001
 31
0.0
  0
LINE
  5
2441
  8
0
 10
76.0
 20
190.30000000000001
 30
0.0
 11
50.0
 21
190.30000000000001
 31
0.0
  0
LINE
  5
2442
  8
0
 10
76.0
 20
151.30000000000001
 30
0.0
 11
76.0
 21
163.6768141019478
 31
0.0
  0
LINE
  5
2443
  8
0
 10
50.0
 20
163.6768141019478
 30
0.0
 11
50.0
 21
151.30000000000001
 31
0.0
  0
LINE
  5
2444
  8
0
 10
52.0
 20
138.30000000000001
 30
0.0
 11
52.0
 21
137.00999999999991
 31
0.0
  0
LINE
  5
2445
  8
0
 10
74.0
 20
137.0100000000001
 30
0.0
 11
74.0
 21
138.30000000000001
 31
0.0
  0
LINE
  5
2446
  8
0
 10
52.0
 20
151.30000000000001
 30
0.0
 11
52.0
 21
143.30000000000001
 31
0.0
  0
LINE
  5
2447
  8
0
 10
74.0
 20
143.30000000000001
 30
0.0
 11
74.0
 21
151.30000000000001
 31
0.0
  0
LINE
  5
2448
  8
0
 10
54.5
 20
134.00999999999999
 30
0.0
 11
55.209999999999923
 21
133.30000000000001
 31
0.0
  0
LINE
  5
2449
  8
0
 10
70.789999999999964
 20
133.30000000000001
 30
0.0
 11
71.5
 21
134.00999999999999
 31
0.0
  0
LINE
  5
244A
  8
0
 10
54.5
 20
136.2999999999999
 30
0.0
 11
54.5
 21
134.00999999999999
 31
0.0
  0
LINE
  5
244B
  8
0
 10
71.5
 20
134.00999999999999
 30
0.0
 11
71.5
 21
136.2999999999999
 31
0.0
  0
ARC
  5
244C
  8
0
 10
63.0
 20
133.72608695652161
 30
0.0
 40
7.7260869565216721
 50
224.61241010981911
 51
315.38758989018089
  0
LINE
  5
244D
  8
0
 10
57.5
 20
129.30000000000001
 30
0.0
 11
57.5
 21
128.30000000000001
 31
0.0
  0
LINE
  5
244E
  8
0
 10
68.5
 20
128.30000000000001
 30
0.0
 11
68.5
 21
129.30000000000001
 31
0.0
  0
POLYLINE
  5
244F
  8
0
 66
     1
 10
0.0
 20
0.0
 30
0.0
 70
   128
  0
VERTEX
  5
26A1
  8
0
 10
62.116654088140187
 20
179.4815535006974
 30
0.0
  0
VERTEX
  5
26A2
  8
0
 10
60.005903248795327
 20
179.57985482119889
 30
0.0
  0
VERTEX
  5
26A3
  8
0
 10
57.981380252200893
 20
179.7794346176444
 30
0.0
  0
VERTEX
  5
26A4
  8
0
 10
56.103387385584483
 20
180.07161349600241
 30
0.0
  0
VERTEX
  5
26A5
  8
0
 10
54.415070427848597
 20
180.44194373092409
 30
0.0
  0
VERTEX
  5
26A6
  8
0
 10
52.927806972901067
 20
180.88697247379011
 30
0.0
  0
VERTEX
  5
26A7
  8
0
 10
51.716385951341522
 20
181.38036635729051
 30
0.0
  0
VERTEX
  5
26A8
  8
0
 10
50.78221412187213
 20
181.92608563797631
 30
0.0
  0
VERTEX
  5
26A9
  8
0
 10
50.197747999992323
 20
182.4863071356751
 30
0.0
  0
VERTEX
  5
26AA
  8
0
 10
50.0
 20
182.9071575965836
 30
0.0
  0
SEQEND
  5
26AB
  8
0
  0
LINE
  5
2450
  8
0
 10
50.0
 20
182.9071575965836
 30
0.0
 11
50.0
 21
190.30000000000001
 31
0.0
  0
LINE
  5
2451
  8
0
 10
76.0
 20
182.90715759658349
 30
0.0
 11
76.0
 21
190.30000000000001
 31
0.0
  0
POLYLINE
  5
2452
  8
0
 66
     1
 10
0.0
 20
0.0
 30
0.0
 70
   128
  0
VERTEX
  5
26AC
  8
0
 10
76.0
 20
182.90715759658349
 30
0.0
  0
VERTEX
  5
26AD
  8
0
 10
75.891353282574073
 20
182.62679987691661
 30
0.0
  0
VERTEX
  5
26AE
  8
0
 10
75.687446136516087
 20
182.34259899792241
 30
0.0
  0
VERTEX
  5
26AF
  8
0
 10
75.382700601919169
 20
182.05254780539801
 30
0.0
  0
VERTEX
  5
26B0
  8
0
 10
74.97928962408082
 20
181.7631465126511
 30
0.0
  0
VERTEX
  5
26B1
  8
0
 10
74.500712848545959
 20
181.48894626430891
 30
0.0
  0
VERTEX
  5
26B2
  8
0
 10
73.93313364091739
 20
181.22035536857661
 30
0.0
  0
VERTEX
  5
26B3
  8
0
 10
73.267712462622626
 20
180.95625126939169
 30
0.0
  0
VERTEX
  5
26B4
  8
0
 10
72.514383293879632
 20
180.70360828993179
 30
0.0
  0
VERTEX
  5
26B5
  8
0
 10
71.724567133835876
 20
180.478261533161
 30
0.0
  0
VERTEX
  5
26B6
  8
0
 10
70.862445294951144
 20
180.26874047355039
 30
0.0
  0
VERTEX
  5
26B7
  8
0
 10
69.916952457915727
 20
180.07500175070189
 30
0.0
  0
VERTEX
  5
26B8
  8
0
 10
68.905942502885068
 20
179.90336637660269
 30
0.0
  0
VERTEX
  5
26B9
  8
0
 10
67.923879963022159
 20
179.7675759079971
 30
0.0
  0
VERTEX
  5
26BA
  8
0
 10
66.897662381500027
 20
179.65515727664399
 30
0.0
  0
VERTEX
  5
26BB
  8
0
 10
65.816634812329312
 20
179.56694114989151
 30
0.0
  0
VERTEX
  5
26BC
  8
0
 10
64.703924163457145
 20
179.5067421171872
 30
0.0
  0
VERTEX
  5
26BD
  8
0
 10
63.883345911859799
 20
179.4815535006974
 30
0.0
  0
SEQEND
  5
26BE
  8
0
  0
LINE
  5
2453
  8
0
 10
63.883345911859799
 20
179.4815535006974
 30
0.0
 11
62.11665408813996
 21
179.4815535006974
 31
0.0
  0
LINE
  5
2454
  8
0
 10
50.0
 20
163.6768141019478
 30
0.0
 11
50.0
 21
182.9071575965836
 31
0.0
  0
LINE
  5
2455
  8
0
 10
76.0
 20
163.6768141019478
 30
0.0
 11
76.0
 21
182.90715759658349
 31
0.0
  0
LINE
  5
2456
  8
0
 10
76.0
 20
151.30000000000001
 30
0.0
 11
50.0
 21
151.30000000000001
 31
0.0
  0
ARC
  5
2457
  8
0
 10
56.080698247048069
 20
158.68042560418121
 30
0.0
 40
20.381128793349919
 50
270.4759494710903
 51
289.38490752951401
  0
LINE
  5
2458
  8
0
 10
62.845452979136439
 20
139.4547005383792
 30
0.0
 11
63.154547020863561
 21
139.4547005383792
 31
0.0
  0
POLYLINE
  5
2459
  8
0
 66
     1
 10
0.0
 20
0.0
 30
0.0
 70
   128
  0
VERTEX
  5
26BF
  8
0
 10
63.154547020863561
 20
139.4547005383792
 30
0.0
  0
VERTEX
  5
26C0
  8
0
 10
66.388032276242924
 20
138.6158563627705
 30
0.0
  0
VERTEX
  5
26C1
  8
0
 10
69.75
 20
138.30000000000001
 30
0.0
  0
SEQEND
  5
26C2
  8
0
  0
LINE
  5
245A
  8
0
 10
62.845452979136439
 20
139.4547005383792
 30
0.0
 11
62.845452979136439
 21
143.30000000000001
 31
0.0
  0
LINE
  5
245B
  8
0
 10
63.154547020863561
 20
143.30000000000001
 30
0.0
 11
63.154547020863561
 21
139.4547005383792
 31
0.0
  0
LINE
  5
245C
  8
0
 10
49.654547020863561
 20
143.30000000000001
 30
0.0
 11
49.654547020863561
 21
139.4547005383792
 31
0.0
  0
POLYLINE
  5
245D
  8
0
 66
     1
 10
0.0
 20
0.0
 30
0.0
 70
   128
  0
VERTEX
  5
26C3
  8
0
 10
49.654547020863561
 20
139.4547005383792
 30
0.0
  0
VERTEX
  5
26C4
  8
0
 10
52.888032276242939
 20
138.6158563627705
 30
0.0
  0
VERTEX
  5
26C5
  8
0
 10
56.25
 20
138.30000000000001
 30
0.0
  0
SEQEND
  5
26C6
  8
0
  0
LINE
  5
245E
  8
0
 10
76.345452979136439
 20
139.4547005383792
 30
0.0
 11
76.345452979136439
 21
143.30000000000001
 31
0.0
  0
ARC
  5
245F
  8
0
 10
69.580698247048076
 20
158.68042560418101
 30
0.0
 40
20.381128793349809
 50
270.4759494710903
 51
289.38490752951401
  0
LINE
  5
2460
  8
0
 10
49.5
 20
139.4547005383792
 30
0.0
 11
49.654547020863561
 21
139.4547005383792
 31
0.0
  0
LINE
  5
2461
  8
0
 10
76.345452979136439
 20
139.4547005383792
 30
0.0
 11
76.5
 21
139.4547005383792
 31
0.0
  0
LINE
  5
2462
  8
0
 10
49.5
 20
138.2999999999999
 30
0.0
 11
76.5
 21
138.30000000000001
 31
0.0
  0
LINE
  5
2463
  8
0
 10
52.709999999999923
 20
136.2999999999999
 30
0.0
 11
73.290000000000063
 21
136.2999999999999
 31
0.0
  0
LINE
  5
2466
  8
0
 10
54.5
 20
134.00999999999999
 30
0.0
 11
71.5
 21
134.00999999999999
 31
0.0
  0
LINE
  5
246B
  8
0
 10
49.5
 20
138.2999999999999
 30
0.0
 11
49.5
 21
143.30000000000001
 31
0.0
  0
LINE
  5
246C
  8
0
 10
76.5
 20
143.30000000000001
 30
0.0
 11
76.499999999999886
 21
138.30000000000001
 31
0.0
  0
LINE
  5
246D
  8
0
 10
49.500000000000107
 20
143.30000000000001
 30
0.0
 11
76.5
 21
143.30000000000001
 31
0.0
  0
LINE
  5
246E
  8
0
 10
57.5
 20
128.30000000000001
 30
0.0
 11
68.5
 21
128.30000000000001
 31
0.0
  0
LINE
  5
246F
  8
0
 10
377.50000000000051
 20
190.30000000000001
 30
0.0
 11
351.5000000000004
 21
190.30000000000001
 31
0.0
  0
LINE
  5
2470
  8
0
 10
377.50000000000051
 20
151.30000000000001
 30
0.0
 11
377.50000000000051
 21
190.30000000000001
 31
0.0
  0
LINE
  5
2471
  8
0
 10
351.50000000000011
 20
190.30000000000001
 30
0.0
 11
351.5000000000004
 21
151.30000000000001
 31
0.0
  0
LINE
  5
2472
  8
0
 10
353.5000000000004
 20
138.30000000000001
 30
0.0
 11
353.50000000000051
 21
137.00999999999979
 31
0.0
  0
LINE
  5
2473
  8
0
 10
375.50000000000051
 20
137.01000000000019
 30
0.0
 11
375.50000000000051
 21
138.30000000000001
 31
0.0
  0
LINE
  5
2474
  8
0
 10
353.5000000000004
 20
151.30000000000001
 30
0.0
 11
353.5000000000004
 21
143.30000000000001
 31
0.0
  0
LINE
  5
2475
  8
0
 10
375.50000000000051
 20
143.30000000000001
 30
0.0
 11
375.50000000000051
 21
151.30000000000001
 31
0.0
  0
LINE
  5
2476
  8
0
 10
356.0000000000004
 20
136.2999999999999
 30
0.0
 11
356.0000000000004
 21
134.00999999999999
 31
0.0
  0
LINE
  5
2477
  8
0
 10
373.0000000000004
 20
134.00999999999999
 30
0.0
 11
373.0000000000004
 21
136.2999999999999
 31
0.0
  0
LINE
  5
2478
  8
0
 10
356.0000000000004
 20
134.00999999999999
 30
0.0
 11
356.71000000000038
 21
133.30000000000001
 31
0.0
  0
LINE
  5
2479
  8
0
 10
372.29000000000048
 20
133.30000000000001
 30
0.0
 11
373.0000000000004
 21
134.00999999999999
 31
0.0
  0
POLYLINE
  5
247D
  8
0
 66
     1
 10
0.0
 20
0.0
 30
0.0
 70
   128
  0
VERTEX
  5
26C7
  8
0
 10
377.50000000000051
 20
182.90715759658369
 30
0.0
  0
VERTEX
  5
26C8
  8
0
 10
377.17893675147059
 20
182.33433189406611
 30
0.0
  0
VERTEX
  5
26C9
  8
0
 10
376.47928962408139
 20
181.76314651265119
 30
0.0
  0
VERTEX
  5
26CA
  8
0
 10
375.413843047966
 20
181.21261066527219
 30
0.0
  0
VERTEX
  5
26CB
  8
0
 10
374.01438329388031
 20
180.70360828993191
 30
0.0
  0
VERTEX
  5
26CC
  8
0
 10
372.33344635973202
 20
180.26280335153501
 30
0.0
  0
VERTEX
  5
26CD
  8
0
 10
370.40594250288569
 20
179.90336637660269
 30
0.0
  0
VERTEX
  5
26CE
  8
0
 10
368.36434565367767
 20
179.6525264618106
 30
0.0
  0
VERTEX
  5
26CF
  8
0
 10
366.20392416345811
 20
179.5067421171872
 30
0.0
  0
VERTEX
  5
26D0
  8
0
 10
365.38334591185952
 20
179.4815535006974
 30
0.0
  0
SEQEND
  5
26D1
  8
0
  0
LINE
  5
247E
  8
0
 10
365.38334591186009
 20
179.4815535006974
 30
0.0
 11
363.61665408814139
 21
179.4815535006974
 31
0.0
  0
POLYLINE
  5
247F
  8
0
 66
     1
 10
0.0
 20
0.0
 30
0.0
 70
   128
  0
VERTEX
  5
26D2
  8
0
 10
363.61665408814139
 20
179.4815535006974
 30
0.0
  0
VERTEX
  5
26D3
  8
0
 10
361.50590324879653
 20
179.57985482119889
 30
0.0
  0
VERTEX
  5
26D4
  8
0
 10
359.48138025220197
 20
179.77943461764431
 30
0.0
  0
VERTEX
  5
26D5
  8
0
 10
357.60338738558551
 20
180.07161349600219
 30
0.0
  0
VERTEX
  5
26D6
  8
0
 10
355.91507042784963
 20
180.4419437309239
 30
0.0
  0
VERTEX
  5
26D7
  8
0
 10
354.42780697290198
 20
180.88697247378991
 30
0.0
  0
VERTEX
  5
26D8
  8
0
 10
353.21638595134249
 20
181.38036635729031
 30
0.0
  0
VERTEX
  5
26D9
  8
0
 10
352.28221412187281
 20
181.92608563797609
 30
0.0
  0
VERTEX
  5
26DA
  8
0
 10
351.69774799999288
 20
182.48630713567479
 30
0.0
  0
VERTEX
  5
26DB
  8
0
 10
351.5000000000004
 20
182.9071575965836
 30
0.0
  0
SEQEND
  5
26DC
  8
0
  0
LINE
  5
2480
  8
0
 10
377.50000000000051
 20
151.30000000000001
 30
0.0
 11
351.5000000000004
 21
151.30000000000001
 31
0.0
  0
ARC
  5
2485
  8
0
 10
357.5806982470491
 20
158.6804256041782
 30
0.0
 40
20.381128793346988
 50
270.4759494710903
 51
289.38490752951401
  0
LINE
  5
2486
  8
0
 10
364.34545297913689
 20
139.4547005383792
 30
0.0
 11
364.65454702086402
 21
139.4547005383792
 31
0.0
  0
POLYLINE
  5
2487
  8
0
 66
     1
 10
0.0
 20
0.0
 30
0.0
 70
   128
  0
VERTEX
  5
26DD
  8
0
 10
364.65454702086402
 20
139.4547005383792
 30
0.0
  0
VERTEX
  5
26DE
  8
0
 10
367.88803227624339
 20
138.6158563627705
 30
0.0
  0
VERTEX
  5
26DF
  8
0
 10
371.25000000000028
 20
138.30000000000001
 30
0.0
  0
SEQEND
  5
26E0
  8
0
  0
LINE
  5
2488
  8
0
 10
364.34545297913689
 20
139.4547005383792
 30
0.0
 11
364.34545297913689
 21
143.30000000000001
 31
0.0
  0
LINE
  5
2489
  8
0
 10
364.65454702086402
 20
143.30000000000001
 30
0.0
 11
364.65454702086402
 21
139.4547005383792
 31
0.0
  0
LINE
  5
248A
  8
0
 10
377.84545297913689
 20
139.4547005383792
 30
0.0
 11
377.84545297913689
 21
143.30000000000001
 31
0.0
  0
ARC
  5
248B
  8
0
 10
371.08069824704842
 20
158.68042560418101
 30
0.0
 40
20.381128793349731
 50
270.4759494710903
 51
289.38490752951401
  0
LINE
  5
248C
  8
0
 10
351.15454702086402
 20
143.30000000000001
 30
0.0
 11
351.15454702086402
 21
139.4547005383792
 31
0.0
  0
POLYLINE
  5
248D
  8
0
 66
     1
 10
0.0
 20
0.0
 30
0.0
 70
   128
  0
VERTEX
  5
26E1
  8
0
 10
351.15454702086402
 20
139.4547005383792
 30
0.0
  0
VERTEX
  5
26E2
  8
0
 10
354.38803227624339
 20
138.6158563627705
 30
0.0
  0
VERTEX
  5
26E3
  8
0
 10
357.75000000000051
 20
138.30000000000001
 30
0.0
  0
SEQEND
  5
26E4
  8
0
  0
LINE
  5
248E
  8
0
 10
377.84545297913689
 20
139.4547005383792
 30
0.0
 11
378.00000000000051
 21
139.4547005383792
 31
0.0
  0
LINE
  5
248F
  8
0
 10
351.00000000000028
 20
138.30000000000001
 30
0.0
 11
378.00000000000051
 21
138.30000000000001
 31
0.0
  0
LINE
  5
2490
  8
0
 10
351.00000000000028
 20
139.4547005383792
 30
0.0
 11
351.15454702086402
 21
139.4547005383792
 31
0.0
  0
LINE
  5
2491
  8
0
 10
354.21000000000009
 20
136.2999999999999
 30
0.0
 11
374.79000000000019
 21
136.2999999999999
 31
0.0
  0
LINE
  5
2492
  8
0
 10
356.0000000000004
 20
134.00999999999999
 30
0.0
 11
373.0000000000004
 21
134.00999999999999
 31
0.0
  0
LINE
  5
2493
  8
0
 10
378.00000000000051
 20
143.30000000000001
 30
0.0
 11
378.00000000000051
 21
138.30000000000001
 31
0.0
  0
LINE
  5
2494
  8
0
 10
351.00000000000028
 20
143.30000000000001
 30
0.0
 11
378.00000000000051
 21
143.30000000000001
 31
0.0
  0
LINE
  5
2495
  8
0
 10
351.00000000000028
 20
138.30000000000001
 30
0.0
 11
351.00000000000028
 21
143.30000000000001
 31
0.0
  0
CIRCLE
  5
2497
  8
3
 10
139.5
 20
62.999999999999979
 30
0.0
 40
3.0
  0
CIRCLE
  5
2498
  8
0
 10
139.0
 20
62.999999999999979
 30
0.0
 40
12.99999999999998
  0
CIRCLE
  5
2499
  8
0
 10
139.5
 20
62.999999999999979
 30
0.0
 40
2.4584999999999999
  0
LINE
  5
249A
  8
0
 10
248.417096231345
 20
75.999999999999972
 30
0.0
 11
139.0
 21
75.999999999999972
 31
0.0
  0
LINE
  5
249B
  8
0
 10
248.41709623134511
 20
50.0
 30
0.0
 11
139.0
 21
50.0
 31
0.0
  0
CIRCLE
  5
249C
  8
0
 10
256.5
 20
62.999999999999979
 30
0.0
 40
5.5000000000000142
  0
ARC
  5
249D
  8
0
 10
289.00099999999998
 20
62.999999999999979
 30
0.0
 40
12.50000000000002
 50
0.7247454859977499
 51
53.13010235415436
  0
LINE
  5
249E
  8
0
 10
301.5
 20
62.841889279300617
 30
0.0
 11
301.5
 21
63.158110720699341
 31
0.0
  0
ARC
  5
249F
  8
0
 10
289.00099999999998
 20
62.999999999999979
 30
0.0
 40
12.50000000000002
 50
306.8698976458457
 51
359.27525451400379
  0
LINE
  5
24A0
  8
0
 10
296.50099999999998
 20
52.999999999999979
 30
0.0
 11
250.4899999999999
 21
52.999999999999979
 31
0.0
  0
ARC
  5
24A1
  8
0
 10
257.99000000000001
 20
62.999999999999979
 30
0.0
 40
12.50000000000003
 50
216.94622425541951
 51
233.1301023541545
  0
LINE
  5
24A2
  8
0
 10
248.0
 20
55.486685152344513
 30
0.0
 11
248.0
 21
70.513314847655465
 31
0.0
  0
ARC
  5
24A3
  8
0
 10
257.99000000000001
 20
62.999999999999979
 30
0.0
 40
12.500000000000041
 50
126.8698976458456
 51
143.05377574458461
  0
LINE
  5
24A4
  8
0
 10
296.50099999999998
 20
73.0
 30
0.0
 11
250.4899999999999
 21
73.0
 31
0.0
  0
ARC
  5
24A5
  8
0
 10
256.5
 20
62.999999999999979
 30
0.0
 40
10.999999999999989
 50
245.38002267134419
 51
294.61997732865569
  0
ARC
  5
24A6
  8
0
 10
256.5
 20
62.999999999999979
 30
0.0
 40
11.0
 50
140.59943124626039
 51
219.40056875373949
  0
ARC
  5
24A7
  8
0
 10
256.5
 20
62.999999999999979
 30
0.0
 40
11.000000000000011
 50
65.380022671344221
 51
114.61997732865569
  0
ARC
  5
24A8
  8
0
 10
256.5
 20
62.999999999999979
 30
0.0
 40
13.50000000000002
 50
47.794553596269203
 51
312.20544640373078
  0
LINE
  5
24A9
  8
0
 10
264.11577310586392
 20
49.499999999999993
 30
0.0
 11
248.88422689413611
 21
49.499999999999993
 31
0.0
  0
ARC
  5
24AA
  8
0
 10
256.5
 20
62.999999999999979
 30
0.0
 40
15.5
 50
239.42870717686469
 51
240.57129282313289
  0
LINE
  5
24AB
  8
0
 10
248.61654360184201
 20
49.654547020863518
 30
0.0
 11
241.00077049597809
 21
62.845452979136709
 31
0.0
  0
LINE
  5
24AC
  8
0
 10
266.31495457622361
 20
53.000000000000021
 30
0.0
 11
264.38345639815788
 21
49.654547020863518
 31
0.0
  0
ARC
  5
24AD
  8
0
 10
256.5
 20
62.999999999999979
 30
0.0
 40
15.499999999999989
 50
299.42870717686702
 51
300.57129282313531
  0
ARC
  5
24AE
  8
0
 10
256.5
 20
62.999999999999979
 30
0.0
 40
15.50000000000003
 50
179.42870717686679
 51
180.57129282313309
  0
LINE
  5
24AF
  8
0
 10
248.88422689413611
 20
76.499999999999972
 30
0.0
 11
264.11577310586392
 21
76.499999999999972
 31
0.0
  0
ARC
  5
24B0
  8
0
 10
256.5
 20
62.999999999999979
 30
0.0
 40
15.5
 50
59.428707176864727
 51
60.57129282313295
  0
LINE
  5
24B1
  8
0
 10
264.38345639815788
 20
76.345452979136454
 30
0.0
 11
266.31495457622361
 21
73.000000000000028
 31
0.0
  0
ARC
  5
24B2
  8
0
 10
256.5
 20
62.999999999999979
 30
0.0
 40
15.5
 50
119.42870717686699
 51
120.57129282313529
  0
LINE
  5
24B3
  8
0
 10
241.00077049597809
 20
63.154547020863241
 30
0.0
 11
248.61654360184201
 21
76.345452979136439
 31
0.0
  0
POLYLINE
  5
24B4
  8
0
 66
     1
 10
0.0
 20
0.0
 30
0.0
 70
   128
  0
VERTEX
  5
26E5
  8
0
 10
272.0
 20
139.4547005383792
 30
0.0
  0
VERTEX
  5
26E6
  8
0
 10
270.13237592140791
 20
138.6158563627705
 30
0.0
  0
VERTEX
  5
26E7
  8
0
 10
268.19134295108989
 20
138.30000000000001
 30
0.0
  0
SEQEND
  5
26E8
  8
0
  0
LINE
  5
24B5
  8
3
 10
246.3120000000001
 20
151.30000000000001
 30
0.0
 11
246.3120000000001
 21
143.30000000000001
 31
0.0
  0
LINE
  5
24B6
  8
3
 10
246.3120000000001
 20
138.30000000000001
 30
0.0
 11
246.3120000000001
 21
136.2999999999999
 31
0.0
  0
LINE
  5
24B7
  8
3
 10
266.6880000000001
 20
151.30000000000001
 30
0.0
 11
266.6880000000001
 21
143.30000000000001
 31
0.0
  0
LINE
  5
24B8
  8
3
 10
266.6880000000001
 20
138.30000000000001
 30
0.0
 11
266.6880000000001
 21
136.2999999999999
 31
0.0
  0
LINE
  5
24B9
  8
0
 10
245.5
 20
137.00999999999999
 30
0.0
 11
246.20999999999989
 21
136.2999999999999
 31
0.0
  0
LINE
  5
24BA
  8
0
 10
266.79000000000008
 20
136.2999999999999
 30
0.0
 11
267.5
 21
137.00999999999999
 31
0.0
  0
LINE
  5
24BB
  8
0
 10
245.49999999999989
 20
137.00999999999999
 30
0.0
 11
267.5
 21
137.00999999999999
 31
0.0
  0
LINE
  5
24BC
  8
3
 10
354.31200000000041
 20
151.30000000000001
 30
0.0
 11
354.31200000000041
 21
143.30000000000001
 31
0.0
  0
LINE
  5
24BD
  8
3
 10
354.31200000000041
 20
138.30000000000001
 30
0.0
 11
354.31200000000041
 21
136.2999999999999
 31
0.0
  0
LINE
  5
24BE
  8
3
 10
374.68800000000027
 20
151.30000000000001
 30
0.0
 11
374.68800000000027
 21
143.30000000000001
 31
0.0
  0
LINE
  5
24BF
  8
3
 10
374.68800000000027
 20
138.30000000000001
 30
0.0
 11
374.68800000000027
 21
136.2999999999999
 31
0.0
  0
LINE
  5
24C0
  8
0
 10
353.50000000000011
 20
137.00999999999999
 30
0.0
 11
375.50000000000028
 21
137.00999999999999
 31
0.0
  0
LINE
  5
24C1
  8
3
 10
52.812000000000012
 20
151.30000000000001
 30
0.0
 11
52.812000000000012
 21
143.30000000000001
 31
0.0
  0
LINE
  5
24C2
  8
3
 10
52.812000000000012
 20
138.30000000000001
 30
0.0
 11
52.812000000000012
 21
136.2999999999999
 31
0.0
  0
LINE
  5
24C3
  8
3
 10
73.187999999999988
 20
151.30000000000001
 30
0.0
 11
73.187999999999988
 21
143.30000000000001
 31
0.0
  0
LINE
  5
24C4
  8
3
 10
73.187999999999988
 20
138.30000000000001
 30
0.0
 11
73.187999999999988
 21
136.2999999999999
 31
0.0
  0
LINE
  5
24C5
  8
0
 10
51.999999999999773
 20
137.00999999999999
 30
0.0
 11
73.999999999999886
 21
137.00999999999999
 31
0.0
  0
LINE
  5
24C6
  8
0
 10
353.50000000000023
 20
137.00999999999999
 30
0.0
 11
354.21000000000009
 21
136.2999999999999
 31
0.0
  0
LINE
  5
24C7
  8
0
 10
51.999999999999879
 20
137.00999999999999
 30
0.0
 11
52.709999999999809
 21
136.2999999999999
 31
0.0
  0
LINE
  5
24C8
  8
0
 10
374.7900000000003
 20
136.2999999999999
 30
0.0
 11
375.50000000000028
 21
137.00999999999999
 31
0.0
  0
ARC
  5
24C9
  8
3
 10
256.5
 20
62.999999999999979
 30
0.0
 40
10.18831951460756
 50
146.54184686637069
 51
213.45815313362911
  0
ARC
  5
24CA
  8
3
 10
256.5
 20
62.999999999999979
 30
0.0
 40
10.18831951460756
 50
78.966704573188224
 51
101.0332954268118
  0
LINE
  5
24CB
  8
2
 10
136.5
 20
151.30000000000001
 30
0.0
 11
136.5
 21
163.30000000000001
 31
0.0
  0
LINE
  5
24CC
  8
0
 10
73.289999999999964
 20
136.2999999999999
 30
0.0
 11
73.999999999999886
 21
137.00999999999999
 31
0.0
  0
ARC
  5
24CD
  8
3
 10
256.5
 20
62.999999999999979
 30
0.0
 40
10.18831951460756
 50
258.96670457318822
 51
281.03329542681178
  0
LINE
  5
24CE
  8
2
 10
136.5
 20
163.30000000000001
 30
0.0
 11
142.5
 21
163.30000000000001
 31
0.0
  0
LINE
  5
24CF
  8
2
 10
142.49999999999989
 20
151.30000000000001
 30
0.0
 11
142.5
 21
163.30000000000001
 31
0.0
  0
LINE
  5
24D0
  8
2
 10
142.5
 20
163.30000000000001
 30
0.0
 11
141.95849999999999
 21
164.23790551229831
 31
0.0
  0
LINE
  5
24D1
  8
2
 10
136.50000000000011
 20
163.30000000000001
 30
0.0
 11
137.04150000000001
 21
164.23790551229831
 31
0.0
  0
LINE
  5
24D2
  8
1
 10
139.5
 20
171.30000000000001
 30
0.0
 11
139.5
 21
148.30000000000001
 31
0.0
  0
LINE
  5
24D3
  8
1
 10
139.5
 20
68.999999999999972
 30
0.0
 11
139.5
 21
56.999999999999979
 31
0.0
  0
LINE
  5
24D4
  8
1
 10
256.5
 20
186.30155601157429
 30
0.0
 11
256.49999999999989
 21
122.9999999999999
 31
0.0
  0
LINE
  5
24D5
  8
1
 10
256.5
 20
79.499999999999972
 30
0.0
 11
256.5
 21
46.499999999999993
 31
0.0
  0
LINE
  5
24D6
  8
1
 10
133.5
 20
62.999999999999979
 30
0.0
 11
304.5
 21
62.999999999999979
 31
0.0
  0
LINE
  5
24E6
  8
1
 10
256.49999999999989
 20
269.7999999999999
 30
0.0
 11
256.49999999999989
 21
236.80000000000001
 31
0.0
  0
LINE
  5
24E7
  8
1
 10
306.5
 20
253.2999999999999
 30
0.0
 11
121.0000000000001
 21
253.2999999999999
 31
0.0
  0
LINE
  5
24E8
  8
1
 10
198.00000000000011
 20
44.999999999999993
 30
0.0
 11
198.00000000000011
 21
80.999999999999972
 31
0.0
  0
LINE
  5
24E9
  8
1
 10
198.00000000000011
 20
165.7999999999999
 30
0.0
 11
198.00000000000011
 21
195.30000000000001
 31
0.0
  0
LINE
  5
24EA
  8
1
 10
198.00000000000011
 20
235.30000000000001
 30
0.0
 11
198.00000000000011
 21
271.30000000000001
 31
0.0
  0
LINE
  5
24EB
  8
1
 10
364.5000000000004
 20
195.30000000000001
 30
0.0
 11
364.5000000000004
 21
120.9999999999999
 31
0.0
  0
LINE
  5
24EC
  8
1
 10
63.0
 20
120.9999999999999
 30
0.0
 11
63.0
 21
195.30000000000001
 31
0.0
  0
ARC
  5
24ED
  8
0
 10
154.99999999999989
 20
174.86046311927319
 30
0.0
 40
3.0
 50
100.46896342224601
 51
180.0
  0
ARC
  5
24EE
  8
0
 10
241.0
 20
174.86046311927319
 30
0.0
 40
3.0
 50
0.0
 51
79.531036577753994
  0
CIRCLE
  5
2567
  8
0
 10
256.49999999999989
 20
253.30000000000001
 30
0.0
 40
2.0
  0
CIRCLE
  5
2568
  8
0
 10
256.49999999999989
 20
253.30000000000001
 30
0.0
 40
8.0
  0
LINE
  5
2569
  8
0
 10
263.17551496140931
 20
252.30000000000001
 30
0.0
 11
261.14354390525159
 21
252.30000000000001
 31
0.0
  0
LINE
  5
256A
  8
0
 10
251.85645609474821
 20
252.30000000000001
 30
0.0
 11
249.8244850385905
 21
252.30000000000001
 31
0.0
  0
LINE
  5
256B
  8
0
 10
263.17551496140931
 20
254.3000000000001
 30
0.0
 11
261.14354390525159
 21
254.3000000000001
 31
0.0
  0
LINE
  5
256C
  8
0
 10
251.85645609474821
 20
254.3000000000001
 30
0.0
 11
249.8244850385905
 21
254.30000000000001
 31
0.0
  0
ARC
  5
256D
  8
0
 10
256.49999999999989
 20
253.30000000000001
 30
0.0
 40
6.75
 50
8.5196242541436824
 51
171.480375745857
  0
ARC
  5
256E
  8
0
 10
256.49999999999989
 20
253.30000000000001
 30
0.0
 40
6.75
 50
188.5196242541432
 51
351.48037574585669
  0
ARC
  5
256F
  8
0
 10
256.49999999999989
 20
253.30000000000001
 30
0.0
 40
4.75
 50
12.153197469008941
 51
167.84680253099199
  0
ARC
  5
2570
  8
0
 10
256.49999999999989
 20
253.30000000000001
 30
0.0
 40
4.75
 50
192.15319746900789
 51
347.84680253099208
  0
ENDSEC
  0
EOF
