  0
SECTION
  2
HEADER
  9
$ACADVER
  1
AC1009
  9
$INSBASE
 10
0.0
 20
0.0
 30
0.0
  9
$EXTMIN
 10
0.0
 20
-1.4802182810368341
 30
0.0
  9
$EXTMAX
 10
135.30000000001991
 20
200.30000002755099
 30
0.0
  9
$LIMMIN
 10
0.0
 20
0.0
  9
$LIMMAX
 10
375.0
 20
270.0
  9
$ORTHOMODE
 70
     1
  9
$REGENMODE
 70
     1
  9
$FILLMODE
 70
     1
  9
$QTEXTMODE
 70
     0
  9
$MIRRTEXT
 70
     0
  9
$DRAGMODE
 70
     2
  9
$LTSCALE
 40
5.0
  9
$OSMODE
 70
    37
  9
$ATTMODE
 70
     1
  9
$TEXTSIZE
 40
4.000000000000048
  9
$TRACEWID
 40
0.05
  9
$TEXTSTYLE
  7
STANDARD
  9
$CLAYER
  8
0
  9
$CELTYPE
  6
BYLAYER
  9
$CECOLOR
 62
   256
  9
$DIMSCALE
 40
0.5
  9
$DIMASZ
 40
3.0
  9
$DIMEXO
 40
2.0
  9
$DIMDLI
 40
0.38
  9
$DIMRND
 40
0.0
  9
$DIMDLE
 40
0.0
  9
$DIMEXE
 40
2.0
  9
$DIMTP
 40
0.0
  9
$DIMTM
 40
0.0
  9
$DIMTXT
 40
3.2000000000000002
  9
$DIMCEN
 40
0.0
  9
$DIMTSZ
 40
0.0
  9
$DIMTOL
 70
     0
  9
$DIMLIM
 70
     0
  9
$DIMTIH
 70
     0
  9
$DIMTOH
 70
     0
  9
$DIMSE1
 70
     0
  9
$DIMSE2
 70
     0
  9
$DIMTAD
 70
     1
  9
$DIMZIN
 70
     0
  9
$DIMBLK
  1

  9
$DIMASO
 70
     0
  9
$DIMSHO
 70
     0
  9
$DIMPOST
  1

  9
$DIMAPOST
  1

  9
$DIMALT
 70
     0
  9
$DIMALTD
 70
     2
  9
$DIMALTF
 40
25.399999999999999
  9
$DIMLFAC
 40
1.0
  9
$DIMTOFL
 70
     0
  9
$DIMTVP
 40
1.6000000000000001
  9
$DIMTIX
 70
     1
  9
$DIMSOXD
 70
     0
  9
$DIMSAH
 70
     0
  9
$DIMBLK1
  1

  9
$DIMBLK2
  1

  9
$DIMSTYLE
  2
STANDARD
  9
$DIMCLRD
 70
     4
  9
$DIMCLRE
 70
     4
  9
$DIMCLRT
 70
     4
  9
$DIMTFAC
 40
1.0
  9
$DIMGAP
 40
0.09
  9
$LUNITS
 70
     2
  9
$LUPREC
 70
     1
  9
$SKETCHINC
 40
0.1
  9
$FILLETRAD
 40
0.0
  9
$AUNITS
 70
     0
  9
$AUPREC
 70
     0
  9
$MENU
  1
E:\r13\win\SUPPORT\ACAD
  9
$ELEVATION
 40
0.0
  9
$PELEVATION
 40
0.0
  9
$THICKNESS
 40
0.0
  9
$LIMCHECK
 70
     0
  9
$BLIPMODE
 70
     0
  9
$CHAMFERA
 40
1.1999999999999991
  9
$CHAMFERB
 40
1.1999999999999991
  9
$SKPOLY
 70
     0
  9
$TDCREATE
 40
2449983.5574884261
  9
$TDUPDATE
 40
2457968.4252960649
  9
$TDINDWG
 40
0.0874365278
  9
$TDUSRTIMER
 40
0.0874365278
  9
$USRTIMER
 70
     1
  9
$ANGBASE
 50
0.0
  9
$ANGDIR
 70
     0
  9
$PDMODE
 70
     0
  9
$PDSIZE
 40
0.0
  9
$PLINEWID
 40
0.0
  9
$COORDS
 70
     1
  9
$SPLFRAME
 70
     0
  9
$SPLINETYPE
 70
     6
  9
$SPLINESEGS
 70
     8
  9
$ATTDIA
 70
     0
  9
$ATTREQ
 70
     1
  9
$HANDLING
 70
     1
  9
$HANDSEED
  5
13F5
  9
$SURFTAB1
 70
     6
  9
$SURFTAB2
 70
     6
  9
$SURFTYPE
 70
     6
  9
$SURFU
 70
     6
  9
$SURFV
 70
     6
  9
$UCSNAME
  2

  9
$UCSORG
 10
0.0
 20
0.0
 30
0.0
  9
$UCSXDIR
 10
1.0
 20
0.0
 30
0.0
  9
$UCSYDIR
 10
0.0
 20
1.0
 30
0.0
  9
$PUCSNAME
  2

  9
$PUCSORG
 10
0.0
 20
0.0
 30
0.0
  9
$PUCSXDIR
 10
1.0
 20
0.0
 30
0.0
  9
$PUCSYDIR
 10
0.0
 20
1.0
 30
0.0
  9
$USERI1
 70
     0
  9
$USERI2
 70
     1
  9
$USERI3
 70
     0
  9
$USERI4
 70
     0
  9
$USERI5
 70
     0
  9
$USERR1
 40
0.0
  9
$USERR2
 40
0.0
  9
$USERR3
 40
0.0
  9
$USERR4
 40
0.0
  9
$USERR5
 40
0.0
  9
$WORLDVIEW
 70
     1
  9
$SHADEDGE
 70
     3
  9
$SHADEDIF
 70
    70
  9
$TILEMODE
 70
     1
  9
$MAXACTVP
 70
    16
  9
$PLIMCHECK
 70
     0
  9
$PEXTMIN
 10
1.0000000000000000E+020
 20
1.0000000000000000E+020
 30
1.0000000000000000E+020
  9
$PEXTMAX
 10
-1.0000000000000000E+020
 20
-1.0000000000000000E+020
 30
-1.0000000000000000E+020
  9
$PLIMMIN
 10
0.0
 20
0.0
  9
$PLIMMAX
 10
12.0
 20
9.0
  9
$UNITMODE
 70
     0
  9
$VISRETAIN
 70
     0
  9
$PLINEGEN
 70
     0
  9
$PSLTSCALE
 70
     0
  0
ENDSEC
  0
SECTION
  2
TABLES
  0
TABLE
  2
VPORT
 70
     1
  0
VPORT
  2
*ACTIVE
 70
     0
 10
0.0
 20
0.0
 11
1.0
 21
1.0
 12
272.4358974358974
 22
150.0
 13
0.0
 23
0.0
 14
5.0
 24
5.0
 15
5.0
 25
5.0
 16
0.0
 26
0.0
 36
1.0
 17
0.0
 27
0.0
 37
0.0
 40
300.0
 41
1.816239316239316
 42
50.0
 43
0.0
 44
0.0
 50
0.0
 51
0.0
 71
     0
 72
   500
 73
     1
 74
     0
 75
     0
 76
     0
 77
     0
 78
     2
  0
ENDTAB
  0
TABLE
  2
LTYPE
 70
     3
  0
LTYPE
  2
CONTINUOUS
 70
     0
  3
Solid Line
 72
    65
 73
     0
 40
0.0
  0
LTYPE
  2
CENTER
 70
     0
  3
____ _ ____ _ ____ _ ____ _ ____ _ ____ _ ____
 72
    65
 73
     4
 40
2.0
 49
1.25
 49
-0.25
 49
0.25
 49
-0.25
  0
LTYPE
  2
PHANTOM2
 70
     0
  3
___ _ _ ___ _ _ ___ _ _ ___ _ _
 72
    65
 73
     6
 40
1.25
 49
0.625
 49
-0.125
 49
0.125
 49
-0.125
 49
0.125
 49
-0.125
  0
ENDTAB
  0
TABLE
  2
LAYER
 70
     3
  0
LAYER
  2
0
 70
     0
 62
     7
  6
CONTINUOUS
  0
LAYER
  2
1
 70
     0
 62
     1
  6
CENTER
  0
LAYER
  2
3
 70
     0
 62
     3
  6
CONTINUOUS
  0
ENDTAB
  0
TABLE
  2
STYLE
 70
     2
  0
STYLE
  2
STANDARD
 70
     0
 40
0.0
 41
1.0
 50
0.0
 71
     0
 42
4.000000000000048
  3
SIMPLEX
  4
BIGFONT
  0
STYLE
  2
STANDARD1
 70
     0
 40
0.0
 41
1.0
 50
0.0
 71
     0
 42
3.0
  3
txt
  4

  0
ENDTAB
  0
TABLE
  2
VIEW
 70
     1
  0
VIEW
  2
ALL
 70
     0
 40
270.0
 10
220.78595317725751
 20
135.0
 41
441.57190635451502
 11
0.0
 21
0.0
 31
1.0
 12
0.0
 22
0.0
 32
0.0
 42
50.0
 43
0.0
 44
0.0
 50
0.0
 71
     0
  0
ENDTAB
  0
TABLE
  2
UCS
 70
     0
  0
ENDTAB
  0
TABLE
  2
APPID
 70
     6
  0
APPID
  2
ACAD
 70
     0
  0
APPID
  2
ACAD_MLEADERVER
 70
     0
  0
APPID
  2
ACAD_NAV_VCDISPLAY
 70
     0
  0
APPID
  2
ACAD_EXEMPT_FROM_CAD_STANDARDS
 70
     0
  0
APPID
  2
ACAECLAYERSTANDARD
 70
     0
  0
APPID
  2
ACCMTRANSPARENCY
 70
     0
  0
ENDTAB
  0
TABLE
  2
DIMSTYLE
 70
     1
  0
DIMSTYLE
  2
STANDARD
 70
     0
  3

  4

  5

  6

  7

 40
1.0
 41
0.18
 42
0.0625
 43
0.38
 44
0.18
 45
0.0
 46
0.0
 47
0.0
 48
0.0
140
0.18
141
0.09
142
0.0
143
25.399999999999999
144
1.0
145
0.0
146
1.0
147
0.09
 71
     0
 72
     0
 73
     1
 74
     1
 75
     0
 76
     0
 77
     0
 78
     0
170
     0
171
     2
172
     0
173
     0
174
     0
175
     0
176
     0
177
     0
178
     0
  0
ENDTAB
  0
ENDSEC
  0
SECTION
  2
BLOCKS
  0
BLOCK
  8
0
  2
$MODEL_SPACE
 70
     0
 10
0.0
 20
0.0
 30
0.0
  3
$MODEL_SPACE
  1

  0
ENDBLK
  5
34A
  8
0
  0
BLOCK
 67
     1
  8
0
  2
$PAPER_SPACE
 70
     0
 10
0.0
 20
0.0
 30
0.0
  3
$PAPER_SPACE
  1

  0
ENDBLK
  5
348
 67
     1
  8
0
  0
ENDSEC
  0
SECTION
  2
ENTITIES
  0
TEXT
  5
3F7
  8
0
 62
     3
 10
0.0
 20
0.0
 30
0.0
 40
5.0
  1
EAJ8
  7
STANDARD1
  0
ARC
  5
CE2
  8
0
 10
67.600000000000023
 20
104.6832159566398
 30
0.0
 40
1.1999999999999931
 50
279.59406822686162
 51
0.0
  0
ARC
  5
CE3
  8
0
 10
67.600000000000023
 20
118.3167840434398
 30
0.0
 40
1.1999999999999931
 50
0.0
 51
80.405931773141745
  0
LINE
  5
CE4
  8
0
 10
51.800000000000061
 20
104.5000000000398
 30
0.0
 11
65.5
 21
104.5000000000398
 31
0.0
  0
LINE
  5
CE5
  8
0
 10
41.800000000000011
 20
104.5000000000398
 30
0.0
 11
43.800000000000011
 21
104.5000000000398
 31
0.0
  0
LINE
  5
CE6
  8
0
 10
43.800000000000011
 20
118.5000000000398
 30
0.0
 11
41.800000000000011
 21
118.5000000000398
 31
0.0
  0
LINE
  5
CE7
  8
0
 10
65.5
 20
118.5000000000398
 30
0.0
 11
51.800000000000061
 21
118.5000000000398
 31
0.0
  0
LINE
  5
CE8
  8
0
 10
41.800000000000011
 20
118.5000000000431
 30
0.0
 11
41.299999999983179
 21
118.0000000000263
 31
0.0
  0
LINE
  5
CE9
  8
0
 10
41.299999999983179
 20
105.0000000000534
 30
0.0
 11
41.800000000000011
 21
104.50000000003649
 31
0.0
  0
LINE
  5
CEA
  8
0
 10
40.0
 20
108.1000000000398
 30
0.0
 11
41.300000000000011
 21
108.1000000000398
 31
0.0
  0
LINE
  5
CEB
  8
0
 10
41.300000000000011
 20
114.9000000000398
 30
0.0
 11
40.0
 21
114.9000000000398
 31
0.0
  0
LINE
  5
CF6
  8
0
 10
68.800000000000011
 20
104.68321595659999
 30
0.0
 11
68.800000000000011
 21
118.3167840434796
 31
0.0
  0
LINE
  5
CF7
  8
0
 10
67.800000000000011
 20
103.5000000000199
 30
0.0
 11
67.800000000000011
 21
119.5000000000597
 31
0.0
  0
LINE
  5
CF8
  8
0
 10
67.299999999977672
 20
104.5717967697864
 30
0.0
 11
67.299999999977672
 21
118.42820323029321
 31
0.0
  0
LINE
  5
CF9
  8
0
 10
67.299999999969828
 20
118.4282032302855
 30
0.0
 11
67.799999999949137
 21
117.9226162893342
 31
0.0
  0
LINE
  5
CFA
  8
0
 10
67.799999999960505
 20
105.0773837107341
 30
0.0
 11
67.299999999955276
 21
104.5717967698086
 31
0.0
  0
LINE
  5
CFB
  8
0
 10
65.5
 20
118.4282032303153
 30
0.0
 11
65.5
 21
118.5000000000398
 31
0.0
  0
LINE
  5
CFC
  8
0
 10
67.299999999977672
 20
118.42820323029321
 30
0.0
 11
65.5
 21
118.4282032303153
 31
0.0
  0
LINE
  5
CFD
  8
0
 10
65.5
 20
104.5717967697643
 30
0.0
 11
67.299999999977672
 21
104.5717967697864
 31
0.0
  0
LINE
  5
CFE
  8
0
 10
65.5
 20
104.5000000000398
 30
0.0
 11
65.5
 21
104.5717967697643
 31
0.0
  0
ARC
  5
CFF
  8
0
 10
47.800000000000011
 20
124.72851777478471
 30
0.0
 40
7.4023262337128237
 50
237.29112435181841
 51
302.70887564818162
  0
LINE
  5
D00
  8
0
 10
41.800000000000011
 20
118.5000000000398
 30
0.0
 11
41.800000000000011
 21
104.5000000000398
 31
0.0
  0
ARC
  5
D01
  8
0
 10
47.800000000000011
 20
98.271482225294989
 30
0.0
 40
7.4023262337127997
 50
57.291124351818368
 51
122.7088756481816
  0
LINE
  5
D02
  8
0
 10
41.299999999983179
 20
118.0000000000263
 30
0.0
 11
41.299999999983179
 21
105.0000000000534
 31
0.0
  0
LINE
  5
D03
  8
0
 10
40.0
 20
114.9000000000398
 30
0.0
 11
40.0
 21
108.1000000000398
 31
0.0
  0
ARC
  5
D04
  8
0
 10
39.781703590000014
 20
121.3721204600398
 30
0.0
 40
15.999999995768411
 50
23.768965867125619
 51
48.047288831863817
  0
ARC
  5
D05
  8
0
 10
54.149999960000002
 20
127.69999998003981
 30
0.0
 40
0.3000000003017422
 50
270.0
 51
23.768966415294042
  0
LINE
  5
D06
  8
0
 10
54.149999960000002
 20
127.3999999808898
 30
0.0
 11
51.799999960000029
 21
127.3999999817398
 31
0.0
  0
ARC
  5
D07
  8
0
 10
51.499999960000018
 20
127.0999999800398
 30
0.0
 40
0.3000000000000114
 50
270.0
 51
0.0
  0
LINE
  5
D08
  8
0
 10
51.499999960000018
 20
126.7999999800398
 30
0.0
 11
44.099999959999977
 21
126.7999999800398
 31
0.0
  0
ARC
  5
D09
  8
0
 10
44.099999960000048
 20
127.0999999800398
 30
0.0
 40
0.3000000000000398
 50
180.0
 51
269.99999999999352
  0
LINE
  5
D0A
  8
0
 10
43.799999960000036
 20
127.0999999800398
 30
0.0
 11
43.799999960000036
 21
127.39999998003979
 31
0.0
  0
LINE
  5
D0B
  8
0
 10
43.799999960000036
 20
127.39999998003979
 30
0.0
 11
41.449999960000007
 21
127.39999998003979
 31
0.0
  0
ARC
  5
D0C
  8
0
 10
41.449999960000007
 20
127.69999998003981
 30
0.0
 40
0.2999999999999971
 50
156.2310335749836
 51
270.0
  0
ARC
  5
D0D
  8
0
 10
55.818296340000067
 20
121.3721204500398
 30
0.0
 40
16.000000005839439
 50
131.95271095766151
 51
156.23103411435261
  0
ARC
  5
D0E
  8
0
 10
47.800000000000011
 20
130.3000000000398
 30
0.0
 40
4.0000000275111676
 50
47.971976170202417
 51
132.02802382888521
  0
LINE
  5
D0F
  8
0
 10
51.799999960000029
 20
127.39999998003979
 30
0.0
 11
51.799999960000029
 21
127.0999999800398
 31
0.0
  0
ARC
  5
D2B
  8
0
 10
67.600000000000023
 20
182.983215984151
 30
0.0
 40
1.2000000000000071
 50
279.59406822686162
 51
0.0
  0
ARC
  5
D2C
  8
0
 10
67.600000000000023
 20
196.61678407095101
 30
0.0
 40
1.199999999999988
 50
0.0
 51
80.405931773141745
  0
LINE
  5
D2D
  8
0
 10
54.449999958299991
 20
182.80000002755099
 30
0.0
 11
67.300000000000011
 21
182.80000002755099
 31
0.0
  0
LINE
  5
D2E
  8
0
 10
67.300000000000011
 20
196.80000002755099
 30
0.0
 11
54.449999958299991
 21
196.80000002755099
 31
0.0
  0
LINE
  5
D2F
  8
0
 10
67.799999999924964
 20
196.30000002753741
 30
0.0
 11
67.300000000000011
 21
196.8000000274624
 31
0.0
  0
LINE
  5
D30
  8
0
 10
67.300000000000011
 20
182.80000002763961
 30
0.0
 11
67.799999999924964
 21
183.30000002756449
 31
0.0
  0
LINE
  5
D31
  8
0
 10
40.0
 20
186.40000002755099
 30
0.0
 11
41.149999960000059
 21
186.40000002755099
 31
0.0
  0
LINE
  5
D32
  8
0
 10
41.149999960000059
 20
193.200000027551
 30
0.0
 11
40.0
 21
193.200000027551
 31
0.0
  0
LINE
  5
D33
  8
0
 10
54.449999958299991
 20
174.30000002755099
 30
0.0
 11
54.449999958299991
 21
197.30000002755099
 31
0.0
  0
LINE
  5
D34
  8
0
 10
41.149999960000059
 20
197.30000002755099
 30
0.0
 11
41.149999960000059
 21
174.30000002755099
 31
0.0
  0
LINE
  5
D35
  8
0
 10
68.800000000000011
 20
182.98321598411121
 30
0.0
 11
68.800000000000011
 21
196.61678407095101
 31
0.0
  0
LINE
  5
D37
  8
0
 10
67.800000000000011
 20
181.80000002753101
 30
0.0
 11
67.800000000000011
 21
197.80000002757089
 31
0.0
  0
LINE
  5
D38
  8
0
 10
67.299999999973693
 20
190.80000002755099
 30
0.0
 11
67.29999999999626
 21
196.80000002753289
 31
0.0
  0
LINE
  5
D39
  8
0
 10
65.5
 20
190.80000002755099
 30
0.0
 11
67.800000000000011
 21
190.80000002755099
 31
0.0
  0
LINE
  5
D3A
  8
0
 10
65.5
 20
188.80000002755099
 30
0.0
 11
65.5
 21
190.80000002755099
 31
0.0
  0
LINE
  5
D3B
  8
0
 10
67.800000000000011
 20
188.80000002755099
 30
0.0
 11
65.5
 21
188.80000002755099
 31
0.0
  0
LINE
  5
D3C
  8
0
 10
67.299999999996828
 20
182.80000002757291
 30
0.0
 11
67.299999999977672
 21
188.80000002755099
 31
0.0
  0
LINE
  5
D3F
  8
0
 10
40.0
 20
193.200000027551
 30
0.0
 11
40.0
 21
186.40000002755099
 31
0.0
  0
LINE
  5
D46
  8
0
 10
41.149999960000059
 20
174.30000002755091
 30
0.0
 11
54.449999958299991
 21
174.30000002755099
 31
0.0
  0
LINE
  5
D4F
  8
0
 10
41.149999960000059
 20
197.30000002755099
 30
0.0
 11
54.449999958299991
 21
197.30000002755099
 31
0.0
  0
LINE
  5
D70
  8
0
 10
131.80000000000001
 20
134.3000000032398
 30
0.0
 11
127.5975732747804
 21
134.3000000032398
 31
0.0
  0
LINE
  5
D71
  8
0
 10
121.002426725219
 20
134.3000000032398
 30
0.0
 11
108.8
 21
134.3000000032398
 31
0.0
  0
CIRCLE
  5
D76
  8
0
 10
124.3
 20
111.5000000000398
 30
0.0
 40
8.0000000000199236
  0
LINE
  5
D77
  8
0
 10
131.80000000000001
 20
127.3999999808898
 30
0.0
 11
108.8
 21
127.3999999808898
 31
0.0
  0
ARC
  5
D7C
  8
0
 10
124.3
 20
136.16301357189519
 30
0.0
 40
3.4757195293523151
 50
236.303106097621
 51
303.69689390237909
  0
LINE
  5
D83
  8
0
 10
131.80000000000001
 20
126.7999999800398
 30
0.0
 11
108.8
 21
126.7999999800398
 31
0.0
  0
ARC
  5
D89
  8
0
 10
131.61781060995841
 20
147.0282719844248
 30
0.0
 40
16.575468799106819
 50
230.1762878812917
 51
236.0947907413809
  0
POLYLINE
  5
D8A
  8
0
 66
     1
 10
0.0
 20
0.0
 30
0.0
 70
   128
  0
VERTEX
  5
13EB
  8
0
 10
127.5975771298139
 20
134.29800454636779
 30
0.0
  0
VERTEX
  5
13EC
  8
0
 10
127.5998417149295
 20
134.29986941905699
 30
0.0
  0
VERTEX
  5
13ED
  8
0
 10
127.5666442515146
 20
134.27252623551689
 30
0.0
  0
VERTEX
  5
13EE
  8
0
 10
127.4741261078903
 20
134.19680337901471
 30
0.0
  0
VERTEX
  5
13EF
  8
0
 10
127.3335522546558
 20
134.08317846626721
 30
0.0
  0
VERTEX
  5
13F0
  8
0
 10
127.1443852477163
 20
133.9332530139416
 30
0.0
  0
VERTEX
  5
13F1
  8
0
 10
126.8156602427147
 20
133.6820920275245
 30
0.0
  0
VERTEX
  5
13F2
  8
0
 10
126.41116146782841
 20
133.39305718813759
 30
0.0
  0
VERTEX
  5
13F3
  8
0
 10
126.2283268489532
 20
133.27126984002291
 30
0.0
  0
SEQEND
  5
13F4
  8
0
  0
LINE
  5
D8D
  8
0
 10
131.80000000000001
 20
134.3000000032398
 30
0.0
 11
131.7999999999999
 21
126.7999999800398
 31
0.0
  0
LINE
  5
D8E
  8
0
 10
108.8
 20
134.3000000032398
 30
0.0
 11
108.8
 21
126.7999999800398
 31
0.0
  0
ARC
  5
DBC
  8
0
 10
67.600000000000023
 20
41.183215956619911
 30
0.0
 40
1.1999999999999931
 50
279.59406822686162
 51
0.0
  0
ARC
  5
DBD
  8
0
 10
67.600000000000023
 20
54.816784043419908
 30
0.0
 40
1.1999999999999991
 50
0.0
 51
80.405931773141745
  0
LINE
  5
DBE
  8
0
 10
41.800000000000011
 20
55.000000000023192
 30
0.0
 11
41.299999999983179
 21
54.500000000006359
 31
0.0
  0
LINE
  5
DBF
  8
0
 10
41.299999999983179
 20
41.500000000033467
 30
0.0
 11
41.800000000000011
 21
41.000000000016641
 31
0.0
  0
LINE
  5
DC0
  8
0
 10
41.800000000000011
 20
41.000000000019917
 30
0.0
 11
67.300000000000011
 21
41.000000000019917
 31
0.0
  0
LINE
  5
DC1
  8
0
 10
67.300000000000011
 20
55.000000000019917
 30
0.0
 11
41.800000000000011
 21
55.000000000019917
 31
0.0
  0
LINE
  5
DC2
  8
0
 10
67.300000000000011
 20
41.0000000001085
 30
0.0
 11
67.799999999924964
 21
41.500000000033467
 31
0.0
  0
LINE
  5
DC3
  8
0
 10
67.799999999924964
 20
54.500000000006359
 30
0.0
 11
67.300000000000011
 21
54.99999999993134
 31
0.0
  0
LINE
  5
DC4
  8
0
 10
40.0
 20
44.600000000019911
 30
0.0
 11
41.300000000000011
 21
44.600000000019911
 31
0.0
  0
LINE
  5
DC5
  8
0
 10
41.300000000000011
 20
51.400000000019901
 30
0.0
 11
40.0
 21
51.400000000019901
 31
0.0
  0
LINE
  5
DC6
  8
0
 10
41.149999960000059
 20
63.500000000019909
 30
0.0
 11
41.149999960000059
 21
51.400000000019901
 31
0.0
  0
LINE
  5
DC7
  8
0
 10
41.149999960000059
 20
44.600000000019911
 30
0.0
 11
41.149999960000059
 21
40.500000000019917
 31
0.0
  0
LINE
  5
DC8
  8
0
 10
54.449999958299991
 20
40.500000000019917
 30
0.0
 11
54.449999958299991
 21
41.000000000019917
 31
0.0
  0
LINE
  5
DC9
  8
0
 10
54.449999958299991
 20
55.000000000019917
 30
0.0
 11
54.449999958299991
 21
63.500000000019909
 31
0.0
  0
LINE
  5
DCB
  8
0
 10
68.800000000000011
 20
41.183215956580121
 30
0.0
 11
68.800000000000011
 21
54.816784043419908
 31
0.0
  0
LINE
  5
DCD
  8
0
 10
67.800000000000011
 20
39.999999999999993
 30
0.0
 11
67.799999999999955
 21
56.00000000003984
 31
0.0
  0
LINE
  5
DCE
  8
0
 10
41.800000000000011
 20
55.000000000019931
 30
0.0
 11
41.800000000000011
 21
41.000000000016641
 31
0.0
  0
LINE
  5
DD0
  8
0
 10
41.299999999983179
 20
54.500000000006366
 30
0.0
 11
41.299999999983179
 21
41.500000000033459
 31
0.0
  0
LINE
  5
DD1
  8
0
 10
67.29999999999626
 20
41.000000000037929
 30
0.0
 11
67.299999999969828
 21
47.000000000019909
 31
0.0
  0
LINE
  5
DD2
  8
0
 10
67.299999999977672
 20
49.000000000019909
 30
0.0
 11
67.299999999996828
 21
54.999999999997989
 31
0.0
  0
LINE
  5
DD3
  8
0
 10
65.5
 20
49.000000000019909
 30
0.0
 11
67.800000000000011
 21
49.000000000019909
 31
0.0
  0
LINE
  5
DD4
  8
0
 10
67.799999999999955
 20
47.000000000019909
 30
0.0
 11
65.5
 21
47.000000000019909
 31
0.0
  0
LINE
  5
DD5
  8
0
 10
65.5
 20
47.000000000019909
 30
0.0
 11
65.5
 21
49.000000000019909
 31
0.0
  0
LINE
  5
DD9
  8
0
 10
40.0
 20
51.400000000019901
 30
0.0
 11
40.0
 21
44.600000000019911
 31
0.0
  0
LINE
  5
DDE
  8
0
 10
43.799999960000036
 20
40.500000000019917
 30
0.0
 11
43.799999960000036
 21
41.000000000019917
 31
0.0
  0
LINE
  5
DDF
  8
0
 10
43.799999960000036
 20
55.000000000019917
 30
0.0
 11
43.799999960000036
 21
63.500000000019909
 31
0.0
  0
LINE
  5
DE2
  8
0
 10
51.799999960000029
 20
40.500000000019917
 30
0.0
 11
51.799999960000029
 21
41.000000000019917
 31
0.0
  0
LINE
  5
DE3
  8
0
 10
51.799999960000029
 20
55.000000000019917
 30
0.0
 11
51.799999960000029
 21
63.500000000019909
 31
0.0
  0
LINE
  5
DE7
  8
0
 10
54.449999958299991
 20
63.500000000019902
 30
0.0
 11
41.149999960000059
 21
63.500000000019917
 31
0.0
  0
LINE
  5
DEE
  8
0
 10
41.149999960000059
 20
40.500000000019917
 30
0.0
 11
54.449999958299991
 21
40.500000000019917
 31
0.0
  0
LINE
  5
F10
  8
1
 10
47.800000000000011
 20
200.30000002755099
 30
0.0
 11
47.800000000000011
 21
171.30000002755099
 31
0.0
  0
LINE
  5
F11
  8
1
 10
124.3
 20
139.30000002755099
 30
0.0
 11
124.3
 21
99.500000000039805
 31
0.0
  0
LINE
  5
F1A
  8
1
 10
47.800000000000011
 20
139.30000002755099
 30
0.0
 11
47.800000000000011
 21
99.500000000039805
 31
0.0
  0
LINE
  5
F1B
  8
1
 10
47.800000000000011
 20
66.500000000019924
 30
0.0
 11
47.800000000000011
 21
37.500000000019909
 31
0.0
  0
LINE
  5
F1C
  8
1
 10
35.0
 20
111.5000000000398
 30
0.0
 11
73.800000000000011
 21
111.5000000000398
 31
0.0
  0
LINE
  5
F1D
  8
1
 10
35.0
 20
189.8000000275311
 30
0.0
 11
73.800000000000011
 21
189.8000000275311
 31
0.0
  0
LINE
  5
F1E
  8
1
 10
35.0
 20
48.000000000000021
 30
0.0
 11
73.800000000000011
 21
48.000000000000021
 31
0.0
  0
LINE
  5
F66
  8
1
 10
113.2999999999801
 20
111.5000000000398
 30
0.0
 11
135.30000000001991
 21
111.5000000000398
 31
0.0
  0
LINE
  5
1233
  8
0
 10
51.800000000031858
 20
118.5000000000602
 30
0.0
 11
51.800000000031858
 21
119.0000000175225
 31
0.0
  0
LINE
  5
1234
  8
0
 10
43.800000000031922
 20
119.0000000175225
 30
0.0
 11
43.800000000031922
 21
118.5000000000193
 31
0.0
  0
LINE
  5
1235
  8
0
 10
51.800000000031858
 20
125.80000001747401
 30
0.0
 11
51.800000000031858
 21
127.0999999800398
 31
0.0
  0
LINE
  5
1236
  8
0
 10
51.800000000031858
 20
131.95409870904541
 30
0.0
 11
51.800000000031858
 21
133.0000000175225
 31
0.0
  0
LINE
  5
1237
  8
0
 10
43.800000000031922
 20
133.0000000175225
 30
0.0
 11
43.800000000031922
 21
131.9540987219076
 31
0.0
  0
LINE
  5
1238
  8
0
 10
43.800000000031922
 20
127.09984499893361
 30
0.0
 11
43.800000000031922
 21
125.80000001747401
 31
0.0
  0
LINE
  5
1239
  8
0
 10
44.530578141907213
 20
104.9134672581896
 30
0.0
 11
45.100000000076093
 21
103.92719966884729
 31
0.0
  0
LINE
  5
123A
  8
0
 10
50.499999999987672
 20
103.92719966884729
 30
0.0
 11
51.069061375354032
 21
104.9128428836602
 31
0.0
  0
LINE
  5
123B
  8
0
 10
51.800000000069261
 20
119.0000000175225
 30
0.0
 11
51.000000000089543
 21
119.8000000175022
 31
0.0
  0
LINE
  5
123C
  8
0
 10
44.59999999997423
 20
119.8000000175022
 30
0.0
 11
43.799999999994569
 21
119.0000000175225
 31
0.0
  0
LINE
  5
123D
  8
0
 10
51.799999999965578
 20
133.0000000175225
 30
0.0
 11
50.299999999981033
 21
134.50000001750701
 31
0.0
  0
LINE
  5
123E
  8
0
 10
45.300000000082733
 20
134.50000001750701
 30
0.0
 11
43.800000000098237
 21
133.0000000175225
 31
0.0
  0
LINE
  5
123F
  8
0
 10
43.80000000006136
 20
125.80000001747401
 30
0.0
 11
44.60000000001294
 21
125.0000000175225
 31
0.0
  0
LINE
  5
1240
  8
0
 10
51.000000000050882
 20
125.0000000175225
 30
0.0
 11
51.800000000002413
 21
125.80000001747401
 31
0.0
  0
LINE
  5
1241
  8
0
 10
51.000000000031903
 20
119.8000000175022
 30
0.0
 11
51.000000000031903
 21
125.0000000175225
 31
0.0
  0
LINE
  5
1242
  8
0
 10
44.600000000031919
 20
125.0000000175225
 30
0.0
 11
44.600000000031919
 21
119.8000000175022
 31
0.0
  0
LINE
  5
124D
  8
0
 10
51.800000000031858
 20
119.0000000175225
 30
0.0
 11
43.800000000031922
 21
119.0000000175225
 31
0.0
  0
LINE
  5
124E
  8
0
 10
51.800000000002413
 20
125.80000001747401
 30
0.0
 11
43.80000000006136
 21
125.80000001747401
 31
0.0
  0
LINE
  5
124F
  8
0
 10
51.800000000031858
 20
133.0000000175225
 30
0.0
 11
50.776583174932583
 21
133.0000000175225
 31
0.0
  0
LINE
  5
1250
  8
0
 10
44.823416807825197
 20
133.0000000175225
 30
0.0
 11
43.800000000031922
 21
133.0000000175225
 31
0.0
  0
LINE
  5
1251
  8
0
 10
45.100000000076093
 20
103.92719966884729
 30
0.0
 11
50.499999999987743
 21
103.92719966884729
 31
0.0
  0
LINE
  5
1252
  8
0
 10
51.000000000089543
 20
119.8000000175022
 30
0.0
 11
44.59999999997423
 21
119.8000000175022
 31
0.0
  0
LINE
  5
1253
  8
0
 10
50.299999999981033
 20
134.50000001750701
 30
0.0
 11
45.300000000082733
 21
134.50000001750701
 31
0.0
  0
LINE
  5
1254
  8
0
 10
51.000000000031903
 20
125.0000000175225
 30
0.0
 11
44.600000000031919
 21
125.0000000175225
 31
0.0
  0
LINE
  5
1255
  8
3
 10
44.47650000003172
 20
133.67650001745599
 30
0.0
 11
44.47650000003172
 21
132.6665844358655
 31
0.0
  0
LINE
  5
1256
  8
3
 10
44.47650000003172
 20
126.80000001752251
 30
0.0
 11
44.47650000003172
 21
125.1235000175037
 31
0.0
  0
LINE
  5
1257
  8
3
 10
51.123500000031939
 20
133.67650001745611
 30
0.0
 11
51.123500000031939
 21
132.66658442126609
 31
0.0
  0
LINE
  5
1258
  8
3
 10
51.123500000031939
 20
126.80000001752251
 30
0.0
 11
51.123500000031939
 21
125.1235000175035
 31
0.0
  0
CIRCLE
  5
125B
  8
0
 10
47.800000000000011
 20
189.80000002755099
 30
0.0
 40
3.9999999999999432
  0
CIRCLE
  5
125C
  8
3
 10
47.800000000000011
 20
189.80000002755099
 30
0.0
 40
3.3242118172615638
  0
CIRCLE
  5
1261
  8
0
 10
47.800000000000011
 20
48.000000000000021
 30
0.0
 40
2.699999999955792
  0
CIRCLE
  5
1262
  8
0
 10
47.800000000000011
 20
48.000000000000021
 30
0.0
 40
4.0000000000000071
  0
LINE
  5
12D4
  8
0
 10
128.30000000000001
 20
125.80000001747401
 30
0.0
 11
128.30000000000001
 21
126.80000001752251
 31
0.0
  0
LINE
  5
12D5
  8
0
 10
120.3
 20
126.80000001752251
 30
0.0
 11
120.3
 21
125.80000001747401
 31
0.0
  0
LINE
  5
12D6
  8
0
 10
128.30000000003739
 20
119.0000000175225
 30
0.0
 11
127.5000000000577
 21
119.8000000175022
 31
0.0
  0
LINE
  5
12D7
  8
0
 10
121.0999999999423
 20
119.8000000175022
 30
0.0
 11
120.29999999996259
 21
119.0000000175225
 31
0.0
  0
LINE
  5
12D8
  8
0
 10
127.26843255886359
 20
134.03156745859249
 30
0.0
 11
126.79999999994919
 21
134.50000001750701
 31
0.0
  0
LINE
  5
12D9
  8
0
 10
121.8000000000508
 20
134.50000001750701
 30
0.0
 11
121.3310297456449
 21
134.03102976310109
 31
0.0
  0
LINE
  5
12DA
  8
0
 10
128.30000000000001
 20
118.4282032303384
 30
0.0
 11
128.30000000000001
 21
119.0000000175225
 31
0.0
  0
LINE
  5
12DB
  8
0
 10
120.3
 20
119.0000000175225
 30
0.0
 11
120.3
 21
118.4282032303384
 31
0.0
  0
LINE
  5
12DC
  8
0
 10
120.3000000000294
 20
125.80000001747401
 30
0.0
 11
121.09999999998099
 21
125.0000000175225
 31
0.0
  0
LINE
  5
12DD
  8
0
 10
127.500000000019
 20
125.0000000175225
 30
0.0
 11
128.29999999997051
 21
125.80000001747401
 31
0.0
  0
LINE
  5
12DE
  8
0
 10
127.5
 20
119.8000000175022
 30
0.0
 11
127.5
 21
125.0000000175225
 31
0.0
  0
LINE
  5
12DF
  8
0
 10
121.09999999999999
 20
125.0000000175225
 30
0.0
 11
121.09999999999999
 21
119.8000000175022
 31
0.0
  0
LINE
  5
12E0
  8
0
 10
128.30000000000001
 20
125.80000001747401
 30
0.0
 11
120.3
 21
125.80000001747401
 31
0.0
  0
LINE
  5
12E1
  8
0
 10
128.30000000000001
 20
119.0000000175225
 30
0.0
 11
127.0838821343725
 21
119.0000000175225
 31
0.0
  0
LINE
  5
12E2
  8
0
 10
127.5000000000577
 20
119.8000000175022
 30
0.0
 11
121.0999999999423
 21
119.8000000175022
 31
0.0
  0
LINE
  5
12E3
  8
0
 10
126.79999999994919
 20
134.50000001750701
 30
0.0
 11
121.8000000000508
 21
134.50000001750701
 31
0.0
  0
LINE
  5
12E4
  8
0
 10
127.5
 20
125.0000000175225
 30
0.0
 11
121.09999999999999
 21
125.0000000175225
 31
0.0
  0
LINE
  5
12E5
  8
0
 10
125.74082320274751
 20
133.0000000175225
 30
0.0
 11
122.8591767972525
 21
133.0000000175225
 31
0.0
  0
LINE
  5
12E6
  8
3
 10
120.9764999999999
 20
126.80000001752251
 30
0.0
 11
120.9764999999999
 21
125.1235000175037
 31
0.0
  0
LINE
  5
12E7
  8
3
 10
127.62350000000011
 20
126.80000001752251
 30
0.0
 11
127.62350000000011
 21
125.1235000175035
 31
0.0
  0
LINE
  5
12ED
  8
0
 10
121.51611786562739
 20
119.0000000175225
 30
0.0
 11
120.3
 21
119.0000000175225
 31
0.0
  0
ENDSEC
  0
EOF
