  0
SECTION
  2
HEADER
  9
$ACADVER
  1
AC1009
  9
$INSBASE
 10
0.0
 20
0.0
 30
0.0
  9
$EXTMIN
 10
0.0
 20
-2.960436562073669
 30
0.0
  9
$EXTMAX
 10
178.22266600334851
 20
112.94431007414219
 30
0.0
  9
$LIMMIN
 10
0.0
 20
0.0
  9
$LIMMAX
 10
390.0
 20
270.0
  9
$ORTHOMODE
 70
     1
  9
$REGENMODE
 70
     1
  9
$FILLMODE
 70
     1
  9
$QTEXTMODE
 70
     0
  9
$MIRRTEXT
 70
     1
  9
$DRAGMODE
 70
     2
  9
$LTSCALE
 40
5.0
  9
$OSMODE
 70
  3071
  9
$ATTMODE
 70
     1
  9
$TEXTSIZE
 40
2.5
  9
$TRACEWID
 40
1.0
  9
$TEXTSTYLE
  7
STANDARD
  9
$CLAYER
  8
0
  9
$CELTYPE
  6
BYLAYER
  9
$CECOLOR
 62
   256
  9
$DIMSCALE
 40
1.0
  9
$DIMASZ
 40
3.0
  9
$DIMEXO
 40
1.0
  9
$DIMDLI
 40
6.0
  9
$DIMRND
 40
0.0
  9
$DIMDLE
 40
0.0
  9
$DIMEXE
 40
1.0
  9
$DIMTP
 40
495.0
  9
$DIMTM
 40
0.0
  9
$DIMTXT
 40
2.5
  9
$DIMCEN
 40
0.0
  9
$DIMTSZ
 40
0.0
  9
$DIMTOL
 70
     0
  9
$DIMLIM
 70
     0
  9
$DIMTIH
 70
     0
  9
$DIMTOH
 70
     0
  9
$DIMSE1
 70
     0
  9
$DIMSE2
 70
     0
  9
$DIMTAD
 70
     1
  9
$DIMZIN
 70
     8
  9
$DIMBLK
  1

  9
$DIMASO
 70
     0
  9
$DIMSHO
 70
     1
  9
$DIMPOST
  1

  9
$DIMAPOST
  1

  9
$DIMALT
 70
     0
  9
$DIMALTD
 70
     2
  9
$DIMALTF
 40
25.399999999999999
  9
$DIMLFAC
 40
1.0
  9
$DIMTOFL
 70
     1
  9
$DIMTVP
 40
0.0
  9
$DIMTIX
 70
     1
  9
$DIMSOXD
 70
     0
  9
$DIMSAH
 70
     0
  9
$DIMBLK1
  1

  9
$DIMBLK2
  1

  9
$DIMSTYLE
  2
ITM
  9
$DIMCLRD
 70
   256
  9
$DIMCLRE
 70
   256
  9
$DIMCLRT
 70
   256
  9
$DIMTFAC
 40
1.0
  9
$DIMGAP
 40
1.0
  9
$LUNITS
 70
     2
  9
$LUPREC
 70
     2
  9
$SKETCHINC
 40
1.0
  9
$FILLETRAD
 40
0.4
  9
$AUNITS
 70
     0
  9
$AUPREC
 70
     0
  9
$MENU
  1
.
  9
$ELEVATION
 40
0.0
  9
$PELEVATION
 40
0.0
  9
$THICKNESS
 40
0.0
  9
$LIMCHECK
 70
     0
  9
$BLIPMODE
 70
     0
  9
$CHAMFERA
 40
1.1999999999999991
  9
$CHAMFERB
 40
1.1999999999999991
  9
$SKPOLY
 70
     0
  9
$TDCREATE
 40
2453354.0921258219
  9
$TDUPDATE
 40
2456598.6233386579
  9
$TDINDWG
 40
513.97199961809997
  9
$TDUSRTIMER
 40
513.97172164350002
  9
$USRTIMER
 70
     1
  9
$ANGBASE
 50
0.0
  9
$ANGDIR
 70
     0
  9
$PDMODE
 70
     0
  9
$PDSIZE
 40
0.0
  9
$PLINEWID
 40
0.0
  9
$COORDS
 70
     1
  9
$SPLFRAME
 70
     0
  9
$SPLINETYPE
 70
     6
  9
$SPLINESEGS
 70
     8
  9
$ATTDIA
 70
     0
  9
$ATTREQ
 70
     1
  9
$HANDLING
 70
     1
  9
$HANDSEED
  5
581F2
  9
$SURFTAB1
 70
     6
  9
$SURFTAB2
 70
     6
  9
$SURFTYPE
 70
     6
  9
$SURFU
 70
     6
  9
$SURFV
 70
     6
  9
$UCSNAME
  2

  9
$UCSORG
 10
0.0
 20
0.0
 30
0.0
  9
$UCSXDIR
 10
1.0
 20
0.0
 30
0.0
  9
$UCSYDIR
 10
0.0
 20
1.0
 30
0.0
  9
$PUCSNAME
  2

  9
$PUCSORG
 10
0.0
 20
0.0
 30
0.0
  9
$PUCSXDIR
 10
1.0
 20
0.0
 30
0.0
  9
$PUCSYDIR
 10
0.0
 20
1.0
 30
0.0
  9
$USERI1
 70
     4
  9
$USERI2
 70
     1
  9
$USERI3
 70
     1
  9
$USERI4
 70
     0
  9
$USERI5
 70
     0
  9
$USERR1
 40
1.0
  9
$USERR2
 40
3.0
  9
$USERR3
 40
3.2000000000000002
  9
$USERR4
 40
3.0
  9
$USERR5
 40
10.0
  9
$WORLDVIEW
 70
     1
  9
$SHADEDGE
 70
     3
  9
$SHADEDIF
 70
    70
  9
$TILEMODE
 70
     1
  9
$MAXACTVP
 70
    16
  9
$PLIMCHECK
 70
     0
  9
$PEXTMIN
 10
0.0
 20
0.0
 30
0.0
  9
$PEXTMAX
 10
0.0
 20
0.0
 30
0.0
  9
$PLIMMIN
 10
0.0
 20
0.0
  9
$PLIMMAX
 10
12.0
 20
9.0
  9
$UNITMODE
 70
     0
  9
$VISRETAIN
 70
     0
  9
$PLINEGEN
 70
     0
  9
$PSLTSCALE
 70
     1
  0
ENDSEC
  0
SECTION
  2
TABLES
  0
TABLE
  2
VPORT
 70
     1
  0
VPORT
  2
*ACTIVE
 70
     0
 10
0.0
 20
0.0
 11
1.0
 21
1.0
 12
202.55787946771341
 22
133.5127261426681
 13
0.0
 23
0.0
 14
5.0
 24
5.0
 15
10.0
 25
10.0
 16
0.0
 26
0.0
 36
1.0
 17
0.0
 27
0.0
 37
0.0
 40
275.42274993631997
 41
1.831871345029239
 42
50.0
 43
0.0
 44
0.0
 50
0.0
 51
0.0
 71
    16
 72
   500
 73
     1
 74
     1
 75
     0
 76
     0
 77
     0
 78
     1
  0
ENDTAB
  0
TABLE
  2
LTYPE
 70
     4
  0
LTYPE
  2
CONTINUOUS
 70
     0
  3
Solid line
 72
    65
 73
     0
 40
0.0
  0
LTYPE
  2
CENTER
 70
     0
  3
____ _ ____ _ ____ _ ____ _ ____ _ ____ _ ____
 72
    65
 73
     4
 40
2.0
 49
1.25
 49
-0.25
 49
0.25
 49
-0.25
  0
LTYPE
  2
HIDDEN
 70
     0
  3
_ _ _ _ _ _ _ _ _ _ _ _ _ _ _ _ _ _ _ _ _ _ _
 72
    65
 73
     2
 40
0.375
 49
0.25
 49
-0.125
  0
LTYPE
  2
PHANTOM2
 70
     0
  3
___ _ _ ___ _ _ ___ _ _ ___ _ _
 72
    65
 73
     6
 40
1.25
 49
0.625
 49
-0.125
 49
0.125
 49
-0.125
 49
0.125
 49
-0.125
  0
ENDTAB
  0
TABLE
  2
LAYER
 70
     6
  0
LAYER
  2
0
 70
     0
 62
     7
  6
CONTINUOUS
  0
LAYER
  2
1
 70
     0
 62
     1
  6
CENTER
  0
LAYER
  2
WAKU
 70
     0
 62
     5
  6
CONTINUOUS
  0
LAYER
  2
DEFPOINTS
 70
     0
 62
     7
  6
CONTINUOUS
  0
LAYER
  2
3
 70
     0
 62
     3
  6
CONTINUOUS
  0
LAYER
  2
2
 70
     0
 62
     2
  6
HIDDEN
  0
ENDTAB
  0
TABLE
  2
STYLE
 70
     3
  0
STYLE
  2
STANDARD
 70
     0
 40
0.0
 41
1.0
 50
0.0
 71
     0
 42
2.5
  3
ROMANS
  4
EXTFONT
  0
STYLE
  2
K
 70
     0
 40
0.0
 41
0.75
 50
0.0
 71
     0
 42
3.2000000000000002
  3
ROMANS.shx
  4
EXTFONT.shx
  0
STYLE
  2
STANDARD1
 70
     0
 40
0.0
 41
1.0
 50
0.0
 71
     0
 42
3.0
  3
txt
  4

  0
ENDTAB
  0
TABLE
  2
VIEW
 70
     2
  0
VIEW
  2
OLE1
 70
     0
 40
151.81220504325799
 10
73.676474473531471
 20
85.209442582639014
 41
295.93771616027522
 11
0.0
 21
0.0
 31
1.0
 12
0.0
 22
0.0
 32
0.0
 42
50.0
 43
0.0
 44
0.0
 50
0.0
 71
    16
  0
VIEW
  2
OLE2
 70
     0
 40
12.66566269640963
 10
177.82767580922561
 20
80.089748755761136
 41
24.690026015785861
 11
0.0
 21
0.0
 31
1.0
 12
0.0
 22
0.0
 32
0.0
 42
50.0
 43
0.0
 44
0.0
 50
0.0
 71
    16
  0
ENDTAB
  0
TABLE
  2
UCS
 70
     0
  0
ENDTAB
  0
TABLE
  2
APPID
 70
    47
  0
APPID
  2
ACAD
 70
     0
  0
APPID
  2
COMM
 70
     0
  0
APPID
  2
DCO15
 70
     0
  0
APPID
  2
GENIUS_GENOREF_13
 70
     0
  0
APPID
  2
GENIUS_GENOENT_13
 70
     0
  0
APPID
  2
GENIUS_GENBH_13
 70
     0
  0
APPID
  2
GENIUS_GENOBJ_13
 70
     0
  0
APPID
  2
GENIUS_GENODEF_13
 70
     0
  0
APPID
  2
GENIUS_GENOLIS_13
 70
     0
  0
APPID
  2
GENIUS_GENOBJ-NBEHI-BHF_13
 70
     0
  0
APPID
  2
GENIUS_GENOBJ-NBEHI-BHB_13
 70
     0
  0
APPID
  2
GENIUS_GENOBJ-F-PART_13
 70
     0
  0
APPID
  2
GENIUS_GEFSTDP_13
 70
     0
  0
APPID
  2
GENIUS_GENOBJ-N-RSSYM_13
 70
     0
  0
APPID
  2
GENIUS_GENSYMENT_13
 70
     0
  0
APPID
  2
GENIUS_GENOBJ-N-TIT_13
 70
     0
  0
APPID
  2
GENIUS_GENTITLE_13
 70
     0
  0
APPID
  2
GENIUS_GENZVEED_13
 70
     0
  0
APPID
  2
GENIUS_GENOBJ-N-LEADER_13
 70
     0
  0
APPID
  2
GENIUS_GENOBJ-N-FIL_13
 70
     0
  0
APPID
  2
GENIUS_GENOBJ-N-SEC_13
 70
     0
  0
APPID
  2
GENIUS_GENOBJ-N-CRS_13
 70
     0
  0
APPID
  2
GENIUS_GENOBJ-N-ZOO_13
 70
     0
  0
APPID
  2
GENIUS_GENZOO_13
 70
     0
  0
APPID
  2
GENIUS_GENOBJ-F-TOL_13
 70
     0
  0
APPID
  2
GENIUS_GENFIL_13
 70
     0
  0
APPID
  2
GENIUS_GENOBJ-N-CHA_13
 70
     0
  0
APPID
  2
_CALL_MAC$
 70
     0
  0
APPID
  2
ASM_BASE
 70
     0
  0
APPID
  2
ASM_EXPLO_VER_2_00
 70
     0
  0
APPID
  2
ASM_CADM_VER_12_00
 70
     0
  0
APPID
  2
ASM_BASEFORO
 70
     0
  0
APPID
  2
ASM_BASETRAVI
 70
     0
  0
APPID
  2
ASM_BASETRAVI1
 70
     0
  0
APPID
  2
ASM_GRUPPI
 70
     0
  0
APPID
  2
ASM_CADM_ALBERO
 70
     0
  0
APPID
  2
ASM_GOLE
 70
     0
  0
APPID
  2
GENIUS_GEFINERT_13
 70
     0
  0
APPID
  2
GENIUS_GENOBJ-F-INER_13
 70
     0
  0
APPID
  2
GENIUS_GENDTOL_13
 70
     0
  0
APPID
  2
AD_SKETCHDIM
 70
     0
  0
APPID
  2
GENIUS_GENSCREG_15
 70
     0
  0
APPID
  2
GENIUS_GENOBJ-N-SDF_13
 70
     0
  0
APPID
  2
GENIUS_GENOBJ-N-CEN_13
 70
     0
  0
APPID
  2
ACAD_MLEADERVER
 70
     0
  0
APPID
  2
ACAD_EXEMPT_FROM_CAD_STANDARDS
 70
     0
  0
APPID
  2
ACAD_NAV_VCDISPLAY
 70
     0
  0
ENDTAB
  0
TABLE
  2
DIMSTYLE
 70
     2
  0
DIMSTYLE
  2
ITM
 70
     0
  3

  4

  5

  6

  7

 40
0.0
 41
2.5
 42
1.0
 43
6.0
 44
1.0
 45
0.0
 46
0.0
 47
495.0
 48
0.0
140
3.0
141
0.0
142
0.0
143
25.399999999999999
144
1.0
145
0.0
146
1.0
147
1.0
 71
     0
 72
     0
 73
     0
 74
     0
 75
     0
 76
     0
 77
     3
 78
     8
170
     0
171
     2
172
     1
173
     0
174
     0
175
     0
176
     0
177
     0
178
     0
  0
DIMSTYLE
  2
STANDARD
 70
     0
  3

  4

  5

  6

  7

 40
1.0
 41
0.18
 42
0.0625
 43
0.38
 44
0.18
 45
0.0
 46
0.0
 47
0.0
 48
0.0
140
0.18
141
0.09
142
0.0
143
25.399999999999999
144
1.0
145
0.0
146
1.0
147
0.09
 71
     0
 72
     0
 73
     1
 74
     1
 75
     0
 76
     0
 77
     0
 78
     0
170
     0
171
     2
172
     0
173
     0
174
     0
175
     0
176
     0
177
     0
178
     0
  0
ENDTAB
  0
ENDSEC
  0
SECTION
  2
BLOCKS
  0
BLOCK
  8
0
  2
$MODEL_SPACE
 70
     0
 10
0.0
 20
0.0
 30
0.0
  3
$MODEL_SPACE
  1

  0
ENDBLK
  5
21
  8
0
  0
BLOCK
 67
     1
  8
0
  2
$PAPER_SPACE
 70
     0
 10
0.0
 20
0.0
 30
0.0
  3
$PAPER_SPACE
  1

  0
ENDBLK
  5
76
 67
     1
  8
0
  0
BLOCK
  8
0
  2
ARROW1
 70
     0
 10
0.0
 20
0.0
 30
0.0
  3
ARROW1
  1

  0
SOLID
  5
18C
  8
WAKU
  6
CONTINUOUS
 62
     4
 10
-1.0
 20
0.1666666666666714
 30
0.0
 11
-1.0
 21
-0.1666666666666714
 31
0.0
 12
0.0
 22
0.0
 32
0.0
 13
0.0
 23
0.0
 33
0.0
  0
ENDBLK
  5
3534A
  8
0
  0
ENDSEC
  0
SECTION
  2
ENTITIES
  0
LINE
  5
578FF
  8
2
 10
167.97266600334839
 20
40.530050778254527
 30
0.0
 11
165.97266600334839
 21
38.530050778254541
 31
0.0
  0
LINE
  5
57900
  8
2
 10
165.97266600334839
 20
26.530050778254409
 30
0.0
 11
165.97266600334839
 21
38.530050778254541
 31
0.0
  0
LINE
  5
57901
  8
2
 10
167.47266600334839
 20
26.330050778254389
 30
0.0
 11
167.47266600334839
 21
36.330050778254389
 31
0.0
  0
LINE
  5
57902
  8
2
 10
168.01416600334841
 20
38.330050778254389
 30
0.0
 11
168.01416600334841
 21
26.330050778254389
 31
0.0
  0
LINE
  5
57903
  8
2
 10
170.47266600334839
 20
39.749466415057071
 30
0.0
 11
168.01416600334841
 21
38.330050778254389
 31
0.0
  0
LINE
  5
57904
  8
2
 10
174.97266600334839
 20
26.530050778254409
 30
0.0
 11
174.97266600334839
 21
38.530050778254541
 31
0.0
  0
LINE
  5
57905
  8
2
 10
172.97266600334839
 20
40.530050778254527
 30
0.0
 11
174.97266600334839
 21
38.530050778254541
 31
0.0
  0
LINE
  5
57906
  8
2
 10
167.97266600334839
 20
40.530050778254527
 30
0.0
 11
172.97266600334839
 21
40.530050778254527
 31
0.0
  0
LINE
  5
57907
  8
2
 10
173.47266600334839
 20
26.330050778254389
 30
0.0
 11
173.47266600334839
 21
36.330050778254389
 31
0.0
  0
LINE
  5
57908
  8
2
 10
172.93116600334841
 20
26.330050778254389
 30
0.0
 11
172.93116600334841
 21
38.330050778254389
 31
0.0
  0
LINE
  5
57909
  8
2
 10
172.93116600334841
 20
38.330050778254389
 30
0.0
 11
170.47266600334839
 21
39.749466415057071
 31
0.0
  0
LINE
  5
5790A
  8
2
 10
173.47266600334839
 20
36.330050778254389
 30
0.0
 11
167.47266600334839
 21
36.330050778254389
 31
0.0
  0
LINE
  5
5790B
  8
2
 10
172.93116600334841
 20
38.330050778254389
 30
0.0
 11
168.01416600334841
 21
38.330050778254389
 31
0.0
  0
LINE
  5
5790C
  8
2
 10
101.4918943104139
 20
39.749466415057093
 30
0.0
 11
99.033394310413996
 21
38.330050778254403
 31
0.0
  0
LINE
  5
5790D
  8
2
 10
99.033394310413996
 20
38.330050778254403
 30
0.0
 11
99.033394310413996
 21
26.33005077825441
 31
0.0
  0
LINE
  5
5790E
  8
2
 10
98.491894310413954
 20
26.33005077825441
 30
0.0
 11
98.491894310413954
 21
36.33005077825441
 31
0.0
  0
LINE
  5
5790F
  8
2
 10
96.991894310413954
 20
26.53005077825442
 30
0.0
 11
96.991894310413954
 21
38.530050778254548
 31
0.0
  0
LINE
  5
57910
  8
2
 10
98.991894310413954
 20
40.530050778254548
 30
0.0
 11
96.991894310413954
 21
38.530050778254548
 31
0.0
  0
LINE
  5
57911
  8
2
 10
103.9503943104139
 20
38.330050778254403
 30
0.0
 11
99.033394310413996
 21
38.330050778254403
 31
0.0
  0
LINE
  5
57912
  8
2
 10
104.4918943104139
 20
36.33005077825441
 30
0.0
 11
98.491894310413954
 21
36.33005077825441
 31
0.0
  0
LINE
  5
57913
  8
2
 10
103.9503943104139
 20
38.330050778254403
 30
0.0
 11
101.4918943104139
 21
39.749466415057093
 31
0.0
  0
LINE
  5
57914
  8
2
 10
103.9503943104139
 20
26.33005077825441
 30
0.0
 11
103.9503943104139
 21
38.330050778254403
 31
0.0
  0
LINE
  5
57915
  8
2
 10
104.4918943104139
 20
26.33005077825441
 30
0.0
 11
104.4918943104139
 21
36.33005077825441
 31
0.0
  0
LINE
  5
57916
  8
2
 10
98.991894310413954
 20
40.530050778254548
 30
0.0
 11
103.9918943104139
 21
40.530050778254548
 31
0.0
  0
LINE
  5
57917
  8
2
 10
103.9918943104139
 20
40.530050778254548
 30
0.0
 11
105.9918943104139
 21
38.530050778254548
 31
0.0
  0
LINE
  5
57918
  8
2
 10
105.9918943104139
 20
26.53005077825442
 30
0.0
 11
105.9918943104139
 21
38.530050778254548
 31
0.0
  0
LINE
  5
57919
  8
2
 10
37.011122617479487
 20
26.53005077825442
 30
0.0
 11
37.01112261747943
 21
38.530050778254548
 31
0.0
  0
LINE
  5
5791A
  8
2
 10
35.01112261747943
 20
40.530050778254548
 30
0.0
 11
37.01112261747943
 21
38.530050778254548
 31
0.0
  0
LINE
  5
5791B
  8
2
 10
30.01112261747943
 20
40.530050778254548
 30
0.0
 11
35.01112261747943
 21
40.530050778254548
 31
0.0
  0
LINE
  5
5791C
  8
2
 10
30.01112261747943
 20
40.530050778254548
 30
0.0
 11
28.01112261747943
 21
38.530050778254548
 31
0.0
  0
LINE
  5
5791D
  8
2
 10
28.01112261747949
 20
26.53005077825442
 30
0.0
 11
28.01112261747943
 21
38.530050778254548
 31
0.0
  0
LINE
  5
5791E
  8
2
 10
35.51112261747943
 20
26.33005077825441
 30
0.0
 11
35.51112261747943
 21
36.33005077825441
 31
0.0
  0
LINE
  5
5791F
  8
2
 10
34.969622617479388
 20
26.33005077825441
 30
0.0
 11
34.969622617479388
 21
38.330050778254403
 31
0.0
  0
LINE
  5
57920
  8
2
 10
34.969622617479388
 20
38.330050778254403
 30
0.0
 11
32.51112261747943
 21
39.749466415057093
 31
0.0
  0
LINE
  5
57921
  8
2
 10
29.51112261747943
 20
26.33005077825441
 30
0.0
 11
29.51112261747943
 21
36.33005077825441
 31
0.0
  0
LINE
  5
57922
  8
2
 10
35.51112261747943
 20
36.33005077825441
 30
0.0
 11
29.51112261747943
 21
36.33005077825441
 31
0.0
  0
LINE
  5
57923
  8
2
 10
34.969622617479388
 20
38.330050778254403
 30
0.0
 11
30.052622617479472
 21
38.330050778254403
 31
0.0
  0
LINE
  5
57924
  8
2
 10
30.052622617479472
 20
38.330050778254403
 30
0.0
 11
30.052622617479472
 21
26.33005077825441
 31
0.0
  0
LINE
  5
57925
  8
2
 10
32.51112261747943
 20
39.749466415057093
 30
0.0
 11
30.052622617479472
 21
38.330050778254403
 31
0.0
  0
ARC
  5
57C01
  8
0
 10
29.111259468264109
 20
55.229913927469731
 30
0.0
 40
1.1143859031821211
 50
99.172266470030664
 51
170.8277335299681
  0
ARC
  5
57C02
  8
0
 10
35.910985766694751
 20
55.229913927469731
 30
0.0
 40
1.1143859031821211
 50
9.1722664700318344
 51
80.827733529969336
  0
ARC
  5
57C03
  8
0
 10
170.47266600335041
 20
53.83056912717214
 30
0.0
 40
4.5005183489177707
 50
180.8696041994906
 51
359.13039580045893
  0
ARC
  5
57C04
  8
0
 10
173.35104438172681
 20
54.708429156632747
 30
0.0
 40
1.6216216216216339
 50
0.0
 51
90.0
  0
ARC
  5
57C05
  8
0
 10
167.59428762497009
 20
54.708429156632747
 30
0.0
 40
1.6216216216216339
 50
90.0
 51
180.0
  0
LINE
  5
57C06
  8
0
 10
167.59428762497009
 20
56.330050778254389
 30
0.0
 11
173.35104438172681
 21
56.330050778254389
 31
0.0
  0
ARC
  5
57C07
  8
3
 10
126.741894310414
 20
100.19431007414219
 30
0.0
 40
3.577499999999957
 50
270.0
 51
90.0
  0
LINE
  5
57C08
  8
3
 10
111.0049169635984
 20
96.616810074142194
 30
0.0
 11
126.7418943103936
 21
96.616810074142236
 31
0.0
  0
LINE
  5
57C09
  8
3
 10
126.741894310414
 20
103.77181007414219
 30
0.0
 11
111.0049169635984
 21
103.77181007414219
 31
0.0
  0
POLYLINE
  5
57C0A
  8
3
 66
     1
 10
0.0
 20
0.0
 30
0.0
  0
VERTEX
  5
57F66
  8
3
 10
110.9994747702486
 20
96.616794021174101
 30
0.0
  0
VERTEX
  5
57F67
  8
3
 10
110.8998388252848
 20
96.616206218991934
 30
0.0
  0
VERTEX
  5
57F68
  8
3
 10
110.6967020697867
 20
96.611397011691196
 30
0.0
  0
VERTEX
  5
57F69
  8
3
 10
110.492245838448
 20
96.601677312007112
 30
0.0
  0
VERTEX
  5
57F6A
  8
3
 10
110.3854381387733
 20
96.594673788372404
 30
0.0
  0
VERTEX
  5
57F6B
  8
3
 10
110.2783362675215
 20
96.586354364766024
 30
0.0
  0
VERTEX
  5
57F6C
  8
3
 10
110.0718519413705
 20
96.566538770487568
 30
0.0
  0
VERTEX
  5
57F6D
  8
3
 10
109.8619882617382
 20
96.541237697314557
 30
0.0
  0
VERTEX
  5
57F6E
  8
3
 10
109.65176120606949
 20
96.510664686208045
 30
0.0
  0
VERTEX
  5
57F6F
  8
3
 10
109.4414220354259
 20
96.474782247187974
 30
0.0
  0
VERTEX
  5
57F70
  8
3
 10
109.2340235551852
 20
96.434116468292572
 30
0.0
  0
VERTEX
  5
57F71
  8
3
 10
109.1262638112986
 20
96.410904769322116
 30
0.0
  0
VERTEX
  5
57F72
  8
3
 10
109.0186135439575
 20
96.386316932788006
 30
0.0
  0
VERTEX
  5
57F73
  8
3
 10
108.8121700521567
 20
96.335100024946655
 30
0.0
  0
VERTEX
  5
57F74
  8
3
 10
108.60381111376481
 20
96.277868201909442
 30
0.0
  0
VERTEX
  5
57F75
  8
3
 10
108.3965483578264
 20
96.215338894614874
 30
0.0
  0
VERTEX
  5
57F76
  8
3
 10
108.1906183111966
 20
96.147555200639317
 30
0.0
  0
VERTEX
  5
57F77
  8
3
 10
107.98897204338139
 20
96.075544130766545
 30
0.0
  0
VERTEX
  5
57F78
  8
3
 10
107.88474810063001
 20
96.036103195849122
 30
0.0
  0
VERTEX
  5
57F79
  8
3
 10
107.7810101561474
 20
95.995354504853964
 30
0.0
  0
VERTEX
  5
57F7A
  8
3
 10
107.58309663808581
 20
95.913290928956116
 30
0.0
  0
VERTEX
  5
57F7B
  8
3
 10
107.38730334078529
 20
95.826299864173507
 30
0.0
  0
VERTEX
  5
57F7C
  8
3
 10
107.29157037756571
 20
95.781594898028615
 30
0.0
  0
SEQEND
  5
57F7D
  8
3
  0
POLYLINE
  5
57C0B
  8
3
 66
     1
 10
0.0
 20
0.0
 30
0.0
  0
VERTEX
  5
57F7E
  8
3
 10
107.28412183302861
 20
95.778076013656076
 30
0.0
  0
VERTEX
  5
57F7F
  8
3
 10
107.24338594762121
 20
95.758608379176493
 30
0.0
  0
VERTEX
  5
57F80
  8
3
 10
107.1600945819808
 20
95.717973013258117
 30
0.0
  0
VERTEX
  5
57F81
  8
3
 10
107.0759145314522
 20
95.675760155331915
 30
0.0
  0
VERTEX
  5
57F82
  8
3
 10
107.03178572817249
 20
95.653171662279803
 30
0.0
  0
VERTEX
  5
57F83
  8
3
 10
106.9874042727857
 20
95.630139716949799
 30
0.0
  0
VERTEX
  5
57F84
  8
3
 10
106.9015123283324
 20
95.584636531911727
 30
0.0
  0
VERTEX
  5
57F85
  8
3
 10
106.81374851857061
 20
95.536848030006965
 30
0.0
  0
VERTEX
  5
57F86
  8
3
 10
106.7253231560624
 20
95.487360505413776
 30
0.0
  0
VERTEX
  5
57F87
  8
3
 10
106.63631301207489
 20
95.436161630266668
 30
0.0
  0
VERTEX
  5
57F88
  8
3
 10
106.54800437431901
 20
95.383956127443426
 30
0.0
  0
VERTEX
  5
57F89
  8
3
 10
106.5019000259702
 20
95.356136323390757
 30
0.0
  0
VERTEX
  5
57F8A
  8
3
 10
106.45566816912179
 20
95.327855502678275
 30
0.0
  0
VERTEX
  5
57F8B
  8
3
 10
106.3665591888257
 20
95.272215505867209
 30
0.0
  0
VERTEX
  5
57F8C
  8
3
 10
106.275998216752
 20
95.214103386679511
 30
0.0
  0
VERTEX
  5
57F8D
  8
3
 10
106.1852479950556
 20
95.154259075604685
 30
0.0
  0
VERTEX
  5
57F8E
  8
3
 10
106.09438158744589
 20
95.092682061144302
 30
0.0
  0
VERTEX
  5
57F8F
  8
3
 10
106.0046621937359
 20
95.030202753508107
 30
0.0
  0
VERTEX
  5
57F90
  8
3
 10
105.9579853341515
 20
94.997027318731597
 30
0.0
  0
VERTEX
  5
57F91
  8
3
 10
105.91129607387791
 20
94.963387853444459
 30
0.0
  0
VERTEX
  5
57F92
  8
3
 10
105.82161929238561
 20
94.897440491100184
 30
0.0
  0
VERTEX
  5
57F93
  8
3
 10
105.7321210412001
 20
94.829806030502553
 30
0.0
  0
VERTEX
  5
57F94
  8
3
 10
105.65757224631319
 20
94.784884634748266
 30
0.0
  0
SEQEND
  5
57F95
  8
3
  0
POLYLINE
  5
57C0C
  8
3
 66
     1
 10
0.0
 20
0.0
 30
0.0
  0
VERTEX
  5
57F96
  8
3
 10
107.28412183302861
 20
104.6105441346283
 30
0.0
  0
VERTEX
  5
57F97
  8
3
 10
107.24338594762121
 20
104.6300117691079
 30
0.0
  0
VERTEX
  5
57F98
  8
3
 10
107.1600945819808
 20
104.6706471350263
 30
0.0
  0
VERTEX
  5
57F99
  8
3
 10
107.0759145314522
 20
104.7128599929525
 30
0.0
  0
VERTEX
  5
57F9A
  8
3
 10
107.03178572817249
 20
104.7354484860046
 30
0.0
  0
VERTEX
  5
57F9B
  8
3
 10
106.9874042727857
 20
104.7584804313346
 30
0.0
  0
VERTEX
  5
57F9C
  8
3
 10
106.9015123283324
 20
104.80398361637261
 30
0.0
  0
VERTEX
  5
57F9D
  8
3
 10
106.81374851857061
 20
104.8517721182774
 30
0.0
  0
VERTEX
  5
57F9E
  8
3
 10
106.7253231560624
 20
104.9012596428706
 30
0.0
  0
VERTEX
  5
57F9F
  8
3
 10
106.63631301207489
 20
104.95245851801771
 30
0.0
  0
VERTEX
  5
57FA0
  8
3
 10
106.54800437431901
 20
105.00466402084091
 30
0.0
  0
VERTEX
  5
57FA1
  8
3
 10
106.5019000259702
 20
105.0324838248936
 30
0.0
  0
VERTEX
  5
57FA2
  8
3
 10
106.45566816912179
 20
105.0607646456061
 30
0.0
  0
VERTEX
  5
57FA3
  8
3
 10
106.3665591888257
 20
105.11640464241719
 30
0.0
  0
VERTEX
  5
57FA4
  8
3
 10
106.275998216752
 20
105.17451676160491
 30
0.0
  0
VERTEX
  5
57FA5
  8
3
 10
106.1852479950556
 20
105.2343610726797
 30
0.0
  0
VERTEX
  5
57FA6
  8
3
 10
106.09438158744589
 20
105.2959380871401
 30
0.0
  0
VERTEX
  5
57FA7
  8
3
 10
106.0046621937359
 20
105.3584173947763
 30
0.0
  0
VERTEX
  5
57FA8
  8
3
 10
105.9579853341515
 20
105.39159282955281
 30
0.0
  0
VERTEX
  5
57FA9
  8
3
 10
105.91129607387791
 20
105.4252322948399
 30
0.0
  0
VERTEX
  5
57FAA
  8
3
 10
105.82161929238561
 20
105.4911796571842
 30
0.0
  0
VERTEX
  5
57FAB
  8
3
 10
105.7321210412001
 20
105.55881411778179
 30
0.0
  0
VERTEX
  5
57FAC
  8
3
 10
105.65757224631319
 20
105.60373551353609
 30
0.0
  0
SEQEND
  5
57FAD
  8
3
  0
POLYLINE
  5
57C0D
  8
3
 66
     1
 10
0.0
 20
0.0
 30
0.0
  0
VERTEX
  5
57FAE
  8
3
 10
110.9994747702486
 20
103.7718261271103
 30
0.0
  0
VERTEX
  5
57FAF
  8
3
 10
110.8998388252848
 20
103.7724139292924
 30
0.0
  0
VERTEX
  5
57FB0
  8
3
 10
110.6967020697867
 20
103.77722313659319
 30
0.0
  0
VERTEX
  5
57FB1
  8
3
 10
110.492245838448
 20
103.7869428362773
 30
0.0
  0
VERTEX
  5
57FB2
  8
3
 10
110.3854381387733
 20
103.793946359912
 30
0.0
  0
VERTEX
  5
57FB3
  8
3
 10
110.2783362675215
 20
103.80226578351839
 30
0.0
  0
VERTEX
  5
57FB4
  8
3
 10
110.0718519413705
 20
103.82208137779681
 30
0.0
  0
VERTEX
  5
57FB5
  8
3
 10
109.8619882617382
 20
103.8473824509698
 30
0.0
  0
VERTEX
  5
57FB6
  8
3
 10
109.65176120606949
 20
103.8779554620763
 30
0.0
  0
VERTEX
  5
57FB7
  8
3
 10
109.4414220354259
 20
103.9138379010964
 30
0.0
  0
VERTEX
  5
57FB8
  8
3
 10
109.2340235551852
 20
103.9545036799918
 30
0.0
  0
VERTEX
  5
57FB9
  8
3
 10
109.1262638112986
 20
103.9777153789623
 30
0.0
  0
VERTEX
  5
57FBA
  8
3
 10
109.0186135439575
 20
104.0023032154964
 30
0.0
  0
VERTEX
  5
57FBB
  8
3
 10
108.8121700521567
 20
104.05352012333771
 30
0.0
  0
VERTEX
  5
57FBC
  8
3
 10
108.60381111376481
 20
104.1107519463749
 30
0.0
  0
VERTEX
  5
57FBD
  8
3
 10
108.3965483578264
 20
104.1732812536695
 30
0.0
  0
VERTEX
  5
57FBE
  8
3
 10
108.1906183111966
 20
104.2410649476451
 30
0.0
  0
VERTEX
  5
57FBF
  8
3
 10
107.98897204338139
 20
104.3130760175178
 30
0.0
  0
VERTEX
  5
57FC0
  8
3
 10
107.88474810063001
 20
104.35251695243529
 30
0.0
  0
VERTEX
  5
57FC1
  8
3
 10
107.7810101561474
 20
104.3932656434304
 30
0.0
  0
VERTEX
  5
57FC2
  8
3
 10
107.58309663808581
 20
104.4753292193283
 30
0.0
  0
VERTEX
  5
57FC3
  8
3
 10
107.38730334078529
 20
104.5623202841109
 30
0.0
  0
VERTEX
  5
57FC4
  8
3
 10
107.29157037756571
 20
104.6070252502558
 30
0.0
  0
SEQEND
  5
57FC5
  8
3
  0
ARC
  5
57C0E
  8
3
 10
93.722027391283973
 20
100.19431007414219
 30
0.0
 40
14.48250673635196
 50
342.75155316026019
 51
17.248446839739842
  0
ARC
  5
57C0F
  8
3
 10
101.4918943104139
 20
100.19431007414219
 30
0.0
 40
6.8274999999999988
 50
52.40093389531318
 51
307.59906610468789
  0
LINE
  5
57C10
  8
0
 10
124.63561515724339
 20
51.609474636058749
 30
0.0
 11
121.2265659034984
 21
51.01806629585586
 31
0.0
  0
POLYLINE
  5
57C11
  8
0
 66
     1
 10
0.0
 20
0.0
 30
0.0
  0
VERTEX
  5
57FC6
  8
0
 10
128.51189431041399
 20
49.330050778254403
 30
0.0
  0
VERTEX
  5
57FC7
  8
0
 10
128.59328225778489
 20
49.330050778254403
 30
0.0
  0
VERTEX
  5
57FC8
  8
0
 10
128.6189466394876
 20
49.330050778254403
 30
0.0
  0
VERTEX
  5
57FC9
  8
0
 10
128.6828508840297
 20
49.330050778254403
 30
0.0
  0
VERTEX
  5
57FCA
  8
0
 10
128.7462209672893
 20
49.330050778254403
 30
0.0
  0
VERTEX
  5
57FCB
  8
0
 10
128.8473943578297
 20
49.330050778254403
 30
0.0
  0
VERTEX
  5
57FCC
  8
0
 10
128.8949199416154
 20
49.330050778254403
 30
0.0
  0
VERTEX
  5
57FCD
  8
0
 10
129.0353145209377
 20
49.3363966841574
 30
0.0
  0
VERTEX
  5
57FCE
  8
0
 10
129.22065863647049
 20
49.369798613878963
 30
0.0
  0
VERTEX
  5
57FCF
  8
0
 10
129.4700212357782
 20
49.424543972431238
 30
0.0
  0
VERTEX
  5
57FD0
  8
0
 10
129.69631361830241
 20
49.510599306389487
 30
0.0
  0
VERTEX
  5
57FD1
  8
0
 10
130.00977676934991
 20
49.668855192442933
 30
0.0
  0
VERTEX
  5
57FD2
  8
0
 10
130.3542579636426
 20
50.016166707196007
 30
0.0
  0
VERTEX
  5
57FD3
  8
0
 10
130.61399395370631
 20
50.4316871839154
 30
0.0
  0
VERTEX
  5
57FD4
  8
0
 10
130.83407835062329
 20
50.859955629895794
 30
0.0
  0
VERTEX
  5
57FD5
  8
0
 10
131.02342555910789
 20
51.406735446516542
 30
0.0
  0
VERTEX
  5
57FD6
  8
0
 10
131.14965520769849
 20
51.848365449359207
 30
0.0
  0
VERTEX
  5
57FD7
  8
0
 10
131.214224458704
 20
52.388677084532318
 30
0.0
  0
VERTEX
  5
57FD8
  8
0
 10
131.2418943104139
 20
53.306161933800112
 30
0.0
  0
SEQEND
  5
57FD9
  8
0
  0
LINE
  5
57C12
  8
0
 10
173.97266600334851
 20
26.530050778254409
 30
0.0
 11
173.97266600334851
 21
26.330050778254389
 31
0.0
  0
LINE
  5
57C13
  8
0
 10
166.97266600334851
 20
26.530050778254409
 30
0.0
 11
166.97266600334851
 21
26.330050778254389
 31
0.0
  0
LINE
  5
57C14
  8
0
 10
166.97266600334851
 20
26.330050778254389
 30
0.0
 11
173.97266600334851
 21
26.330050778254389
 31
0.0
  0
LINE
  5
57C15
  8
0
 10
176.47266600334851
 20
32.330050778254389
 30
0.0
 11
176.47266600334851
 21
27.03005077825452
 31
0.0
  0
LINE
  5
57C16
  8
0
 10
175.97266600334851
 20
26.530050778254409
 30
0.0
 11
176.47266600334851
 21
27.03005077825452
 31
0.0
  0
LINE
  5
57C17
  8
0
 10
164.47266600334851
 20
32.330050778254389
 30
0.0
 11
164.47266600334851
 21
27.03005077825452
 31
0.0
  0
LINE
  5
57C18
  8
0
 10
164.97266600334839
 20
26.530050778254409
 30
0.0
 11
175.97266600334851
 21
26.530050778254409
 31
0.0
  0
LINE
  5
57C19
  8
0
 10
164.97266600334839
 20
26.530050778254409
 30
0.0
 11
164.47266600334851
 21
27.03005077825452
 31
0.0
  0
LINE
  5
57C1A
  8
0
 10
176.47266600334851
 20
31.530050778254409
 30
0.0
 11
164.47266600334851
 21
31.530050778254409
 31
0.0
  0
LINE
  5
57C1B
  8
0
 10
38.51112261747943
 20
31.530050778254392
 30
0.0
 11
26.51112261747943
 21
31.530050778254392
 31
0.0
  0
LINE
  5
57C1C
  8
0
 10
27.011122617479369
 20
26.530050778254392
 30
0.0
 11
26.51112261747943
 21
27.030050778254509
 31
0.0
  0
LINE
  5
57C1D
  8
0
 10
27.011122617479369
 20
26.530050778254392
 30
0.0
 11
38.011122617479487
 21
26.530050778254392
 31
0.0
  0
LINE
  5
57C1E
  8
0
 10
26.51112261747943
 20
32.330050778254382
 30
0.0
 11
26.51112261747943
 21
27.030050778254509
 31
0.0
  0
LINE
  5
57C1F
  8
0
 10
38.011122617479487
 20
26.530050778254392
 30
0.0
 11
38.51112261747943
 21
27.030050778254509
 31
0.0
  0
LINE
  5
57C20
  8
0
 10
38.51112261747943
 20
32.330050778254382
 30
0.0
 11
38.51112261747943
 21
27.030050778254509
 31
0.0
  0
LINE
  5
57C21
  8
0
 10
29.01112261747943
 20
26.330050778254371
 30
0.0
 11
36.011122617479487
 21
26.330050778254371
 31
0.0
  0
LINE
  5
57C22
  8
0
 10
29.01112261747943
 20
26.530050778254392
 30
0.0
 11
29.01112261747943
 21
26.330050778254371
 31
0.0
  0
LINE
  5
57C23
  8
0
 10
36.011122617479487
 20
26.530050778254392
 30
0.0
 11
36.011122617479487
 21
26.330050778254371
 31
0.0
  0
ARC
  5
57C24
  8
0
 10
128.68913904700341
 20
53.777295514843829
 30
0.0
 40
2.560195098730937
 50
4.3690597804379978
 51
85.630940219576473
  0
POLYLINE
  5
57C25
  8
0
 66
     1
 10
0.0
 20
0.0
 30
0.0
  0
VERTEX
  5
57FDA
  8
0
 10
128.48189431041391
 20
49.330050778254403
 30
0.0
  0
VERTEX
  5
57FDB
  8
0
 10
128.38884679464331
 20
49.334276877287131
 30
0.0
  0
VERTEX
  5
57FDC
  8
0
 10
128.32754563227539
 20
49.347728298852061
 30
0.0
  0
VERTEX
  5
57FDD
  8
0
 10
128.2767084441935
 20
49.364167769402549
 30
0.0
  0
VERTEX
  5
57FDE
  8
0
 10
128.2019507522744
 20
49.397049311068351
 30
0.0
  0
VERTEX
  5
57FDF
  8
0
 10
128.14214314868201
 20
49.432918901719951
 30
0.0
  0
VERTEX
  5
57FE0
  8
0
 10
128.07340138100611
 20
49.470490562050472
 30
0.0
  0
VERTEX
  5
57FE1
  8
0
 10
127.9922761260062
 20
49.517794836243958
 30
0.0
  0
VERTEX
  5
57FE2
  8
0
 10
127.9179099494941
 20
49.568477244146933
 30
0.0
  0
VERTEX
  5
57FE3
  8
0
 10
127.8570655551014
 20
49.636055521727577
 30
0.0
  0
VERTEX
  5
57FE4
  8
0
 10
127.8165038338871
 20
49.703632499025943
 30
0.0
  0
VERTEX
  5
57FE5
  8
0
 10
127.7348746840574
 20
49.873321954517998
 30
0.0
  0
VERTEX
  5
57FE6
  8
0
 10
127.6584004870893
 20
50.116984476498928
 30
0.0
  0
VERTEX
  5
57FE7
  8
0
 10
127.5819262901209
 20
50.33675951026644
 30
0.0
  0
VERTEX
  5
57FE8
  8
0
 10
127.4719938389792
 20
50.537422993124082
 30
0.0
  0
VERTEX
  5
57FE9
  8
0
 10
127.3620632004088
 20
50.747642251436538
 30
0.0
  0
VERTEX
  5
57FEA
  8
0
 10
127.24181721840159
 20
50.924160790162993
 30
0.0
  0
VERTEX
  5
57FEB
  8
0
 10
127.0714101374183
 20
51.147727447447423
 30
0.0
  0
VERTEX
  5
57FEC
  8
0
 10
126.94893288010419
 20
51.291448962864798
 30
0.0
  0
VERTEX
  5
57FED
  8
0
 10
126.9287027714943
 20
51.314158395211827
 30
0.0
  0
SEQEND
  5
57FEE
  8
0
  0
ARC
  5
57C26
  8
0
 10
126.06809788965199
 20
35.087274469850641
 30
0.0
 40
16.650242045581901
 50
106.9045679124866
 51
141.5022645620557
  0
LINE
  5
57C27
  8
0
 10
109.2418943104139
 20
32.33005077825441
 30
0.0
 11
109.241894310414
 21
40.054374540342558
 31
0.0
  0
ARC
  5
57C28
  8
2
 10
131.8261697203975
 20
-14.96670610595443
 30
0.0
 40
68.743712025019249
 50
93.283413247178402
 51
108.17052093980359
  0
LINE
  5
57C29
  8
2
 10
109.2418958553873
 20
48.830069638713631
 30
0.0
 11
109.241894310414
 21
40.054374540342323
 31
0.0
  0
ARC
  5
57C2A
  8
2
 10
110.86186723338631
 20
48.820499393988072
 30
0.0
 40
1.6000000000000001
 50
107.2008933668221
 51
179.6666666666666
  0
ARC
  5
57C2B
  8
2
 10
127.93233371109611
 20
52.707751309665618
 30
0.0
 40
0.9599999999999999
 50
1.0000000000001461
 51
90.965973498775256
  0
LINE
  5
57C2C
  8
2
 10
128.8978910982475
 20
49.330185076034986
 30
0.0
 11
128.85089168584341
 21
52.022779609330023
 31
0.0
  0
CIRCLE
  5
57C2D
  8
0
 10
111.7418943104139
 20
100.19431007414219
 30
0.0
 40
0.5
  0
CIRCLE
  5
57C2E
  8
0
 10
115.7418943104139
 20
100.19431007414219
 30
0.0
 40
0.5
  0
CIRCLE
  5
57C2F
  8
0
 10
117.7418943104139
 20
100.19431007414219
 30
0.0
 40
0.5
  0
CIRCLE
  5
57C30
  8
0
 10
109.7418943104139
 20
100.19431007414219
 30
0.0
 40
0.5
  0
CIRCLE
  5
57C31
  8
0
 10
113.7418943104139
 20
100.19431007414219
 30
0.0
 40
0.5
  0
LINE
  5
57C32
  8
0
 10
27.2536227639734
 20
53.588316783292818
 30
0.0
 11
28.63612261747943
 21
53.588316783292818
 31
0.0
  0
LINE
  5
57C33
  8
0
 10
37.768622470985463
 20
53.588316783292818
 30
0.0
 11
36.38612261747943
 21
53.588316783292818
 31
0.0
  0
LINE
  5
57C34
  8
0
 10
36.38612261747943
 20
55.53505077825438
 30
0.0
 11
36.38612261747943
 21
51.405050778254392
 31
0.0
  0
LINE
  5
57C35
  8
0
 10
36.091122617479471
 20
55.830050778254368
 30
0.0
 11
28.931122617479438
 21
55.830050778254368
 31
0.0
  0
ARC
  5
57C36
  8
0
 10
36.091122617479471
 20
55.53505077825438
 30
0.0
 40
0.2950000000000048
 50
0.0
 51
90.0
  0
LINE
  5
57C37
  8
0
 10
28.63612261747943
 20
55.53505077825438
 30
0.0
 11
28.63612261747943
 21
51.405050778254392
 31
0.0
  0
ARC
  5
57C38
  8
0
 10
28.931122617479438
 20
55.53505077825438
 30
0.0
 40
0.2950000000000088
 50
90.0
 51
180.0
  0
LINE
  5
57C39
  8
0
 10
24.76112261747943
 20
51.405050778254392
 30
0.0
 11
40.261122617479423
 21
51.405050778254392
 31
0.0
  0
LINE
  5
57C3A
  8
0
 10
40.261122617479423
 20
51.40505077825437
 30
0.0
 11
40.261122617479423
 21
32.330050778254382
 31
0.0
  0
LINE
  5
57C3B
  8
0
 10
24.76112261747943
 20
32.330050778254382
 30
0.0
 11
24.76112261747943
 21
51.40505077825437
 31
0.0
  0
LINE
  5
57C3C
  8
1
 10
32.51112261747943
 20
61.330050778254368
 30
0.0
 11
32.51112261747943
 21
21.330050778254371
 31
0.0
  0
LINE
  5
57C3D
  8
0
 10
28.01112261747943
 20
55.407550778254162
 30
0.0
 11
28.01112261747943
 21
53.74838138470453
 31
0.0
  0
POLYLINE
  5
57C3E
  8
0
 66
     1
 10
0.0
 20
0.0
 30
0.0
  0
VERTEX
  5
57FEF
  8
0
 10
27.262552503325821
 20
53.607550778254392
 30
0.0
  0
VERTEX
  5
57FF0
  8
0
 10
27.24469302462364
 20
53.569082788336821
 30
0.0
  0
VERTEX
  5
57FF1
  8
0
 10
27.20790101651977
 20
53.493122732146887
 30
0.0
  0
VERTEX
  5
57FF2
  8
0
 10
27.169659369231852
 20
53.418496272538754
 30
0.0
  0
VERTEX
  5
57FF3
  8
0
 10
27.149988355652681
 20
53.381694903045457
 30
0.0
  0
VERTEX
  5
57FF4
  8
0
 10
27.129947330826379
 20
53.345240829910509
 30
0.0
  0
VERTEX
  5
57FF5
  8
0
 10
27.08874648690443
 20
53.273391998755848
 30
0.0
  0
VERTEX
  5
57FF6
  8
0
 10
27.046040841154369
 20
53.202983251202681
 30
0.0
  0
VERTEX
  5
57FF7
  8
0
 10
27.001816872849592
 20
53.13404566702836
 30
0.0
  0
VERTEX
  5
57FF8
  8
0
 10
26.956063568250158
 20
53.066607690067173
 30
0.0
  0
VERTEX
  5
57FF9
  8
0
 10
26.908772423171911
 20
53.000694911508759
 30
0.0
  0
VERTEX
  5
57FFA
  8
0
 10
26.884548182670471
 20
52.968317641698889
 30
0.0
  0
VERTEX
  5
57FFB
  8
0
 10
26.859937414057931
 20
52.936329880584118
 30
0.0
  0
VERTEX
  5
57FFC
  8
0
 10
26.809554935017729
 20
52.8735319431173
 30
0.0
  0
VERTEX
  5
57FFD
  8
0
 10
26.75762369847547
 20
52.812317108382537
 30
0.0
  0
VERTEX
  5
57FFE
  8
0
 10
26.70414459730603
 20
52.75269794464792
 30
0.0
  0
VERTEX
  5
57FFF
  8
0
 10
26.649117670774391
 20
52.694680575435051
 30
0.0
  0
VERTEX
  5
58000
  8
0
 10
26.592522784884348
 20
52.638246905930963
 30
0.0
  0
VERTEX
  5
58001
  8
0
 10
26.56363724254868
 20
52.610624184724372
 30
0.0
  0
VERTEX
  5
58002
  8
0
 10
26.534361087206829
 20
52.583398557075931
 30
0.0
  0
VERTEX
  5
58003
  8
0
 10
26.474642401223662
 20
52.530140592936903
 30
0.0
  0
VERTEX
  5
58004
  8
0
 10
26.41337942781405
 20
52.478475243412149
 30
0.0
  0
VERTEX
  5
58005
  8
0
 10
26.38217355236014
 20
52.453239699470103
 30
0.0
  0
SEQEND
  5
58006
  8
0
  0
POLYLINE
  5
57C3F
  8
0
 66
     1
 10
0.0
 20
0.0
 30
0.0
  0
VERTEX
  5
58007
  8
0
 10
28.01112261747943
 20
53.748381384704551
 30
0.0
  0
VERTEX
  5
58008
  8
0
 10
28.010583172838381
 20
53.742988946362729
 30
0.0
  0
VERTEX
  5
58009
  8
0
 10
28.00622817084497
 20
53.732401282919959
 30
0.0
  0
VERTEX
  5
5800A
  8
0
 10
27.99742420129002
 20
53.722093595923432
 30
0.0
  0
VERTEX
  5
5800B
  8
0
 10
27.99132665389072
 20
53.717050770097991
 30
0.0
  0
VERTEX
  5
5800C
  8
0
 10
27.984085890856651
 20
53.712084967379297
 30
0.0
  0
VERTEX
  5
5800D
  8
0
 10
27.966141184488318
 20
53.702392821608868
 30
0.0
  0
VERTEX
  5
5800E
  8
0
 10
27.943531236934351
 20
53.6930328179211
 30
0.0
  0
VERTEX
  5
5800F
  8
0
 10
27.916210120436581
 20
53.684018767094138
 30
0.0
  0
VERTEX
  5
58010
  8
0
 10
27.884144344414441
 20
53.675362571388789
 30
0.0
  0
VERTEX
  5
58011
  8
0
 10
27.847312188308251
 20
53.667074189346941
 30
0.0
  0
VERTEX
  5
58012
  8
0
 10
27.82710502669892
 20
53.663070521922371
 30
0.0
  0
VERTEX
  5
58013
  8
0
 10
27.805703337022809
 20
53.659161710759591
 30
0.0
  0
VERTEX
  5
58014
  8
0
 10
27.759319633027701
 20
53.651631577669818
 30
0.0
  0
VERTEX
  5
58015
  8
0
 10
27.708175361501329
 20
53.644488602271551
 30
0.0
  0
VERTEX
  5
58016
  8
0
 10
27.652297089650801
 20
53.637735925936447
 30
0.0
  0
VERTEX
  5
58017
  8
0
 10
27.59172333871879
 20
53.631375001486148
 30
0.0
  0
VERTEX
  5
58018
  8
0
 10
27.526504092049439
 20
53.62540559815158
 30
0.0
  0
VERTEX
  5
58019
  8
0
 10
27.492171003350279
 20
53.622567190473013
 30
0.0
  0
VERTEX
  5
5801A
  8
0
 10
27.456700137277839
 20
53.619825827804377
 30
0.0
  0
VERTEX
  5
5801B
  8
0
 10
27.382377907154201
 20
53.614631907943448
 30
0.0
  0
VERTEX
  5
5801C
  8
0
 10
27.303592855662199
 20
53.609817511629188
 30
0.0
  0
VERTEX
  5
5801D
  8
0
 10
27.262552503325821
 20
53.607550778254407
 30
0.0
  0
SEQEND
  5
5801E
  8
0
  0
LINE
  5
57C40
  8
0
 10
37.01112261747943
 20
55.407550778254162
 30
0.0
 11
37.01112261747943
 21
53.74838138470453
 31
0.0
  0
LINE
  5
57C41
  8
0
 10
36.088622617479423
 20
56.330050778254368
 30
0.0
 11
28.93362261747944
 21
56.330050778254368
 31
0.0
  0
POLYLINE
  5
57C42
  8
0
 66
     1
 10
0.0
 20
0.0
 30
0.0
  0
VERTEX
  5
5801F
  8
0
 10
37.759692731633038
 20
53.607550778254421
 30
0.0
  0
VERTEX
  5
58020
  8
0
 10
37.718652379296707
 20
53.609817511629188
 30
0.0
  0
VERTEX
  5
58021
  8
0
 10
37.639867327804673
 20
53.614631907943462
 30
0.0
  0
VERTEX
  5
58022
  8
0
 10
37.565545097681031
 20
53.619825827804377
 30
0.0
  0
VERTEX
  5
58023
  8
0
 10
37.53007423160858
 20
53.622567190473013
 30
0.0
  0
VERTEX
  5
58024
  8
0
 10
37.495741142909417
 20
53.62540559815158
 30
0.0
  0
VERTEX
  5
58025
  8
0
 10
37.430521896240073
 20
53.631375001486148
 30
0.0
  0
VERTEX
  5
58026
  8
0
 10
37.369948145308058
 20
53.637735925936447
 30
0.0
  0
VERTEX
  5
58027
  8
0
 10
37.314069873457527
 20
53.644488602271551
 30
0.0
  0
VERTEX
  5
58028
  8
0
 10
37.262925601931158
 20
53.651631577669818
 30
0.0
  0
VERTEX
  5
58029
  8
0
 10
37.216541897936061
 20
53.659161710759591
 30
0.0
  0
VERTEX
  5
5802A
  8
0
 10
37.195140208259943
 20
53.663070521922371
 30
0.0
  0
VERTEX
  5
5802B
  8
0
 10
37.174933046650608
 20
53.667074189346941
 30
0.0
  0
VERTEX
  5
5802C
  8
0
 10
37.138100890544422
 20
53.675362571388789
 30
0.0
  0
VERTEX
  5
5802D
  8
0
 10
37.106035114522292
 20
53.684018767094138
 30
0.0
  0
VERTEX
  5
5802E
  8
0
 10
37.078713998024512
 20
53.6930328179211
 30
0.0
  0
VERTEX
  5
5802F
  8
0
 10
37.056104050470537
 20
53.702392821608868
 30
0.0
  0
VERTEX
  5
58030
  8
0
 10
37.038159344102212
 20
53.712084967379297
 30
0.0
  0
VERTEX
  5
58031
  8
0
 10
37.030918581068143
 20
53.717050770097991
 30
0.0
  0
VERTEX
  5
58032
  8
0
 10
37.02482103366885
 20
53.722093595923432
 30
0.0
  0
VERTEX
  5
58033
  8
0
 10
37.016017064113903
 20
53.732401282919959
 30
0.0
  0
VERTEX
  5
58034
  8
0
 10
37.011662062120479
 20
53.742988946362729
 30
0.0
  0
VERTEX
  5
58035
  8
0
 10
37.01112261747943
 20
53.74838138470453
 30
0.0
  0
SEQEND
  5
58036
  8
0
  0
POLYLINE
  5
57C43
  8
0
 66
     1
 10
0.0
 20
0.0
 30
0.0
  0
VERTEX
  5
58037
  8
0
 10
38.640071682598723
 20
52.453239699470103
 30
0.0
  0
VERTEX
  5
58038
  8
0
 10
38.60886580714498
 20
52.478475243412028
 30
0.0
  0
VERTEX
  5
58039
  8
0
 10
38.547602833735539
 20
52.530140592936561
 30
0.0
  0
VERTEX
  5
5803A
  8
0
 10
38.487884147752709
 20
52.583398557075341
 30
0.0
  0
VERTEX
  5
5803B
  8
0
 10
38.458607992410919
 20
52.610624184723662
 30
0.0
  0
VERTEX
  5
5803C
  8
0
 10
38.429722450075417
 20
52.638246905930131
 30
0.0
  0
VERTEX
  5
5803D
  8
0
 10
38.373127564185552
 20
52.694680575433949
 30
0.0
  0
VERTEX
  5
5803E
  8
0
 10
38.31810063765414
 20
52.752697944646521
 30
0.0
  0
VERTEX
  5
5803F
  8
0
 10
38.264621536484867
 20
52.812317108380839
 30
0.0
  0
VERTEX
  5
58040
  8
0
 10
38.212690299942778
 20
52.873531943115289
 30
0.0
  0
VERTEX
  5
58041
  8
0
 10
38.162307820902761
 20
52.936329880581788
 30
0.0
  0
VERTEX
  5
58042
  8
0
 10
38.137697052290321
 20
52.96831764169638
 30
0.0
  0
VERTEX
  5
58043
  8
0
 10
38.113472811789002
 20
53.000694911506081
 30
0.0
  0
VERTEX
  5
58044
  8
0
 10
38.066181666710861
 20
53.066607690064139
 30
0.0
  0
VERTEX
  5
58045
  8
0
 10
38.020428362111552
 20
53.134045667024978
 30
0.0
  0
VERTEX
  5
58046
  8
0
 10
37.976204393806832
 20
53.202983251198923
 30
0.0
  0
VERTEX
  5
58047
  8
0
 10
37.933498748056941
 20
53.273391998751698
 30
0.0
  0
VERTEX
  5
58048
  8
0
 10
37.892297904134978
 20
53.345240829905961
 30
0.0
  0
VERTEX
  5
58049
  8
0
 10
37.872256879308743
 20
53.381694903040717
 30
0.0
  0
VERTEX
  5
5804A
  8
0
 10
37.852585865729623
 20
53.418496272533801
 30
0.0
  0
VERTEX
  5
5804B
  8
0
 10
37.814344218441818
 20
53.493122732141543
 30
0.0
  0
VERTEX
  5
5804C
  8
0
 10
37.777552210337831
 20
53.569082788331272
 30
0.0
  0
VERTEX
  5
5804D
  8
0
 10
37.759692731633038
 20
53.607550778254392
 30
0.0
  0
SEQEND
  5
5804E
  8
0
  0
POLYLINE
  5
57C44
  8
0
 66
     1
 10
0.0
 20
0.0
 30
0.0
  0
VERTEX
  5
5804F
  8
0
 10
26.38217355236014
 20
52.453239699470103
 30
0.0
  0
VERTEX
  5
58050
  8
0
 10
26.31337524913079
 20
52.398424700785299
 30
0.0
  0
VERTEX
  5
58051
  8
0
 10
26.17927040849483
 20
52.291904970836562
 30
0.0
  0
VERTEX
  5
58052
  8
0
 10
26.04998998706558
 20
52.189755497502361
 30
0.0
  0
VERTEX
  5
58053
  8
0
 10
25.98722165548514
 20
52.140401869596531
 30
0.0
  0
VERTEX
  5
58054
  8
0
 10
25.9257343051097
 20
52.092238712179082
 30
0.0
  0
VERTEX
  5
58055
  8
0
 10
25.806700262958032
 20
51.999610471421427
 30
0.0
  0
VERTEX
  5
58056
  8
0
 10
25.693080398081811
 20
51.912119751286802
 30
0.0
  0
VERTEX
  5
58057
  8
0
 10
25.585062104076538
 20
51.830008476330001
 30
0.0
  0
VERTEX
  5
58058
  8
0
 10
25.482827056329992
 20
51.753511539874388
 30
0.0
  0
VERTEX
  5
58059
  8
0
 10
25.386550791708601
 20
51.682857001637373
 30
0.0
  0
VERTEX
  5
5805A
  8
0
 10
25.34070084706736
 20
51.649790512469131
 30
0.0
  0
VERTEX
  5
5805B
  8
0
 10
25.296404658551442
 20
51.618268067224548
 30
0.0
  0
VERTEX
  5
5805C
  8
0
 10
25.212557175718871
 20
51.559964523491658
 30
0.0
  0
VERTEX
  5
5805D
  8
0
 10
25.135173359038529
 20
51.508162682361743
 30
0.0
  0
VERTEX
  5
5805E
  8
0
 10
25.06441460815935
 20
51.463075806265039
 30
0.0
  0
VERTEX
  5
5805F
  8
0
 10
25.000438835109549
 20
51.424914787006301
 30
0.0
  0
VERTEX
  5
58060
  8
0
 10
24.963920612046401
 20
51.40505077825437
 30
0.0
  0
SEQEND
  5
58061
  8
0
  0
LINE
  5
57C45
  8
0
 10
40.261122617479423
 20
51.40505077825437
 30
0.0
 11
40.057660808327157
 21
51.40505077825437
 31
0.0
  0
LINE
  5
57C46
  8
0
 10
24.964584426631689
 20
51.40505077825437
 30
0.0
 11
24.76112261747943
 21
51.40505077825437
 31
0.0
  0
LINE
  5
57C47
  8
0
 10
24.76112261747943
 20
32.330050778254382
 30
0.0
 11
40.261122617479423
 21
32.330050778254382
 31
0.0
  0
POLYLINE
  5
57C48
  8
0
 66
     1
 10
0.0
 20
0.0
 30
0.0
  0
VERTEX
  5
58062
  8
0
 10
40.058324622912487
 20
51.40505077825437
 30
0.0
  0
VERTEX
  5
58063
  8
0
 10
40.021806399849297
 20
51.424914787006301
 30
0.0
  0
VERTEX
  5
58064
  8
0
 10
39.957830626799527
 20
51.463075806265039
 30
0.0
  0
VERTEX
  5
58065
  8
0
 10
39.887071875920299
 20
51.508162682361743
 30
0.0
  0
VERTEX
  5
58066
  8
0
 10
39.809688059239988
 20
51.559964523491672
 30
0.0
  0
VERTEX
  5
58067
  8
0
 10
39.725840576407393
 20
51.618268067224548
 30
0.0
  0
VERTEX
  5
58068
  8
0
 10
39.681544387891513
 20
51.649790512469131
 30
0.0
  0
VERTEX
  5
58069
  8
0
 10
39.635694443250259
 20
51.682857001637373
 30
0.0
  0
VERTEX
  5
5806A
  8
0
 10
39.539418178628871
 20
51.753511539874388
 30
0.0
  0
VERTEX
  5
5806B
  8
0
 10
39.437183130882261
 20
51.830008476330001
 30
0.0
  0
VERTEX
  5
5806C
  8
0
 10
39.329164836877048
 20
51.912119751286802
 30
0.0
  0
VERTEX
  5
5806D
  8
0
 10
39.215544972000828
 20
51.999610471421427
 30
0.0
  0
VERTEX
  5
5806E
  8
0
 10
39.09651092984916
 20
52.092238712179082
 30
0.0
  0
VERTEX
  5
5806F
  8
0
 10
39.035023579473723
 20
52.140401869596531
 30
0.0
  0
VERTEX
  5
58070
  8
0
 10
38.972255247893322
 20
52.189755497502361
 30
0.0
  0
VERTEX
  5
58071
  8
0
 10
38.842974826464058
 20
52.291904970836562
 30
0.0
  0
VERTEX
  5
58072
  8
0
 10
38.708869985828017
 20
52.398424700785299
 30
0.0
  0
VERTEX
  5
58073
  8
0
 10
38.640071682598723
 20
52.453239699470103
 30
0.0
  0
SEQEND
  5
58074
  8
0
  0
POLYLINE
  5
57C49
  8
0
 66
     1
 10
0.0
 20
0.0
 30
0.0
  0
VERTEX
  5
58075
  8
0
 10
162.92546399791539
 20
51.405050778254392
 30
0.0
  0
VERTEX
  5
58076
  8
0
 10
162.9619822209786
 20
51.424914787006308
 30
0.0
  0
VERTEX
  5
58077
  8
0
 10
163.02595799402829
 20
51.463075806265053
 30
0.0
  0
VERTEX
  5
58078
  8
0
 10
163.09671674490761
 20
51.508162682361757
 30
0.0
  0
VERTEX
  5
58079
  8
0
 10
163.17410056158789
 20
51.559964523491679
 30
0.0
  0
VERTEX
  5
5807A
  8
0
 10
163.25794804442049
 20
51.618268067224562
 30
0.0
  0
VERTEX
  5
5807B
  8
0
 10
163.3022442329364
 20
51.649790512469139
 30
0.0
  0
VERTEX
  5
5807C
  8
0
 10
163.34809417757759
 20
51.682857001637387
 30
0.0
  0
VERTEX
  5
5807D
  8
0
 10
163.44437044219899
 20
51.75351153987441
 30
0.0
  0
VERTEX
  5
5807E
  8
0
 10
163.54660548994559
 20
51.830008476330001
 30
0.0
  0
VERTEX
  5
5807F
  8
0
 10
163.6546237839508
 20
51.912119751286802
 30
0.0
  0
VERTEX
  5
58080
  8
0
 10
163.76824364882711
 20
51.999610471421448
 30
0.0
  0
VERTEX
  5
58081
  8
0
 10
163.88727769097869
 20
52.092238712179089
 30
0.0
  0
VERTEX
  5
58082
  8
0
 10
163.94876504135419
 20
52.140401869596538
 30
0.0
  0
VERTEX
  5
58083
  8
0
 10
164.01153337293459
 20
52.189755497502368
 30
0.0
  0
VERTEX
  5
58084
  8
0
 10
164.14081379436379
 20
52.291904970836583
 30
0.0
  0
VERTEX
  5
58085
  8
0
 10
164.27491863499989
 20
52.398424700785313
 30
0.0
  0
VERTEX
  5
58086
  8
0
 10
164.34371693822919
 20
52.453239699470117
 30
0.0
  0
SEQEND
  5
58087
  8
0
  0
LINE
  5
57C4A
  8
0
 10
178.22266600334851
 20
32.330050778254389
 30
0.0
 11
162.72266600334851
 21
32.330050778254389
 31
0.0
  0
LINE
  5
57C4B
  8
0
 10
178.01920419419619
 20
51.405050778254392
 30
0.0
 11
178.22266600334851
 21
51.405050778254392
 31
0.0
  0
LINE
  5
57C4C
  8
0
 10
162.72266600334851
 20
51.405050778254392
 30
0.0
 11
162.92612781250071
 21
51.405050778254392
 31
0.0
  0
POLYLINE
  5
57C4D
  8
0
 66
     1
 10
0.0
 20
0.0
 30
0.0
  0
VERTEX
  5
58088
  8
0
 10
176.60161506846771
 20
52.453239699470117
 30
0.0
  0
VERTEX
  5
58089
  8
0
 10
176.67041337169709
 20
52.398424700785313
 30
0.0
  0
VERTEX
  5
5808A
  8
0
 10
176.80451821233311
 20
52.291904970836583
 30
0.0
  0
VERTEX
  5
5808B
  8
0
 10
176.93379863376239
 20
52.189755497502368
 30
0.0
  0
VERTEX
  5
5808C
  8
0
 10
176.99656696534271
 20
52.140401869596538
 30
0.0
  0
VERTEX
  5
5808D
  8
0
 10
177.05805431571821
 20
52.092238712179089
 30
0.0
  0
VERTEX
  5
5808E
  8
0
 10
177.17708835786979
 20
51.999610471421448
 30
0.0
  0
VERTEX
  5
5808F
  8
0
 10
177.2907082227461
 20
51.912119751286802
 30
0.0
  0
VERTEX
  5
58090
  8
0
 10
177.39872651675131
 20
51.830008476330001
 30
0.0
  0
VERTEX
  5
58091
  8
0
 10
177.50096156449791
 20
51.75351153987441
 30
0.0
  0
VERTEX
  5
58092
  8
0
 10
177.59723782911931
 20
51.682857001637387
 30
0.0
  0
VERTEX
  5
58093
  8
0
 10
177.6430877737605
 20
51.649790512469139
 30
0.0
  0
VERTEX
  5
58094
  8
0
 10
177.68738396227641
 20
51.618268067224562
 30
0.0
  0
VERTEX
  5
58095
  8
0
 10
177.77123144510901
 20
51.559964523491672
 30
0.0
  0
VERTEX
  5
58096
  8
0
 10
177.84861526178929
 20
51.508162682361757
 30
0.0
  0
VERTEX
  5
58097
  8
0
 10
177.91937401266861
 20
51.463075806265053
 30
0.0
  0
VERTEX
  5
58098
  8
0
 10
177.9833497857183
 20
51.424914787006308
 30
0.0
  0
VERTEX
  5
58099
  8
0
 10
178.01986800878149
 20
51.405050778254392
 30
0.0
  0
SEQEND
  5
5809A
  8
0
  0
POLYLINE
  5
57C4E
  8
0
 66
     1
 10
0.0
 20
0.0
 30
0.0
  0
VERTEX
  5
5809B
  8
0
 10
164.34371693822919
 20
52.453239699470117
 30
0.0
  0
VERTEX
  5
5809C
  8
0
 10
164.3749228136829
 20
52.478475243412049
 30
0.0
  0
VERTEX
  5
5809D
  8
0
 10
164.4361857870924
 20
52.530140592936583
 30
0.0
  0
VERTEX
  5
5809E
  8
0
 10
164.4959044730752
 20
52.583398557075363
 30
0.0
  0
VERTEX
  5
5809F
  8
0
 10
164.52518062841699
 20
52.610624184723669
 30
0.0
  0
VERTEX
  5
580A0
  8
0
 10
164.55406617075249
 20
52.638246905930153
 30
0.0
  0
VERTEX
  5
580A1
  8
0
 10
164.6106610566423
 20
52.694680575433956
 30
0.0
  0
VERTEX
  5
580A2
  8
0
 10
164.6656879831738
 20
52.752697944646542
 30
0.0
  0
VERTEX
  5
580A3
  8
0
 10
164.71916708434301
 20
52.812317108380853
 30
0.0
  0
VERTEX
  5
580A4
  8
0
 10
164.7710983208851
 20
52.87353194311531
 30
0.0
  0
VERTEX
  5
580A5
  8
0
 10
164.8214807999251
 20
52.936329880581809
 30
0.0
  0
VERTEX
  5
580A6
  8
0
 10
164.84609156853759
 20
52.968317641696402
 30
0.0
  0
VERTEX
  5
580A7
  8
0
 10
164.87031580903891
 20
53.000694911506102
 30
0.0
  0
VERTEX
  5
580A8
  8
0
 10
164.91760695411699
 20
53.06660769006416
 30
0.0
  0
VERTEX
  5
580A9
  8
0
 10
164.96336025871631
 20
53.134045667024992
 30
0.0
  0
VERTEX
  5
580AA
  8
0
 10
165.00758422702111
 20
53.202983251198923
 30
0.0
  0
VERTEX
  5
580AB
  8
0
 10
165.05028987277089
 20
53.27339199875172
 30
0.0
  0
VERTEX
  5
580AC
  8
0
 10
165.0914907166929
 20
53.345240829905968
 30
0.0
  0
VERTEX
  5
580AD
  8
0
 10
165.11153174151909
 20
53.381694903040739
 30
0.0
  0
VERTEX
  5
580AE
  8
0
 10
165.13120275509829
 20
53.418496272533808
 30
0.0
  0
VERTEX
  5
580AF
  8
0
 10
165.16944440238609
 20
53.493122732141558
 30
0.0
  0
VERTEX
  5
580B0
  8
0
 10
165.20623641048999
 20
53.569082788331279
 30
0.0
  0
VERTEX
  5
580B1
  8
0
 10
165.22409588919481
 20
53.607550778254407
 30
0.0
  0
SEQEND
  5
580B2
  8
0
  0
POLYLINE
  5
57C4F
  8
0
 66
     1
 10
0.0
 20
0.0
 30
0.0
  0
VERTEX
  5
580B3
  8
0
 10
165.22409588919481
 20
53.607550778254442
 30
0.0
  0
VERTEX
  5
580B4
  8
0
 10
165.2651362415312
 20
53.609817511629203
 30
0.0
  0
VERTEX
  5
580B5
  8
0
 10
165.34392129302319
 20
53.614631907943469
 30
0.0
  0
VERTEX
  5
580B6
  8
0
 10
165.41824352314691
 20
53.619825827804391
 30
0.0
  0
VERTEX
  5
580B7
  8
0
 10
165.4537143892193
 20
53.622567190473021
 30
0.0
  0
VERTEX
  5
580B8
  8
0
 10
165.48804747791851
 20
53.625405598151602
 30
0.0
  0
VERTEX
  5
580B9
  8
0
 10
165.55326672458779
 20
53.631375001486163
 30
0.0
  0
VERTEX
  5
580BA
  8
0
 10
165.61384047551979
 20
53.637735925936468
 30
0.0
  0
VERTEX
  5
580BB
  8
0
 10
165.6697187473703
 20
53.644488602271558
 30
0.0
  0
VERTEX
  5
580BC
  8
0
 10
165.72086301889669
 20
53.651631577669832
 30
0.0
  0
VERTEX
  5
580BD
  8
0
 10
165.7672467228918
 20
53.659161710759598
 30
0.0
  0
VERTEX
  5
580BE
  8
0
 10
165.78864841256791
 20
53.663070521922378
 30
0.0
  0
VERTEX
  5
580BF
  8
0
 10
165.8088555741773
 20
53.667074189346962
 30
0.0
  0
VERTEX
  5
580C0
  8
0
 10
165.84568773028349
 20
53.675362571388803
 30
0.0
  0
VERTEX
  5
580C1
  8
0
 10
165.8777535063056
 20
53.684018767094159
 30
0.0
  0
VERTEX
  5
580C2
  8
0
 10
165.9050746228034
 20
53.6930328179211
 30
0.0
  0
VERTEX
  5
580C3
  8
0
 10
165.9276845703574
 20
53.702392821608882
 30
0.0
  0
VERTEX
  5
580C4
  8
0
 10
165.9456292767257
 20
53.712084967379312
 30
0.0
  0
VERTEX
  5
580C5
  8
0
 10
165.9528700397598
 20
53.717050770098012
 30
0.0
  0
VERTEX
  5
580C6
  8
0
 10
165.95896758715901
 20
53.72209359592344
 30
0.0
  0
VERTEX
  5
580C7
  8
0
 10
165.96777155671401
 20
53.73240128291998
 30
0.0
  0
VERTEX
  5
580C8
  8
0
 10
165.9721265587074
 20
53.742988946362743
 30
0.0
  0
VERTEX
  5
580C9
  8
0
 10
165.97266600334839
 20
53.748381384704551
 30
0.0
  0
SEQEND
  5
580CA
  8
0
  0
LINE
  5
57C50
  8
0
 10
165.97266600334839
 20
54.708429156632747
 30
0.0
 11
165.97266600334839
 21
51.523161877600458
 31
0.0
  0
POLYLINE
  5
57C51
  8
0
 66
     1
 10
0.0
 20
0.0
 30
0.0
  0
VERTEX
  5
580CB
  8
0
 10
174.97266600334851
 20
53.748381384704551
 30
0.0
  0
VERTEX
  5
580CC
  8
0
 10
174.9732054479895
 20
53.742988946362743
 30
0.0
  0
VERTEX
  5
580CD
  8
0
 10
174.97756044998289
 20
53.73240128291998
 30
0.0
  0
VERTEX
  5
580CE
  8
0
 10
174.98636441953789
 20
53.72209359592344
 30
0.0
  0
VERTEX
  5
580CF
  8
0
 10
174.99246196693721
 20
53.717050770098012
 30
0.0
  0
VERTEX
  5
580D0
  8
0
 10
174.99970272997129
 20
53.712084967379312
 30
0.0
  0
VERTEX
  5
580D1
  8
0
 10
175.01764743633959
 20
53.702392821608882
 30
0.0
  0
VERTEX
  5
580D2
  8
0
 10
175.0402573838935
 20
53.6930328179211
 30
0.0
  0
VERTEX
  5
580D3
  8
0
 10
175.06757850039131
 20
53.684018767094159
 30
0.0
  0
VERTEX
  5
580D4
  8
0
 10
175.09964427641339
 20
53.675362571388803
 30
0.0
  0
VERTEX
  5
580D5
  8
0
 10
175.1364764325196
 20
53.667074189346962
 30
0.0
  0
VERTEX
  5
580D6
  8
0
 10
175.15668359412899
 20
53.663070521922378
 30
0.0
  0
VERTEX
  5
580D7
  8
0
 10
175.1780852838051
 20
53.659161710759598
 30
0.0
  0
VERTEX
  5
580D8
  8
0
 10
175.22446898780021
 20
53.651631577669832
 30
0.0
  0
VERTEX
  5
580D9
  8
0
 10
175.2756132593266
 20
53.644488602271558
 30
0.0
  0
VERTEX
  5
580DA
  8
0
 10
175.33149153117711
 20
53.637735925936468
 30
0.0
  0
VERTEX
  5
580DB
  8
0
 10
175.39206528210909
 20
53.631375001486163
 30
0.0
  0
VERTEX
  5
580DC
  8
0
 10
175.45728452877839
 20
53.625405598151602
 30
0.0
  0
VERTEX
  5
580DD
  8
0
 10
175.4916176174776
 20
53.622567190473021
 30
0.0
  0
VERTEX
  5
580DE
  8
0
 10
175.5270884835501
 20
53.619825827804391
 30
0.0
  0
VERTEX
  5
580DF
  8
0
 10
175.60141071367369
 20
53.614631907943462
 30
0.0
  0
VERTEX
  5
580E0
  8
0
 10
175.68019576516571
 20
53.609817511629203
 30
0.0
  0
VERTEX
  5
580E1
  8
0
 10
175.72123611750209
 20
53.607550778254421
 30
0.0
  0
SEQEND
  5
580E2
  8
0
  0
POLYLINE
  5
57C52
  8
0
 66
     1
 10
0.0
 20
0.0
 30
0.0
  0
VERTEX
  5
580E3
  8
0
 10
175.72123611750209
 20
53.607550778254407
 30
0.0
  0
VERTEX
  5
580E4
  8
0
 10
175.73909559620421
 20
53.569082788336829
 30
0.0
  0
VERTEX
  5
580E5
  8
0
 10
175.77588760430811
 20
53.493122732146901
 30
0.0
  0
VERTEX
  5
580E6
  8
0
 10
175.814129251596
 20
53.418496272538761
 30
0.0
  0
VERTEX
  5
580E7
  8
0
 10
175.8338002651752
 20
53.381694903045471
 30
0.0
  0
VERTEX
  5
580E8
  8
0
 10
175.8538412900015
 20
53.345240829910523
 30
0.0
  0
VERTEX
  5
580E9
  8
0
 10
175.89504213392351
 20
53.273391998755869
 30
0.0
  0
VERTEX
  5
580EA
  8
0
 10
175.93774777967349
 20
53.202983251202689
 30
0.0
  0
VERTEX
  5
580EB
  8
0
 10
175.98197174797829
 20
53.134045667028367
 30
0.0
  0
VERTEX
  5
580EC
  8
0
 10
176.02772505257769
 20
53.06660769006718
 30
0.0
  0
VERTEX
  5
580ED
  8
0
 10
176.075016197656
 20
53.000694911508774
 30
0.0
  0
VERTEX
  5
580EE
  8
0
 10
176.09924043815741
 20
52.968317641698903
 30
0.0
  0
VERTEX
  5
580EF
  8
0
 10
176.12385120677001
 20
52.93632988058414
 30
0.0
  0
VERTEX
  5
580F0
  8
0
 10
176.17423368581021
 20
52.873531943117307
 30
0.0
  0
VERTEX
  5
580F1
  8
0
 10
176.22616492235241
 20
52.812317108382551
 30
0.0
  0
VERTEX
  5
580F2
  8
0
 10
176.2796440235218
 20
52.752697944647942
 30
0.0
  0
VERTEX
  5
580F3
  8
0
 10
176.33467095005349
 20
52.694680575435072
 30
0.0
  0
VERTEX
  5
580F4
  8
0
 10
176.3912658359435
 20
52.638246905930977
 30
0.0
  0
VERTEX
  5
580F5
  8
0
 10
176.4201513782792
 20
52.610624184724379
 30
0.0
  0
VERTEX
  5
580F6
  8
0
 10
176.44942753362099
 20
52.583398557075931
 30
0.0
  0
VERTEX
  5
580F7
  8
0
 10
176.50914621960419
 20
52.530140592936917
 30
0.0
  0
VERTEX
  5
580F8
  8
0
 10
176.5704091930138
 20
52.478475243412163
 30
0.0
  0
VERTEX
  5
580F9
  8
0
 10
176.60161506846771
 20
52.453239699470117
 30
0.0
  0
SEQEND
  5
580FA
  8
0
  0
LINE
  5
57C53
  8
0
 10
174.97266600334851
 20
54.708429156632747
 30
0.0
 11
174.97266600334851
 21
51.523161877600458
 31
0.0
  0
LINE
  5
57C54
  8
1
 10
170.47266600334839
 20
61.330050778254368
 30
0.0
 11
170.47266600334839
 21
21.330050778254371
 31
0.0
  0
LINE
  5
57C55
  8
0
 10
178.22266600334851
 20
32.330050778254389
 30
0.0
 11
178.22266600334851
 21
51.405050778254392
 31
0.0
  0
LINE
  5
57C56
  8
0
 10
162.72266600334851
 20
51.405050778254392
 30
0.0
 11
162.72266600334851
 21
32.330050778254389
 31
0.0
  0
LINE
  5
57C57
  8
0
 10
104.991894310414
 20
26.53005077825442
 30
0.0
 11
104.991894310414
 21
26.33005077825441
 31
0.0
  0
LINE
  5
57C58
  8
0
 10
97.991894310413954
 20
26.53005077825442
 30
0.0
 11
97.991894310413954
 21
26.33005077825441
 31
0.0
  0
LINE
  5
57C59
  8
0
 10
97.991894310413954
 20
26.33005077825441
 30
0.0
 11
104.991894310414
 21
26.33005077825441
 31
0.0
  0
LINE
  5
57C5A
  8
0
 10
107.4918943104139
 20
32.33005077825441
 30
0.0
 11
107.4918943104139
 21
27.030050778254541
 31
0.0
  0
LINE
  5
57C5B
  8
0
 10
106.991894310414
 20
26.53005077825442
 30
0.0
 11
107.4918943104139
 21
27.030050778254541
 31
0.0
  0
LINE
  5
57C5C
  8
0
 10
95.491894310413954
 20
32.33005077825441
 30
0.0
 11
95.491894310413954
 21
27.030050778254541
 31
0.0
  0
LINE
  5
57C5D
  8
0
 10
95.991894310413898
 20
26.53005077825442
 30
0.0
 11
106.991894310414
 21
26.53005077825442
 31
0.0
  0
LINE
  5
57C5E
  8
0
 10
95.991894310413898
 20
26.53005077825442
 30
0.0
 11
95.491894310413954
 21
27.030050778254541
 31
0.0
  0
LINE
  5
57C5F
  8
0
 10
107.4918943104139
 20
31.53005077825442
 30
0.0
 11
95.491894310413954
 21
31.53005077825442
 31
0.0
  0
POLYLINE
  5
57C60
  8
0
 66
     1
 10
0.0
 20
0.0
 30
0.0
  0
VERTEX
  5
580FB
  8
0
 10
103.29733048576909
 20
51.40505077825442
 30
0.0
  0
VERTEX
  5
580FC
  8
0
 10
103.3180525555245
 20
51.407418829644918
 30
0.0
  0
VERTEX
  5
580FD
  8
0
 10
103.56032759717171
 20
51.443297423001759
 30
0.0
  0
VERTEX
  5
580FE
  8
0
 10
103.7992755675909
 20
51.486773798958929
 30
0.0
  0
VERTEX
  5
580FF
  8
0
 10
104.0347134718757
 20
51.537611891017683
 30
0.0
  0
VERTEX
  5
58100
  8
0
 10
104.2664594016081
 20
51.59557333353181
 30
0.0
  0
VERTEX
  5
58101
  8
0
 10
104.3808916895894
 20
51.627149948500872
 30
0.0
  0
VERTEX
  5
58102
  8
0
 10
104.4943340164811
 20
51.660416495160447
 30
0.0
  0
VERTEX
  5
58103
  8
0
 10
104.7181620882818
 20
51.731895843045699
 30
0.0
  0
VERTEX
  5
58104
  8
0
 10
104.9377744498389
 20
51.809761769261932
 30
0.0
  0
VERTEX
  5
58105
  8
0
 10
105.1530075975556
 20
51.893759853750097
 30
0.0
  0
VERTEX
  5
58106
  8
0
 10
105.3636988094418
 20
51.983628018865453
 30
0.0
  0
VERTEX
  5
58107
  8
0
 10
105.56968842664359
 20
52.079096004163638
 30
0.0
  0
VERTEX
  5
58108
  8
0
 10
105.670871674994
 20
52.128843214246231
 30
0.0
  0
VERTEX
  5
58109
  8
0
 10
105.7708222343111
 20
52.179885300968706
 30
0.0
  0
VERTEX
  5
5810A
  8
0
 10
105.9669534796073
 20
52.285709326839289
 30
0.0
  0
VERTEX
  5
5810B
  8
0
 10
106.1579445577985
 20
52.396273779628892
 30
0.0
  0
VERTEX
  5
5810C
  8
0
 10
106.25147237545011
 20
52.453239699470132
 30
0.0
  0
SEQEND
  5
5810D
  8
0
  0
ARC
  5
57C61
  8
0
 10
126.741894310414
 20
100.19431007414219
 30
0.0
 40
4.4999999999999538
 50
270.0
 51
90.0
  0
ARC
  5
57C62
  8
0
 10
101.4918943104139
 20
100.19431007414219
 30
0.0
 40
7.7499999999999982
 50
85.88286395676748
 51
274.1171360432316
  0
CIRCLE
  5
57C63
  8
0
 10
101.4918943104139
 20
100.19431007414219
 30
0.0
 40
3.8749999999999991
  0
LINE
  5
57C64
  8
0
 10
102.1735833891002
 20
92.464310074142176
 30
0.0
 11
102.0483114201437
 21
92.464310074142176
 31
0.0
  0
LINE
  5
57C65
  8
0
 10
102.1735833891001
 20
107.9243100741422
 30
0.0
 11
102.0483114201437
 21
107.9243100741422
 31
0.0
  0
POLYLINE
  5
57C66
  8
0
 66
     1
 10
0.0
 20
0.0
 30
0.0
  0
VERTEX
  5
5810E
  8
0
 10
106.25147237545011
 20
106.32325913926149
 30
0.0
  0
VERTEX
  5
5810F
  8
0
 10
106.1579445577985
 20
106.3947596617836
 30
0.0
  0
VERTEX
  5
58110
  8
0
 10
105.9669534796073
 20
106.53398241837409
 30
0.0
  0
VERTEX
  5
58111
  8
0
 10
105.7708222343111
 20
106.6679779542619
 30
0.0
  0
VERTEX
  5
58112
  8
0
 10
105.670871674994
 20
106.73294511414311
 30
0.0
  0
VERTEX
  5
58113
  8
0
 10
105.56968842664359
 20
106.7965214571291
 30
0.0
  0
VERTEX
  5
58114
  8
0
 10
105.3636988094418
 20
106.9193922239235
 30
0.0
  0
VERTEX
  5
58115
  8
0
 10
105.1530075975556
 20
107.0363747843532
 30
0.0
  0
VERTEX
  5
58116
  8
0
 10
104.9377744498389
 20
107.1472598125422
 30
0.0
  0
VERTEX
  5
58117
  8
0
 10
104.7181620882818
 20
107.2518447871628
 30
0.0
  0
VERTEX
  5
58118
  8
0
 10
104.49433401648101
 20
107.3499341427634
 30
0.0
  0
VERTEX
  5
58119
  8
0
 10
104.3808916895893
 20
107.39648295065091
 30
0.0
  0
VERTEX
  5
5811A
  8
0
 10
104.2664594016081
 20
107.44133626111891
 30
0.0
  0
VERTEX
  5
5811B
  8
0
 10
104.0347134718757
 20
107.5258631641841
 30
0.0
  0
VERTEX
  5
5811C
  8
0
 10
103.7992755675908
 20
107.60333104415091
 30
0.0
  0
VERTEX
  5
5811D
  8
0
 10
103.56032759717159
 20
107.6735602864451
 30
0.0
  0
VERTEX
  5
5811E
  8
0
 10
103.3180525555244
 20
107.7363751801867
 30
0.0
  0
VERTEX
  5
5811F
  8
0
 10
103.0726332276255
 20
107.79160330763089
 30
0.0
  0
VERTEX
  5
58120
  8
0
 10
102.9488012711393
 20
107.8163191339498
 30
0.0
  0
VERTEX
  5
58121
  8
0
 10
102.8236312391455
 20
107.83918265337149
 30
0.0
  0
VERTEX
  5
58122
  8
0
 10
102.5678810452531
 20
107.87935090334079
 30
0.0
  0
VERTEX
  5
58123
  8
0
 10
102.3061821440406
 20
107.9114685747827
 30
0.0
  0
VERTEX
  5
58124
  8
0
 10
102.1735833891001
 20
107.9243100741422
 30
0.0
  0
SEQEND
  5
58125
  8
0
  0
POLYLINE
  5
57C67
  8
0
 66
     1
 10
0.0
 20
0.0
 30
0.0
  0
VERTEX
  5
58126
  8
0
 10
102.1735833891002
 20
92.464310074142176
 30
0.0
  0
VERTEX
  5
58127
  8
0
 10
102.3061821440406
 20
92.477151573501686
 30
0.0
  0
VERTEX
  5
58128
  8
0
 10
102.5678810452531
 20
92.509269244943553
 30
0.0
  0
VERTEX
  5
58129
  8
0
 10
102.8236312391456
 20
92.549437494912851
 30
0.0
  0
VERTEX
  5
5812A
  8
0
 10
102.9488012711393
 20
92.572301014334514
 30
0.0
  0
VERTEX
  5
5812B
  8
0
 10
103.0726332276255
 20
92.597016840653524
 30
0.0
  0
VERTEX
  5
5812C
  8
0
 10
103.3180525555245
 20
92.652244968097634
 30
0.0
  0
VERTEX
  5
5812D
  8
0
 10
103.56032759717159
 20
92.715059861839322
 30
0.0
  0
VERTEX
  5
5812E
  8
0
 10
103.7992755675908
 20
92.785289104133497
 30
0.0
  0
VERTEX
  5
5812F
  8
0
 10
104.0347134718757
 20
92.862756984100301
 30
0.0
  0
VERTEX
  5
58130
  8
0
 10
104.2664594016081
 20
92.947283887165426
 30
0.0
  0
VERTEX
  5
58131
  8
0
 10
104.3808916895893
 20
92.992137197633497
 30
0.0
  0
VERTEX
  5
58132
  8
0
 10
104.4943340164811
 20
93.038686005520944
 30
0.0
  0
VERTEX
  5
58133
  8
0
 10
104.7181620882818
 20
93.136775361121565
 30
0.0
  0
VERTEX
  5
58134
  8
0
 10
104.9377744498389
 20
93.241360335742215
 30
0.0
  0
VERTEX
  5
58135
  8
0
 10
105.1530075975556
 20
93.352245363931146
 30
0.0
  0
VERTEX
  5
58136
  8
0
 10
105.3636988094418
 20
93.469227924360865
 30
0.0
  0
VERTEX
  5
58137
  8
0
 10
105.56968842664359
 20
93.592098691155215
 30
0.0
  0
VERTEX
  5
58138
  8
0
 10
105.670871674994
 20
93.655675034141254
 30
0.0
  0
VERTEX
  5
58139
  8
0
 10
105.7708222343111
 20
93.720642194022545
 30
0.0
  0
VERTEX
  5
5813A
  8
0
 10
105.9669534796073
 20
93.854637729910323
 30
0.0
  0
VERTEX
  5
5813B
  8
0
 10
106.1579445577985
 20
93.993860486500793
 30
0.0
  0
VERTEX
  5
5813C
  8
0
 10
106.25147237545011
 20
94.065361009022908
 30
0.0
  0
SEQEND
  5
5813D
  8
0
  0
POLYLINE
  5
57C68
  8
0
 66
     1
 10
0.0
 20
0.0
 30
0.0
  0
VERTEX
  5
5813E
  8
0
 10
106.25147237545011
 20
94.065361009022908
 30
0.0
  0
VERTEX
  5
5813F
  8
0
 10
106.2919310587082
 20
94.096566884476644
 30
0.0
  0
VERTEX
  5
58140
  8
0
 10
106.3729981498643
 20
94.157829857886057
 30
0.0
  0
VERTEX
  5
58141
  8
0
 10
106.4542050300719
 20
94.217548543868944
 30
0.0
  0
VERTEX
  5
58142
  8
0
 10
106.4948383167455
 20
94.246824699210677
 30
0.0
  0
VERTEX
  5
58143
  8
0
 10
106.5354794240195
 20
94.275710241546207
 30
0.0
  0
VERTEX
  5
58144
  8
0
 10
106.6167488721173
 20
94.332305127436072
 30
0.0
  0
VERTEX
  5
58145
  8
0
 10
106.69794961202859
 20
94.387332053967484
 30
0.0
  0
VERTEX
  5
58146
  8
0
 10
106.779047383898
 20
94.440811155136728
 30
0.0
  0
VERTEX
  5
58147
  8
0
 10
106.8599761699752
 20
94.492742391678846
 30
0.0
  0
VERTEX
  5
58148
  8
0
 10
106.940665091423
 20
94.543124870718856
 30
0.0
  0
VERTEX
  5
58149
  8
0
 10
106.98089735847719
 20
94.567735639331303
 30
0.0
  0
VERTEX
  5
5814A
  8
0
 10
107.0210429619633
 20
94.591959879832658
 30
0.0
  0
VERTEX
  5
5814B
  8
0
 10
107.10103867839
 20
94.639251024910806
 30
0.0
  0
VERTEX
  5
5814C
  8
0
 10
107.1805816023035
 20
94.685004329510079
 30
0.0
  0
VERTEX
  5
5814D
  8
0
 10
107.2596019303768
 20
94.729228297814785
 30
0.0
  0
VERTEX
  5
5814E
  8
0
 10
107.33803105077099
 20
94.77193394356469
 30
0.0
  0
VERTEX
  5
5814F
  8
0
 10
107.41580188361711
 20
94.813134787486618
 30
0.0
  0
VERTEX
  5
58150
  8
0
 10
107.4544199784626
 20
94.833175812312874
 30
0.0
  0
VERTEX
  5
58151
  8
0
 10
107.49284920375641
 20
94.852846825892016
 30
0.0
  0
VERTEX
  5
58152
  8
0
 10
107.569109944183
 20
94.891088473179835
 30
0.0
  0
VERTEX
  5
58153
  8
0
 10
107.64452347942181
 20
94.927880481283793
 30
0.0
  0
VERTEX
  5
58154
  8
0
 10
107.6818943104139
 20
94.945739959988586
 30
0.0
  0
SEQEND
  5
58155
  8
0
  0
POLYLINE
  5
57C69
  8
0
 66
     1
 10
0.0
 20
0.0
 30
0.0
  0
VERTEX
  5
58156
  8
0
 10
107.6818943104139
 20
94.945739959988586
 30
0.0
  0
VERTEX
  5
58157
  8
0
 10
107.7697797262759
 20
94.986780312324925
 30
0.0
  0
VERTEX
  5
58158
  8
0
 10
107.94710351289881
 20
95.065565363816958
 30
0.0
  0
VERTEX
  5
58159
  8
0
 10
108.126347152638
 20
95.139887593940585
 30
0.0
  0
VERTEX
  5
5815A
  8
0
 10
108.2166488198944
 20
95.175358460013058
 30
0.0
  0
VERTEX
  5
5815B
  8
0
 10
108.307375114252
 20
95.2096915487122
 30
0.0
  0
VERTEX
  5
5815C
  8
0
 10
108.4900028366817
 20
95.274910795381558
 30
0.0
  0
VERTEX
  5
5815D
  8
0
 10
108.6740287376377
 20
95.335484546313566
 30
0.0
  0
VERTEX
  5
5815E
  8
0
 10
108.85924564026941
 20
95.391362818164069
 30
0.0
  0
VERTEX
  5
5815F
  8
0
 10
109.04544215742639
 20
95.442507089690494
 30
0.0
  0
VERTEX
  5
58160
  8
0
 10
109.2324041240695
 20
95.48889079368557
 30
0.0
  0
VERTEX
  5
58161
  8
0
 10
109.3261048289683
 20
95.510292483361695
 30
0.0
  0
VERTEX
  5
58162
  8
0
 10
109.4199160817538
 20
95.530499644971016
 30
0.0
  0
VERTEX
  5
58163
  8
0
 10
109.607762802213
 20
95.567331801077231
 30
0.0
  0
VERTEX
  5
58164
  8
0
 10
109.7957290865218
 20
95.599397577099367
 30
0.0
  0
VERTEX
  5
58165
  8
0
 10
109.983595366977
 20
95.626718693597084
 30
0.0
  0
VERTEX
  5
58166
  8
0
 10
110.1711370873434
 20
95.649328641151115
 30
0.0
  0
VERTEX
  5
58167
  8
0
 10
110.35812621067581
 20
95.667273347519426
 30
0.0
  0
VERTEX
  5
58168
  8
0
 10
110.4513417153704
 20
95.674514110553488
 30
0.0
  0
VERTEX
  5
58169
  8
0
 10
110.5443327646401
 20
95.680611657952781
 30
0.0
  0
VERTEX
  5
5816A
  8
0
 10
110.7295263914525
 20
95.689415627507714
 30
0.0
  0
VERTEX
  5
5816B
  8
0
 10
110.91347790774461
 20
95.693770629501174
 30
0.0
  0
VERTEX
  5
5816C
  8
0
 10
111.0049169635984
 20
95.694310074142194
 30
0.0
  0
SEQEND
  5
5816D
  8
0
  0
LINE
  5
57C6A
  8
0
 10
111.0049169635984
 20
95.694310074142194
 30
0.0
 11
126.7418943103936
 21
95.694310074142237
 31
0.0
  0
POLYLINE
  5
57C6B
  8
0
 66
     1
 10
0.0
 20
0.0
 30
0.0
  0
VERTEX
  5
5816E
  8
0
 10
111.0049169635984
 20
104.69431007414219
 30
0.0
  0
VERTEX
  5
5816F
  8
0
 10
110.91347790774461
 20
104.6948495187832
 30
0.0
  0
VERTEX
  5
58170
  8
0
 10
110.7295263914525
 20
104.6992045207767
 30
0.0
  0
VERTEX
  5
58171
  8
0
 10
110.5443327646401
 20
104.70800849033159
 30
0.0
  0
VERTEX
  5
58172
  8
0
 10
110.4513417153705
 20
104.7141060377309
 30
0.0
  0
VERTEX
  5
58173
  8
0
 10
110.35812621067591
 20
104.72134680076491
 30
0.0
  0
VERTEX
  5
58174
  8
0
 10
110.1711370873434
 20
104.7392915071333
 30
0.0
  0
VERTEX
  5
58175
  8
0
 10
109.983595366977
 20
104.7619014546873
 30
0.0
  0
VERTEX
  5
58176
  8
0
 10
109.7957290865218
 20
104.78922257118499
 30
0.0
  0
VERTEX
  5
58177
  8
0
 10
109.607762802213
 20
104.8212883472071
 30
0.0
  0
VERTEX
  5
58178
  8
0
 10
109.4199160817538
 20
104.8581205033134
 30
0.0
  0
VERTEX
  5
58179
  8
0
 10
109.3261048289683
 20
104.87832766492269
 30
0.0
  0
VERTEX
  5
5817A
  8
0
 10
109.2324041240695
 20
104.8997293545988
 30
0.0
  0
VERTEX
  5
5817B
  8
0
 10
109.04544215742639
 20
104.94611305859389
 30
0.0
  0
VERTEX
  5
5817C
  8
0
 10
108.85924564026941
 20
104.99725733012031
 30
0.0
  0
VERTEX
  5
5817D
  8
0
 10
108.6740287376377
 20
105.05313560197079
 30
0.0
  0
VERTEX
  5
5817E
  8
0
 10
108.4900028366817
 20
105.1137093529028
 30
0.0
  0
VERTEX
  5
5817F
  8
0
 10
108.307375114252
 20
105.1789285995722
 30
0.0
  0
VERTEX
  5
58180
  8
0
 10
108.2166488198944
 20
105.2132616882713
 30
0.0
  0
VERTEX
  5
58181
  8
0
 10
108.126347152638
 20
105.2487325543438
 30
0.0
  0
VERTEX
  5
58182
  8
0
 10
107.94710351289881
 20
105.3230547844674
 30
0.0
  0
VERTEX
  5
58183
  8
0
 10
107.7697797262759
 20
105.40183983595939
 30
0.0
  0
VERTEX
  5
58184
  8
0
 10
107.6818943104139
 20
105.4428801882958
 30
0.0
  0
SEQEND
  5
58185
  8
0
  0
POLYLINE
  5
57C6C
  8
0
 66
     1
 10
0.0
 20
0.0
 30
0.0
  0
VERTEX
  5
58186
  8
0
 10
107.6818943104139
 20
105.4428801882958
 30
0.0
  0
VERTEX
  5
58187
  8
0
 10
107.64452347942731
 20
105.46073966699799
 30
0.0
  0
VERTEX
  5
58188
  8
0
 10
107.5691099441884
 20
105.4975316751018
 30
0.0
  0
VERTEX
  5
58189
  8
0
 10
107.49284920376149
 20
105.5357733223897
 30
0.0
  0
VERTEX
  5
5818A
  8
0
 10
107.4544199784675
 20
105.5554443359689
 30
0.0
  0
VERTEX
  5
5818B
  8
0
 10
107.415801883622
 20
105.5754853607952
 30
0.0
  0
VERTEX
  5
5818C
  8
0
 10
107.3380310507755
 20
105.6166862047172
 30
0.0
  0
VERTEX
  5
5818D
  8
0
 10
107.259601930381
 20
105.6593918504672
 30
0.0
  0
VERTEX
  5
5818E
  8
0
 10
107.1805816023074
 20
105.70361581877199
 30
0.0
  0
VERTEX
  5
5818F
  8
0
 10
107.10103867839361
 20
105.74936912337149
 30
0.0
  0
VERTEX
  5
58190
  8
0
 10
107.0210429619666
 20
105.7966602684497
 30
0.0
  0
VERTEX
  5
58191
  8
0
 10
106.98089735848031
 20
105.8208845089511
 30
0.0
  0
VERTEX
  5
58192
  8
0
 10
106.940665091426
 20
105.8454952775637
 30
0.0
  0
VERTEX
  5
58193
  8
0
 10
106.8599761699778
 20
105.89587775660389
 30
0.0
  0
VERTEX
  5
58194
  8
0
 10
106.77904738390021
 20
105.9478089931461
 30
0.0
  0
VERTEX
  5
58195
  8
0
 10
106.6979496120305
 20
106.0012880943156
 30
0.0
  0
VERTEX
  5
58196
  8
0
 10
106.61674887211881
 20
106.05631502084719
 30
0.0
  0
VERTEX
  5
58197
  8
0
 10
106.53547942402081
 20
106.1129099067372
 30
0.0
  0
VERTEX
  5
58198
  8
0
 10
106.49483831674659
 20
106.1417954490729
 30
0.0
  0
VERTEX
  5
58199
  8
0
 10
106.4542050300728
 20
106.17107160441481
 30
0.0
  0
VERTEX
  5
5819A
  8
0
 10
106.3729981498648
 20
106.23079029039791
 30
0.0
  0
VERTEX
  5
5819B
  8
0
 10
106.2919310587083
 20
106.2920532638076
 30
0.0
  0
VERTEX
  5
5819C
  8
0
 10
106.25147237545011
 20
106.32325913926149
 30
0.0
  0
SEQEND
  5
5819D
  8
0
  0
LINE
  5
57C6D
  8
0
 10
126.741894310414
 20
104.69431007414219
 30
0.0
 11
111.0049169635984
 21
104.69431007414219
 31
0.0
  0
LINE
  5
57C6E
  8
1
 10
88.741894310413954
 20
100.19431007414219
 30
0.0
 11
136.2418943104139
 21
100.19431007414219
 31
0.0
  0
LINE
  5
57C6F
  8
1
 10
101.4918943104139
 20
87.444310074142194
 30
0.0
 11
101.4918943104139
 21
112.94431007414219
 31
0.0
  0
ARC
  5
57C70
  8
0
 10
97.91189431041397
 20
55.535050778254408
 30
0.0
 40
0.2950000000000088
 50
90.0
 51
180.0
  0
ARC
  5
57C71
  8
0
 10
105.0718943104139
 20
55.535050778254408
 30
0.0
 40
0.2950000000000048
 50
0.0
 51
90.0
  0
LINE
  5
57C72
  8
0
 10
93.741894310413954
 20
51.40505077825442
 30
0.0
 11
93.741894310413954
 21
32.33005077825441
 31
0.0
  0
LINE
  5
57C73
  8
0
 10
105.3668943104139
 20
51.985052971216717
 30
0.0
 11
105.3668943104139
 21
55.535050778254408
 31
0.0
  0
LINE
  5
57C74
  8
0
 10
97.616894310413954
 20
55.535050778254408
 30
0.0
 11
97.616894310413954
 21
51.40505077825442
 31
0.0
  0
ARC
  5
57C75
  8
0
 10
122.7252558902524
 20
34.606554093584201
 30
0.0
 40
14.54234462226707
 50
131.77483728122479
 51
157.9993104670526
  0
LINE
  5
57C76
  8
0
 10
105.0718943104139
 20
55.830050778254403
 30
0.0
 11
97.91189431041397
 21
55.830050778254403
 31
0.0
  0
LINE
  5
57C77
  8
0
 10
109.2418943104139
 20
32.33005077825441
 30
0.0
 11
93.741894310413954
 21
32.33005077825441
 31
0.0
  0
LINE
  5
57C78
  8
0
 10
103.29983063414829
 20
51.40505077825442
 30
0.0
 11
93.741894310413954
 21
51.40505077825442
 31
0.0
  0
POLYLINE
  5
57C79
  8
0
 66
     1
 10
0.0
 20
0.0
 30
0.0
  0
VERTEX
  5
5819E
  8
0
 10
106.25147237545021
 20
52.453239699470132
 30
0.0
  0
VERTEX
  5
5819F
  8
0
 10
106.2919310587082
 20
52.478475243412092
 30
0.0
  0
VERTEX
  5
581A0
  8
0
 10
106.3729981498643
 20
52.530140592936597
 30
0.0
  0
VERTEX
  5
581A1
  8
0
 10
106.4542050300719
 20
52.58339855707537
 30
0.0
  0
VERTEX
  5
581A2
  8
0
 10
106.4948383167455
 20
52.610624184723697
 30
0.0
  0
VERTEX
  5
581A3
  8
0
 10
106.5354794240196
 20
52.638246905930181
 30
0.0
  0
VERTEX
  5
581A4
  8
0
 10
106.6167488721173
 20
52.694680575433992
 30
0.0
  0
VERTEX
  5
581A5
  8
0
 10
106.69794961202859
 20
52.752697944646549
 30
0.0
  0
VERTEX
  5
581A6
  8
0
 10
106.779047383898
 20
52.812317108380888
 30
0.0
  0
VERTEX
  5
581A7
  8
0
 10
106.8599761699752
 20
52.873531943115339
 30
0.0
  0
VERTEX
  5
581A8
  8
0
 10
106.940665091423
 20
52.936329880581852
 30
0.0
  0
VERTEX
  5
581A9
  8
0
 10
106.98089735847731
 20
52.96831764169643
 30
0.0
  0
VERTEX
  5
581AA
  8
0
 10
107.0210429619633
 20
53.00069491150613
 30
0.0
  0
VERTEX
  5
581AB
  8
0
 10
107.10103867839
 20
53.066607690064203
 30
0.0
  0
VERTEX
  5
581AC
  8
0
 10
107.1805816023035
 20
53.134045667025013
 30
0.0
  0
VERTEX
  5
581AD
  8
0
 10
107.2596019303768
 20
53.202983251198972
 30
0.0
  0
VERTEX
  5
581AE
  8
0
 10
107.33803105077099
 20
53.273391998751762
 30
0.0
  0
VERTEX
  5
581AF
  8
0
 10
107.41580188361711
 20
53.345240829906011
 30
0.0
  0
VERTEX
  5
581B0
  8
0
 10
107.4544199784627
 20
53.381694903040781
 30
0.0
  0
VERTEX
  5
581B1
  8
0
 10
107.49284920375641
 20
53.418496272533851
 30
0.0
  0
VERTEX
  5
581B2
  8
0
 10
107.569109944183
 20
53.4931227321416
 30
0.0
  0
VERTEX
  5
581B3
  8
0
 10
107.64452347942181
 20
53.569082788331329
 30
0.0
  0
VERTEX
  5
581B4
  8
0
 10
107.6818943104139
 20
53.607550778254442
 30
0.0
  0
SEQEND
  5
581B5
  8
0
  0
ARC
  5
57C7A
  8
0
 10
130.745215468309
 20
-42.612157100158008
 30
0.0
 40
98.945181626186866
 50
94.833199302842687
 51
103.4791739195425
  0
ARC
  5
57C7B
  8
0
 10
125.4902062210621
 20
49.19484597008271
 30
0.0
 40
2.5613975640091562
 50
55.833055354386509
 51
109.4900096560954
  0
LINE
  5
57C7C
  8
0
 10
122.408566014559
 20
55.981195834633638
 30
0.0
 11
128.8841762452389
 21
56.33005077825441
 31
0.0
  0
LINE
  5
57C7D
  8
0
 10
131.2418943104139
 20
53.972332713079979
 30
0.0
 11
131.2418943104139
 21
53.306161933800112
 31
0.0
  0
LINE
  5
57C7E
  8
0
 10
128.54189431041391
 20
49.330050778254403
 30
0.0
 11
128.48189431041391
 21
49.330050778254403
 31
0.0
  0
LINE
  5
57C7F
  8
1
 10
101.4918943104139
 20
60.830050778254403
 30
0.0
 11
101.4918943104139
 21
21.330050778254371
 31
0.0
  0
LINE
  5
57C9D
  8
0
 10
165.97266600334839
 20
51.523161877600458
 30
0.0
 11
165.97266600334839
 21
45.822092481845573
 31
0.0
  0
POLYLINE
  5
57C9E
  8
0
 66
     1
 10
0.0
 20
0.0
 30
0.0
  0
VERTEX
  5
581B6
  8
0
 10
165.97266600334839
 20
45.822092481845573
 30
0.0
  0
VERTEX
  5
581B7
  8
0
 10
165.972336298106
 20
45.767629633789603
 30
0.0
  0
VERTEX
  5
581B8
  8
0
 10
165.9696939009489
 20
45.659552878096349
 30
0.0
  0
VERTEX
  5
581B9
  8
0
 10
165.96439838898121
 20
45.552701551770333
 30
0.0
  0
VERTEX
  5
581BA
  8
0
 10
165.96075291859631
 20
45.499770828961232
 30
0.0
  0
SEQEND
  5
581BB
  8
0
  0
POLYLINE
  5
57C9F
  8
0
 66
     1
 10
0.0
 20
0.0
 30
0.0
  0
VERTEX
  5
581BC
  8
0
 10
164.89761194604191
 20
41.995490090846971
 30
0.0
  0
VERTEX
  5
581BD
  8
0
 10
164.93780454343701
 20
42.067220682800503
 30
0.0
  0
VERTEX
  5
581BE
  8
0
 10
165.01718234295581
 20
42.219687665330639
 30
0.0
  0
VERTEX
  5
581BF
  8
0
 10
165.0953464901217
 20
42.383025619577793
 30
0.0
  0
VERTEX
  5
581C0
  8
0
 10
165.13447477760729
 20
42.46948411560043
 30
0.0
  0
VERTEX
  5
581C1
  8
0
 10
165.1736113545243
 20
42.559013795091971
 30
0.0
  0
VERTEX
  5
581C2
  8
0
 10
165.25164101026451
 20
42.746523048822617
 30
0.0
  0
VERTEX
  5
581C3
  8
0
 10
165.32888845452899
 20
42.944031337427781
 30
0.0
  0
VERTEX
  5
581C4
  8
0
 10
165.4047866346281
 20
43.150030666367378
 30
0.0
  0
VERTEX
  5
581C5
  8
0
 10
165.4787457777222
 20
43.363031835199422
 30
0.0
  0
VERTEX
  5
581C6
  8
0
 10
165.54973565665469
 20
43.580250236976582
 30
0.0
  0
VERTEX
  5
581C7
  8
0
 10
165.58351180089599
 20
43.68857927896272
 30
0.0
  0
VERTEX
  5
581C8
  8
0
 10
165.6160900889231
 20
43.796500807068377
 30
0.0
  0
VERTEX
  5
581C9
  8
0
 10
165.67757838473199
 20
44.010782553150698
 30
0.0
  0
VERTEX
  5
581CA
  8
0
 10
165.73402425960799
 20
44.222450892304458
 30
0.0
  0
VERTEX
  5
581CB
  8
0
 10
165.78521402425909
 20
44.430906397600459
 30
0.0
  0
VERTEX
  5
581CC
  8
0
 10
165.83092229236479
 20
44.635680732874562
 30
0.0
  0
VERTEX
  5
581CD
  8
0
 10
165.87090671896439
 20
44.836446485409333
 30
0.0
  0
VERTEX
  5
581CE
  8
0
 10
165.88865010022971
 20
44.93515502335682
 30
0.0
  0
VERTEX
  5
581CF
  8
0
 10
165.90483603255689
 20
45.032656610996632
 30
0.0
  0
VERTEX
  5
581D0
  8
0
 10
165.93235160891911
 20
45.223774125181841
 30
0.0
  0
VERTEX
  5
581D1
  8
0
 10
165.95306981570201
 20
45.40928013887563
 30
0.0
  0
VERTEX
  5
581D2
  8
0
 10
165.96075291859631
 20
45.499770828961232
 30
0.0
  0
SEQEND
  5
581D3
  8
0
  0
LINE
  5
57CA0
  8
0
 10
164.89761194604191
 20
40.054374540342323
 30
0.0
 11
164.89761194604191
 21
41.995490090846971
 31
0.0
  0
LINE
  5
57CA1
  8
0
 10
168.97266600334851
 20
40.054374540342323
 30
0.0
 11
168.97266600334851
 21
49.587378651958993
 31
0.0
  0
LINE
  5
57CA2
  8
0
 10
171.97266600334851
 20
40.054374540342323
 30
0.0
 11
171.97266600334851
 21
49.587378651957572
 31
0.0
  0
LINE
  5
57CA3
  8
0
 10
174.97266600334851
 20
51.523161877600458
 30
0.0
 11
174.97266600334851
 21
45.822092481845573
 31
0.0
  0
POLYLINE
  5
57CA4
  8
0
 66
     1
 10
0.0
 20
0.0
 30
0.0
  0
VERTEX
  5
581D4
  8
0
 10
174.98457908810059
 20
45.499770828961232
 30
0.0
  0
VERTEX
  5
581D5
  8
0
 10
174.98093362395679
 20
45.5527014517263
 30
0.0
  0
VERTEX
  5
581D6
  8
0
 10
174.97563811090629
 20
45.65955273834868
 30
0.0
  0
VERTEX
  5
581D7
  8
0
 10
174.97299570925659
 20
45.767629578973292
 30
0.0
  0
VERTEX
  5
581D8
  8
0
 10
174.97266600334851
 20
45.822092481845573
 30
0.0
  0
SEQEND
  5
581D9
  8
0
  0
POLYLINE
  5
57CA5
  8
0
 66
     1
 10
0.0
 20
0.0
 30
0.0
  0
VERTEX
  5
581DA
  8
0
 10
174.98457908810059
 20
45.499770828961232
 30
0.0
  0
VERTEX
  5
581DB
  8
0
 10
174.99258851925671
 20
45.4058266581618
 30
0.0
  0
VERTEX
  5
581DC
  8
0
 10
175.01436571563841
 20
45.213058178524278
 30
0.0
  0
VERTEX
  5
581DD
  8
0
 10
175.0434468753341
 20
45.014242661269293
 30
0.0
  0
VERTEX
  5
581DE
  8
0
 10
175.06059366200259
 20
44.912743506109713
 30
0.0
  0
VERTEX
  5
581DF
  8
0
 10
175.07941090829499
 20
44.809946495526901
 30
0.0
  0
VERTEX
  5
581E0
  8
0
 10
175.1218669189638
 20
44.600756591640732
 30
0.0
  0
VERTEX
  5
581E1
  8
0
 10
175.17045390510299
 20
44.387284445487857
 30
0.0
  0
VERTEX
  5
581E2
  8
0
 10
175.22482434688581
 20
44.170236904748229
 30
0.0
  0
VERTEX
  5
581E3
  8
0
 10
175.28391031157309
 20
43.953003293238289
 30
0.0
  0
VERTEX
  5
581E4
  8
0
 10
175.34673539626939
 20
43.73811036005749
 30
0.0
  0
VERTEX
  5
581E5
  8
0
 10
175.37934577043279
 20
43.631939464652788
 30
0.0
  0
VERTEX
  5
581E6
  8
0
 10
175.41264831416549
 20
43.526832799423268
 30
0.0
  0
VERTEX
  5
581E7
  8
0
 10
175.4810179724912
 20
43.32045792139791
 30
0.0
  0
VERTEX
  5
581E8
  8
0
 10
175.55123139723079
 20
43.120282766250632
 30
0.0
  0
VERTEX
  5
581E9
  8
0
 10
175.62269107200879
 20
42.927610630763489
 30
0.0
  0
VERTEX
  5
581EA
  8
0
 10
175.69481126761741
 20
42.743746188613457
 30
0.0
  0
VERTEX
  5
581EB
  8
0
 10
175.76701270471011
 20
42.569987759520167
 30
0.0
  0
VERTEX
  5
581EC
  8
0
 10
175.80362016095449
 20
42.485810957039369
 30
0.0
  0
VERTEX
  5
581ED
  8
0
 10
175.8415603038853
 20
42.401381887828727
 30
0.0
  0
VERTEX
  5
581EE
  8
0
 10
175.9210490461565
 20
42.233997409882761
 30
0.0
  0
VERTEX
  5
581EF
  8
0
 10
176.00464935193591
 20
42.072501932942536
 30
0.0
  0
VERTEX
  5
581F0
  8
0
 10
176.047720060655
 20
41.995490090846928
 30
0.0
  0
SEQEND
  5
581F1
  8
0
  0
LINE
  5
57CA6
  8
0
 10
176.047720060655
 20
41.995490090846928
 30
0.0
 11
176.047720060655
 21
40.054374540342323
 31
0.0
  0
LINE
  5
57CA8
  8
3
 10
170.16966600334851
 20
26.530050778254409
 30
0.0
 11
170.1696660033484
 21
31.530050778254409
 31
0.0
  0
LINE
  5
57CA9
  8
3
 10
170.77566600334839
 20
26.530050778254409
 30
0.0
 11
170.77566600334839
 21
31.530050778254409
 31
0.0
  0
LINE
  5
57CAD
  8
3
 10
171.45108684149909
 20
26.530050778254409
 30
0.0
 11
171.45108684149901
 21
31.530050778254409
 31
0.0
  0
LINE
  5
57CAE
  8
3
 10
172.057086841499
 20
26.530050778254409
 30
0.0
 11
172.057086841499
 21
31.530050778254409
 31
0.0
  0
LINE
  5
57CB2
  8
3
 10
172.73250767964959
 20
26.530050778254409
 30
0.0
 11
172.73250767964959
 21
31.530050778254409
 31
0.0
  0
LINE
  5
57CB3
  8
3
 10
173.33850767964961
 20
26.530050778254409
 30
0.0
 11
173.33850767964961
 21
31.530050778254409
 31
0.0
  0
LINE
  5
57CB7
  8
3
 10
174.01392851780031
 20
26.530050778254409
 30
0.0
 11
174.01392851780031
 21
31.530050778254409
 31
0.0
  0
LINE
  5
57CB8
  8
3
 10
174.61992851780019
 20
26.530050778254409
 30
0.0
 11
174.61992851780019
 21
31.530050778254409
 31
0.0
  0
LINE
  5
57CBC
  8
3
 10
175.29534935595089
 20
26.530050778254409
 30
0.0
 11
175.29534935595089
 21
31.530050778254409
 31
0.0
  0
LINE
  5
57CBD
  8
3
 10
175.9013493559508
 20
26.530050778254409
 30
0.0
 11
175.9013493559508
 21
31.530050778254409
 31
0.0
  0
LINE
  5
57CC1
  8
3
 10
169.49424516519781
 20
26.530050778254409
 30
0.0
 11
169.49424516519781
 21
31.530050778254409
 31
0.0
  0
LINE
  5
57CC2
  8
3
 10
168.8882451651979
 20
26.530050778254409
 30
0.0
 11
168.8882451651979
 21
31.530050778254409
 31
0.0
  0
LINE
  5
57CC6
  8
3
 10
168.2128243270472
 20
26.530050778254409
 30
0.0
 11
168.2128243270472
 21
31.530050778254409
 31
0.0
  0
LINE
  5
57CC7
  8
3
 10
167.60682432704729
 20
26.530050778254409
 30
0.0
 11
167.60682432704729
 21
31.530050778254409
 31
0.0
  0
LINE
  5
57CCB
  8
3
 10
166.93140348889659
 20
26.530050778254409
 30
0.0
 11
166.93140348889659
 21
31.530050778254409
 31
0.0
  0
LINE
  5
57CCC
  8
3
 10
166.32540348889671
 20
26.530050778254409
 30
0.0
 11
166.32540348889671
 21
31.530050778254409
 31
0.0
  0
LINE
  5
57CD0
  8
3
 10
165.64998265074601
 20
26.530050778254409
 30
0.0
 11
165.64998265074601
 21
31.530050778254409
 31
0.0
  0
LINE
  5
57CD1
  8
3
 10
165.04398265074599
 20
26.530050778254409
 30
0.0
 11
165.04398265074599
 21
31.530050778254409
 31
0.0
  0
LINE
  5
57CD5
  8
3
 10
101.1888943104139
 20
26.53005077825442
 30
0.0
 11
101.1888943104139
 21
31.53005077825442
 31
0.0
  0
LINE
  5
57CD6
  8
3
 10
101.7948943104138
 20
26.53005077825442
 30
0.0
 11
101.7948943104138
 21
31.53005077825442
 31
0.0
  0
LINE
  5
57CDA
  8
3
 10
102.4703151485645
 20
26.53005077825442
 30
0.0
 11
102.4703151485645
 21
31.53005077825442
 31
0.0
  0
LINE
  5
57CDB
  8
3
 10
103.0763151485644
 20
26.53005077825442
 30
0.0
 11
103.0763151485644
 21
31.53005077825442
 31
0.0
  0
LINE
  5
57CDF
  8
3
 10
103.7517359867151
 20
26.53005077825442
 30
0.0
 11
103.7517359867151
 21
31.53005077825442
 31
0.0
  0
LINE
  5
57CE0
  8
3
 10
104.357735986715
 20
26.53005077825442
 30
0.0
 11
104.357735986715
 21
31.53005077825442
 31
0.0
  0
LINE
  5
57CE4
  8
3
 10
105.0331568248657
 20
26.53005077825442
 30
0.0
 11
105.0331568248657
 21
31.53005077825442
 31
0.0
  0
LINE
  5
57CE5
  8
3
 10
105.63915682486559
 20
26.53005077825442
 30
0.0
 11
105.63915682486559
 21
31.53005077825442
 31
0.0
  0
LINE
  5
57CE9
  8
3
 10
106.31457766301629
 20
26.53005077825442
 30
0.0
 11
106.31457766301629
 21
31.53005077825442
 31
0.0
  0
LINE
  5
57CEA
  8
3
 10
106.9205776630163
 20
26.53005077825442
 30
0.0
 11
106.9205776630163
 21
31.53005077825442
 31
0.0
  0
LINE
  5
57CEE
  8
3
 10
100.5134734722633
 20
26.53005077825442
 30
0.0
 11
100.5134734722633
 21
31.53005077825442
 31
0.0
  0
LINE
  5
57CEF
  8
3
 10
99.907473472263376
 20
26.53005077825442
 30
0.0
 11
99.907473472263348
 21
31.53005077825442
 31
0.0
  0
LINE
  5
57CF3
  8
3
 10
99.232052634112691
 20
26.53005077825442
 30
0.0
 11
99.232052634112691
 21
31.53005077825442
 31
0.0
  0
LINE
  5
57CF4
  8
3
 10
98.626052634112753
 20
26.53005077825442
 30
0.0
 11
98.626052634112753
 21
31.53005077825442
 31
0.0
  0
LINE
  5
57CF8
  8
3
 10
97.950631795962067
 20
26.53005077825442
 30
0.0
 11
97.950631795962067
 21
31.53005077825442
 31
0.0
  0
LINE
  5
57CF9
  8
3
 10
97.34463179596213
 20
26.53005077825442
 30
0.0
 11
97.34463179596213
 21
31.53005077825442
 31
0.0
  0
LINE
  5
57CFD
  8
3
 10
96.669210957811487
 20
26.53005077825442
 30
0.0
 11
96.669210957811458
 21
31.53005077825442
 31
0.0
  0
LINE
  5
57CFE
  8
3
 10
96.063210957811535
 20
26.53005077825442
 30
0.0
 11
96.063210957811535
 21
31.53005077825442
 31
0.0
  0
LINE
  5
57D02
  8
3
 10
32.208122617479368
 20
26.530050778254392
 30
0.0
 11
32.208122617479368
 21
31.530050778254392
 31
0.0
  0
LINE
  5
57D03
  8
3
 10
32.814122617479313
 20
26.530050778254392
 30
0.0
 11
32.814122617479313
 21
31.530050778254392
 31
0.0
  0
LINE
  5
57D07
  8
3
 10
33.489543455629992
 20
26.530050778254392
 30
0.0
 11
33.489543455629992
 21
31.530050778254392
 31
0.0
  0
LINE
  5
57D08
  8
3
 10
34.095543455629929
 20
26.530050778254392
 30
0.0
 11
34.095543455629922
 21
31.530050778254392
 31
0.0
  0
LINE
  5
57D0C
  8
3
 10
34.770964293780601
 20
26.530050778254392
 30
0.0
 11
34.770964293780601
 21
31.530050778254392
 31
0.0
  0
LINE
  5
57D0D
  8
3
 10
35.376964293780532
 20
26.530050778254392
 30
0.0
 11
35.376964293780532
 21
31.530050778254392
 31
0.0
  0
LINE
  5
57D11
  8
3
 10
36.052385131931203
 20
26.530050778254392
 30
0.0
 11
36.052385131931203
 21
31.530050778254392
 31
0.0
  0
LINE
  5
57D12
  8
3
 10
36.658385131931141
 20
26.530050778254392
 30
0.0
 11
36.658385131931141
 21
31.530050778254392
 31
0.0
  0
LINE
  5
57D16
  8
3
 10
37.333805970081819
 20
26.530050778254392
 30
0.0
 11
37.333805970081812
 21
31.530050778254392
 31
0.0
  0
LINE
  5
57D17
  8
3
 10
37.93980597008175
 20
26.530050778254392
 30
0.0
 11
37.93980597008175
 21
31.530050778254392
 31
0.0
  0
LINE
  5
57D1B
  8
3
 10
31.532701779328761
 20
26.530050778254392
 30
0.0
 11
31.532701779328761
 21
31.530050778254392
 31
0.0
  0
LINE
  5
57D1C
  8
3
 10
30.92670177932883
 20
26.530050778254392
 30
0.0
 11
30.92670177932883
 21
31.530050778254392
 31
0.0
  0
LINE
  5
57D20
  8
3
 10
30.251280941178159
 20
26.530050778254392
 30
0.0
 11
30.251280941178148
 21
31.530050778254392
 31
0.0
  0
LINE
  5
57D21
  8
3
 10
29.645280941178221
 20
26.530050778254392
 30
0.0
 11
29.645280941178221
 21
31.530050778254392
 31
0.0
  0
LINE
  5
57D25
  8
3
 10
28.96986010302755
 20
26.530050778254392
 30
0.0
 11
28.969860103027539
 21
31.530050778254392
 31
0.0
  0
LINE
  5
57D26
  8
3
 10
28.363860103027601
 20
26.530050778254392
 30
0.0
 11
28.363860103027601
 21
31.530050778254392
 31
0.0
  0
LINE
  5
57D2A
  8
3
 10
27.688439264876941
 20
26.530050778254392
 30
0.0
 11
27.688439264876941
 21
31.530050778254392
 31
0.0
  0
LINE
  5
57D2B
  8
3
 10
27.082439264876999
 20
26.530050778254392
 30
0.0
 11
27.082439264876999
 21
31.530050778254392
 31
0.0
  0
LINE
  5
57E41
  8
2
 10
99.033394310413996
 20
37.267956290553037
 30
0.0
 11
98.491894310413954
 21
36.33005077825441
 31
0.0
  0
LINE
  5
57E43
  8
2
 10
103.9503943104139
 20
37.267956290553641
 30
0.0
 11
104.4918943104143
 21
36.33005077825441
 31
0.0
  0
LINE
  5
57E44
  8
2
 10
168.01416600334849
 20
37.267956290553037
 30
0.0
 11
167.47266600334851
 21
36.33005077825441
 31
0.0
  0
LINE
  5
57E45
  8
2
 10
172.93116600334841
 20
37.267956290553641
 30
0.0
 11
173.47266600334879
 21
36.33005077825441
 31
0.0
  0
LINE
  5
57E46
  8
2
 10
30.052622617479472
 20
37.267956290553037
 30
0.0
 11
29.51112261747943
 21
36.33005077825441
 31
0.0
  0
LINE
  5
57E47
  8
2
 10
34.969622617479388
 20
37.267956290553641
 30
0.0
 11
35.511122617479771
 21
36.33005077825441
 31
0.0
  0
TEXT
  5
57F08
  8
0
 62
     3
 10
0.0
 20
0.0
 30
0.0
 40
10.0
  1
EAL30A-SUS
  7
STANDARD1
  0
VIEWPORT
  5
1EC2F
 67
     1
  8
0
 10
261.51769911504419
 20
148.5
 30
0.0
 40
523.0353982300885
 41
297.0
 68
     1
 69
     1
1001
ACAD
1000
MVIEW
1002
{
1070
    16
1010
0.0
1020
0.0
1030
0.0
1010
0.0
1020
0.0
1030
1.0
1040
0.0
1040
297.0
1040
261.51769911504419
1040
148.5
1040
50.0
1040
0.0
1040
0.0
1070
     0
1070
   100
1070
     1
1070
     1
1070
     0
1070
     0
1070
     0
1070
     0
1040
0.0
1040
0.0
1040
0.0
1040
1.0
1040
1.0
1040
10.0
1040
10.0
1070
     0
1002
{
1002
}
1002
}
  0
ENDSEC
  0
EOF
