  0
SECTION
  2
HEADER
  9
$ACADVER
  1
AC1009
  9
$INSBASE
 10
0.0
 20
0.0
 30
0.0
  9
$EXTMIN
 10
0.0
 20
-2.960436562073669
 30
0.0
  9
$EXTMAX
 10
178.22266600334851
 20
151.61425929588779
 30
0.0
  9
$LIMMIN
 10
0.0
 20
0.0
  9
$LIMMAX
 10
390.0
 20
270.0
  9
$ORTHOMODE
 70
     1
  9
$REGENMODE
 70
     1
  9
$FILLMODE
 70
     1
  9
$QTEXTMODE
 70
     0
  9
$MIRRTEXT
 70
     1
  9
$DRAGMODE
 70
     2
  9
$LTSCALE
 40
5.0
  9
$OSMODE
 70
  3071
  9
$ATTMODE
 70
     1
  9
$TEXTSIZE
 40
2.5
  9
$TRACEWID
 40
1.0
  9
$TEXTSTYLE
  7
STANDARD
  9
$CLAYER
  8
0
  9
$CELTYPE
  6
BYLAYER
  9
$CECOLOR
 62
   256
  9
$DIMSCALE
 40
2.0
  9
$DIMASZ
 40
3.0
  9
$DIMEXO
 40
1.0
  9
$DIMDLI
 40
6.0
  9
$DIMRND
 40
0.0
  9
$DIMDLE
 40
0.0
  9
$DIMEXE
 40
1.0
  9
$DIMTP
 40
495.0
  9
$DIMTM
 40
0.0
  9
$DIMTXT
 40
2.5
  9
$DIMCEN
 40
0.0
  9
$DIMTSZ
 40
0.0
  9
$DIMTOL
 70
     0
  9
$DIMLIM
 70
     0
  9
$DIMTIH
 70
     0
  9
$DIMTOH
 70
     0
  9
$DIMSE1
 70
     0
  9
$DIMSE2
 70
     0
  9
$DIMTAD
 70
     1
  9
$DIMZIN
 70
     8
  9
$DIMBLK
  1

  9
$DIMASO
 70
     0
  9
$DIMSHO
 70
     1
  9
$DIMPOST
  1

  9
$DIMAPOST
  1

  9
$DIMALT
 70
     0
  9
$DIMALTD
 70
     2
  9
$DIMALTF
 40
25.399999999999999
  9
$DIMLFAC
 40
1.0
  9
$DIMTOFL
 70
     1
  9
$DIMTVP
 40
0.0
  9
$DIMTIX
 70
     1
  9
$DIMSOXD
 70
     0
  9
$DIMSAH
 70
     0
  9
$DIMBLK1
  1

  9
$DIMBLK2
  1

  9
$DIMSTYLE
  2
ITM
  9
$DIMCLRD
 70
   256
  9
$DIMCLRE
 70
   256
  9
$DIMCLRT
 70
   256
  9
$DIMTFAC
 40
1.0
  9
$DIMGAP
 40
1.0
  9
$LUNITS
 70
     2
  9
$LUPREC
 70
     2
  9
$SKETCHINC
 40
1.0
  9
$FILLETRAD
 40
0.4
  9
$AUNITS
 70
     0
  9
$AUPREC
 70
     0
  9
$MENU
  1
.
  9
$ELEVATION
 40
0.0
  9
$PELEVATION
 40
0.0
  9
$THICKNESS
 40
0.0
  9
$LIMCHECK
 70
     0
  9
$BLIPMODE
 70
     0
  9
$CHAMFERA
 40
1.1999999999999991
  9
$CHAMFERB
 40
1.1999999999999991
  9
$SKPOLY
 70
     0
  9
$TDCREATE
 40
2453354.0921258219
  9
$TDUPDATE
 40
2456598.6236769911
  9
$TDINDWG
 40
513.80334502309995
  9
$TDUSRTIMER
 40
513.80306704860004
  9
$USRTIMER
 70
     1
  9
$ANGBASE
 50
0.0
  9
$ANGDIR
 70
     0
  9
$PDMODE
 70
     0
  9
$PDSIZE
 40
0.0
  9
$PLINEWID
 40
0.0
  9
$COORDS
 70
     1
  9
$SPLFRAME
 70
     0
  9
$SPLINETYPE
 70
     6
  9
$SPLINESEGS
 70
     8
  9
$ATTDIA
 70
     0
  9
$ATTREQ
 70
     1
  9
$HANDLING
 70
     1
  9
$HANDSEED
  5
58C29
  9
$SURFTAB1
 70
     6
  9
$SURFTAB2
 70
     6
  9
$SURFTYPE
 70
     6
  9
$SURFU
 70
     6
  9
$SURFV
 70
     6
  9
$UCSNAME
  2

  9
$UCSORG
 10
0.0
 20
0.0
 30
0.0
  9
$UCSXDIR
 10
1.0
 20
0.0
 30
0.0
  9
$UCSYDIR
 10
0.0
 20
1.0
 30
0.0
  9
$PUCSNAME
  2

  9
$PUCSORG
 10
0.0
 20
0.0
 30
0.0
  9
$PUCSXDIR
 10
1.0
 20
0.0
 30
0.0
  9
$PUCSYDIR
 10
0.0
 20
1.0
 30
0.0
  9
$USERI1
 70
     4
  9
$USERI2
 70
     1
  9
$USERI3
 70
     1
  9
$USERI4
 70
     0
  9
$USERI5
 70
     0
  9
$USERR1
 40
1.0
  9
$USERR2
 40
3.0
  9
$USERR3
 40
3.2000000000000002
  9
$USERR4
 40
3.0
  9
$USERR5
 40
10.0
  9
$WORLDVIEW
 70
     1
  9
$SHADEDGE
 70
     3
  9
$SHADEDIF
 70
    70
  9
$TILEMODE
 70
     1
  9
$MAXACTVP
 70
    16
  9
$PLIMCHECK
 70
     0
  9
$PEXTMIN
 10
0.0
 20
0.0
 30
0.0
  9
$PEXTMAX
 10
0.0
 20
0.0
 30
0.0
  9
$PLIMMIN
 10
0.0
 20
0.0
  9
$PLIMMAX
 10
12.0
 20
9.0
  9
$UNITMODE
 70
     0
  9
$VISRETAIN
 70
     0
  9
$PLINEGEN
 70
     0
  9
$PSLTSCALE
 70
     1
  0
ENDSEC
  0
SECTION
  2
TABLES
  0
TABLE
  2
VPORT
 70
     1
  0
VPORT
  2
*ACTIVE
 70
     0
 10
0.0
 20
0.0
 11
1.0
 21
1.0
 12
202.55787946771341
 22
133.5127261426681
 13
0.0
 23
0.0
 14
5.0
 24
5.0
 15
10.0
 25
10.0
 16
0.0
 26
0.0
 36
1.0
 17
0.0
 27
0.0
 37
0.0
 40
275.42274993631997
 41
1.831871345029239
 42
50.0
 43
0.0
 44
0.0
 50
0.0
 51
0.0
 71
    16
 72
   500
 73
     1
 74
     1
 75
     0
 76
     0
 77
     0
 78
     1
  0
ENDTAB
  0
TABLE
  2
LTYPE
 70
     4
  0
LTYPE
  2
CONTINUOUS
 70
     0
  3
Solid line
 72
    65
 73
     0
 40
0.0
  0
LTYPE
  2
CENTER
 70
     0
  3
____ _ ____ _ ____ _ ____ _ ____ _ ____ _ ____
 72
    65
 73
     4
 40
2.0
 49
1.25
 49
-0.25
 49
0.25
 49
-0.25
  0
LTYPE
  2
HIDDEN
 70
     0
  3
_ _ _ _ _ _ _ _ _ _ _ _ _ _ _ _ _ _ _ _ _ _ _
 72
    65
 73
     2
 40
0.375
 49
0.25
 49
-0.125
  0
LTYPE
  2
PHANTOM2
 70
     0
  3
___ _ _ ___ _ _ ___ _ _ ___ _ _
 72
    65
 73
     6
 40
1.25
 49
0.625
 49
-0.125
 49
0.125
 49
-0.125
 49
0.125
 49
-0.125
  0
ENDTAB
  0
TABLE
  2
LAYER
 70
     6
  0
LAYER
  2
0
 70
     0
 62
     7
  6
CONTINUOUS
  0
LAYER
  2
1
 70
     0
 62
     1
  6
CENTER
  0
LAYER
  2
WAKU
 70
     0
 62
     5
  6
CONTINUOUS
  0
LAYER
  2
DEFPOINTS
 70
     0
 62
     7
  6
CONTINUOUS
  0
LAYER
  2
3
 70
     0
 62
     3
  6
CONTINUOUS
  0
LAYER
  2
2
 70
     0
 62
     2
  6
HIDDEN
  0
ENDTAB
  0
TABLE
  2
STYLE
 70
     3
  0
STYLE
  2
STANDARD
 70
     0
 40
0.0
 41
1.0
 50
0.0
 71
     0
 42
2.5
  3
ROMANS
  4
EXTFONT
  0
STYLE
  2
K
 70
     0
 40
0.0
 41
0.75
 50
0.0
 71
     0
 42
3.2000000000000002
  3
ROMANS.shx
  4
EXTFONT.shx
  0
STYLE
  2
STANDARD1
 70
     0
 40
0.0
 41
1.0
 50
0.0
 71
     0
 42
3.0
  3
txt
  4

  0
ENDTAB
  0
TABLE
  2
VIEW
 70
     2
  0
VIEW
  2
OLE1
 70
     0
 40
151.81220504325799
 10
73.676474473531471
 20
85.209442582639014
 41
295.93771616027522
 11
0.0
 21
0.0
 31
1.0
 12
0.0
 22
0.0
 32
0.0
 42
50.0
 43
0.0
 44
0.0
 50
0.0
 71
    16
  0
VIEW
  2
OLE2
 70
     0
 40
12.66566269640963
 10
177.82767580922561
 20
80.089748755761136
 41
24.690026015785861
 11
0.0
 21
0.0
 31
1.0
 12
0.0
 22
0.0
 32
0.0
 42
50.0
 43
0.0
 44
0.0
 50
0.0
 71
    16
  0
ENDTAB
  0
TABLE
  2
UCS
 70
     0
  0
ENDTAB
  0
TABLE
  2
APPID
 70
    47
  0
APPID
  2
ACAD
 70
     0
  0
APPID
  2
COMM
 70
     0
  0
APPID
  2
DCO15
 70
     0
  0
APPID
  2
GENIUS_GENOREF_13
 70
     0
  0
APPID
  2
GENIUS_GENOENT_13
 70
     0
  0
APPID
  2
GENIUS_GENBH_13
 70
     0
  0
APPID
  2
GENIUS_GENOBJ_13
 70
     0
  0
APPID
  2
GENIUS_GENODEF_13
 70
     0
  0
APPID
  2
GENIUS_GENOLIS_13
 70
     0
  0
APPID
  2
GENIUS_GENOBJ-NBEHI-BHF_13
 70
     0
  0
APPID
  2
GENIUS_GENOBJ-NBEHI-BHB_13
 70
     0
  0
APPID
  2
GENIUS_GENOBJ-F-PART_13
 70
     0
  0
APPID
  2
GENIUS_GEFSTDP_13
 70
     0
  0
APPID
  2
GENIUS_GENOBJ-N-RSSYM_13
 70
     0
  0
APPID
  2
GENIUS_GENSYMENT_13
 70
     0
  0
APPID
  2
GENIUS_GENOBJ-N-TIT_13
 70
     0
  0
APPID
  2
GENIUS_GENTITLE_13
 70
     0
  0
APPID
  2
GENIUS_GENZVEED_13
 70
     0
  0
APPID
  2
GENIUS_GENOBJ-N-LEADER_13
 70
     0
  0
APPID
  2
GENIUS_GENOBJ-N-FIL_13
 70
     0
  0
APPID
  2
GENIUS_GENOBJ-N-SEC_13
 70
     0
  0
APPID
  2
GENIUS_GENOBJ-N-CRS_13
 70
     0
  0
APPID
  2
GENIUS_GENOBJ-N-ZOO_13
 70
     0
  0
APPID
  2
GENIUS_GENZOO_13
 70
     0
  0
APPID
  2
GENIUS_GENOBJ-F-TOL_13
 70
     0
  0
APPID
  2
GENIUS_GENFIL_13
 70
     0
  0
APPID
  2
GENIUS_GENOBJ-N-CHA_13
 70
     0
  0
APPID
  2
_CALL_MAC$
 70
     0
  0
APPID
  2
ASM_BASE
 70
     0
  0
APPID
  2
ASM_EXPLO_VER_2_00
 70
     0
  0
APPID
  2
ASM_CADM_VER_12_00
 70
     0
  0
APPID
  2
ASM_BASEFORO
 70
     0
  0
APPID
  2
ASM_BASETRAVI
 70
     0
  0
APPID
  2
ASM_BASETRAVI1
 70
     0
  0
APPID
  2
ASM_GRUPPI
 70
     0
  0
APPID
  2
ASM_CADM_ALBERO
 70
     0
  0
APPID
  2
ASM_GOLE
 70
     0
  0
APPID
  2
GENIUS_GEFINERT_13
 70
     0
  0
APPID
  2
GENIUS_GENOBJ-F-INER_13
 70
     0
  0
APPID
  2
GENIUS_GENDTOL_13
 70
     0
  0
APPID
  2
AD_SKETCHDIM
 70
     0
  0
APPID
  2
GENIUS_GENSCREG_15
 70
     0
  0
APPID
  2
GENIUS_GENOBJ-N-SDF_13
 70
     0
  0
APPID
  2
GENIUS_GENOBJ-N-CEN_13
 70
     0
  0
APPID
  2
ACAD_MLEADERVER
 70
     0
  0
APPID
  2
ACAD_EXEMPT_FROM_CAD_STANDARDS
 70
     0
  0
APPID
  2
ACAD_NAV_VCDISPLAY
 70
     0
  0
ENDTAB
  0
TABLE
  2
DIMSTYLE
 70
     2
  0
DIMSTYLE
  2
ITM
 70
     0
  3

  4

  5

  6

  7

 40
0.0
 41
2.5
 42
1.0
 43
6.0
 44
1.0
 45
0.0
 46
0.0
 47
495.0
 48
0.0
140
3.0
141
0.0
142
0.0
143
25.399999999999999
144
1.0
145
0.0
146
1.0
147
1.0
 71
     0
 72
     0
 73
     0
 74
     0
 75
     0
 76
     0
 77
     3
 78
     8
170
     0
171
     2
172
     1
173
     0
174
     0
175
     0
176
     0
177
     0
178
     0
  0
DIMSTYLE
  2
STANDARD
 70
     0
  3

  4

  5

  6

  7

 40
1.0
 41
0.18
 42
0.0625
 43
0.38
 44
0.18
 45
0.0
 46
0.0
 47
0.0
 48
0.0
140
0.18
141
0.09
142
0.0
143
25.399999999999999
144
1.0
145
0.0
146
1.0
147
0.09
 71
     0
 72
     0
 73
     1
 74
     1
 75
     0
 76
     0
 77
     0
 78
     0
170
     0
171
     2
172
     0
173
     0
174
     0
175
     0
176
     0
177
     0
178
     0
  0
ENDTAB
  0
ENDSEC
  0
SECTION
  2
BLOCKS
  0
BLOCK
  8
0
  2
$MODEL_SPACE
 70
     0
 10
0.0
 20
0.0
 30
0.0
  3
$MODEL_SPACE
  1

  0
ENDBLK
  5
21
  8
0
  0
BLOCK
 67
     1
  8
0
  2
$PAPER_SPACE
 70
     0
 10
0.0
 20
0.0
 30
0.0
  3
$PAPER_SPACE
  1

  0
ENDBLK
  5
76
 67
     1
  8
0
  0
BLOCK
  8
0
  2
ARROW1
 70
     0
 10
0.0
 20
0.0
 30
0.0
  3
ARROW1
  1

  0
SOLID
  5
18C
  8
WAKU
  6
CONTINUOUS
 62
     4
 10
-1.0
 20
0.1666666666666714
 30
0.0
 11
-1.0
 21
-0.1666666666666714
 31
0.0
 12
0.0
 22
0.0
 32
0.0
 13
0.0
 23
0.0
 33
0.0
  0
ENDBLK
  5
3534A
  8
0
  0
ENDSEC
  0
SECTION
  2
ENTITIES
  0
LINE
  5
583BD
  8
3
 10
34.651970750388131
 20
62.999999999999943
 30
0.0
 11
34.651970750388131
 21
35.243956122349182
 31
0.0
  0
LINE
  5
583BE
  8
0
 10
35.511122617479572
 20
65.000000000000057
 30
0.0
 11
35.511122617479572
 21
36.732050807569117
 31
0.0
  0
LINE
  5
583BF
  8
0
 10
34.511122617479458
 20
35.000000000000057
 30
0.0
 11
35.511122617479572
 21
36.732050807569117
 31
0.0
  0
LINE
  5
583C1
  8
0
 10
29.511122617479462
 20
36.732050807569117
 30
0.0
 11
35.511122617479572
 21
36.732050807569117
 31
0.0
  0
LINE
  5
583C2
  8
0
 10
30.511122617479579
 20
35.000000000000057
 30
0.0
 11
29.511122617479462
 21
36.732050807569117
 31
0.0
  0
LINE
  5
583C3
  8
0
 10
29.511122617479462
 20
62.999999999999943
 30
0.0
 11
35.511122617479572
 21
62.999999999999943
 31
0.0
  0
LINE
  5
583C5
  8
0
 10
29.511122617479462
 20
65.000000000000057
 30
0.0
 11
29.511122617479462
 21
36.732050807569117
 31
0.0
  0
LINE
  5
583C6
  8
3
 10
30.370274484570899
 20
62.999999999999943
 30
0.0
 11
30.370274484570789
 21
35.243956122349182
 31
0.0
  0
LINE
  5
583C7
  8
0
 10
30.511122617479579
 20
35.000000000000057
 30
0.0
 11
34.511122617479458
 21
35.000000000000057
 31
0.0
  0
ARC
  5
5863B
  8
0
 10
29.111259468264109
 20
93.899863149215363
 30
0.0
 40
1.1143859031821211
 50
99.172266470030664
 51
170.8277335299681
  0
ARC
  5
5863C
  8
0
 10
35.910985766694751
 20
93.899863149215363
 30
0.0
 40
1.1143859031821211
 50
9.1722664700318344
 51
80.827733529969336
  0
ARC
  5
5863D
  8
0
 10
170.47266600335041
 20
92.500518348917765
 30
0.0
 40
4.5005183489177707
 50
180.8696041994906
 51
359.13039580045893
  0
ARC
  5
5863E
  8
0
 10
173.35104438172681
 20
93.378378378378358
 30
0.0
 40
1.6216216216216339
 50
0.0
 51
90.0
  0
ARC
  5
5863F
  8
0
 10
167.59428762497009
 20
93.378378378378358
 30
0.0
 40
1.6216216216216339
 50
90.0
 51
180.0
  0
LINE
  5
58640
  8
0
 10
167.59428762497009
 20
95.000000000000014
 30
0.0
 11
173.35104438172681
 21
95.000000000000014
 31
0.0
  0
ARC
  5
58641
  8
3
 10
126.741894310414
 20
138.86425929588779
 30
0.0
 40
3.577499999999957
 50
270.0
 51
90.0
  0
LINE
  5
58642
  8
3
 10
111.0049169635984
 20
135.2867592958878
 30
0.0
 11
126.7418943103936
 21
135.2867592958878
 31
0.0
  0
LINE
  5
58643
  8
3
 10
126.741894310414
 20
142.44175929588781
 30
0.0
 11
111.0049169635984
 21
142.44175929588781
 31
0.0
  0
POLYLINE
  5
58644
  8
3
 66
     1
 10
0.0
 20
0.0
 30
0.0
  0
VERTEX
  5
5899D
  8
3
 10
110.9994747702486
 20
135.2867432429197
 30
0.0
  0
VERTEX
  5
5899E
  8
3
 10
110.8998388252848
 20
135.2861554407375
 30
0.0
  0
VERTEX
  5
5899F
  8
3
 10
110.6967020697867
 20
135.28134623343681
 30
0.0
  0
VERTEX
  5
589A0
  8
3
 10
110.492245838448
 20
135.27162653375271
 30
0.0
  0
VERTEX
  5
589A1
  8
3
 10
110.3854381387733
 20
135.26462301011799
 30
0.0
  0
VERTEX
  5
589A2
  8
3
 10
110.2783362675215
 20
135.25630358651159
 30
0.0
  0
VERTEX
  5
589A3
  8
3
 10
110.0718519413705
 20
135.23648799223321
 30
0.0
  0
VERTEX
  5
589A4
  8
3
 10
109.8619882617382
 20
135.2111869190602
 30
0.0
  0
VERTEX
  5
589A5
  8
3
 10
109.65176120606949
 20
135.1806139079537
 30
0.0
  0
VERTEX
  5
589A6
  8
3
 10
109.4414220354259
 20
135.1447314689336
 30
0.0
  0
VERTEX
  5
589A7
  8
3
 10
109.2340235551852
 20
135.1040656900382
 30
0.0
  0
VERTEX
  5
589A8
  8
3
 10
109.1262638112986
 20
135.0808539910677
 30
0.0
  0
VERTEX
  5
589A9
  8
3
 10
109.0186135439575
 20
135.0562661545336
 30
0.0
  0
VERTEX
  5
589AA
  8
3
 10
108.8121700521567
 20
135.00504924669221
 30
0.0
  0
VERTEX
  5
589AB
  8
3
 10
108.60381111376481
 20
134.94781742365501
 30
0.0
  0
VERTEX
  5
589AC
  8
3
 10
108.3965483578264
 20
134.8852881163605
 30
0.0
  0
VERTEX
  5
589AD
  8
3
 10
108.1906183111966
 20
134.8175044223849
 30
0.0
  0
VERTEX
  5
589AE
  8
3
 10
107.98897204338139
 20
134.7454933525122
 30
0.0
  0
VERTEX
  5
589AF
  8
3
 10
107.88474810063001
 20
134.70605241759469
 30
0.0
  0
VERTEX
  5
589B0
  8
3
 10
107.7810101561474
 20
134.66530372659949
 30
0.0
  0
VERTEX
  5
589B1
  8
3
 10
107.58309663808581
 20
134.5832401507017
 30
0.0
  0
VERTEX
  5
589B2
  8
3
 10
107.38730334078529
 20
134.49624908591909
 30
0.0
  0
VERTEX
  5
589B3
  8
3
 10
107.29157037756571
 20
134.45154411977421
 30
0.0
  0
SEQEND
  5
589B4
  8
3
  0
POLYLINE
  5
58645
  8
3
 66
     1
 10
0.0
 20
0.0
 30
0.0
  0
VERTEX
  5
589B5
  8
3
 10
107.28412183302861
 20
134.4480252354017
 30
0.0
  0
VERTEX
  5
589B6
  8
3
 10
107.24338594762121
 20
134.42855760092209
 30
0.0
  0
VERTEX
  5
589B7
  8
3
 10
107.1600945819808
 20
134.38792223500371
 30
0.0
  0
VERTEX
  5
589B8
  8
3
 10
107.0759145314522
 20
134.3457093770775
 30
0.0
  0
VERTEX
  5
589B9
  8
3
 10
107.03178572817249
 20
134.3231208840254
 30
0.0
  0
VERTEX
  5
589BA
  8
3
 10
106.9874042727857
 20
134.30008893869541
 30
0.0
  0
VERTEX
  5
589BB
  8
3
 10
106.9015123283324
 20
134.2545857536573
 30
0.0
  0
VERTEX
  5
589BC
  8
3
 10
106.81374851857061
 20
134.20679725175259
 30
0.0
  0
VERTEX
  5
589BD
  8
3
 10
106.7253231560624
 20
134.1573097271594
 30
0.0
  0
VERTEX
  5
589BE
  8
3
 10
106.63631301207489
 20
134.10611085201231
 30
0.0
  0
VERTEX
  5
589BF
  8
3
 10
106.54800437431901
 20
134.05390534918899
 30
0.0
  0
VERTEX
  5
589C0
  8
3
 10
106.5019000259702
 20
134.0260855451364
 30
0.0
  0
VERTEX
  5
589C1
  8
3
 10
106.45566816912179
 20
133.9978047244239
 30
0.0
  0
VERTEX
  5
589C2
  8
3
 10
106.3665591888257
 20
133.94216472761281
 30
0.0
  0
VERTEX
  5
589C3
  8
3
 10
106.275998216752
 20
133.88405260842509
 30
0.0
  0
VERTEX
  5
589C4
  8
3
 10
106.1852479950556
 20
133.82420829735031
 30
0.0
  0
VERTEX
  5
589C5
  8
3
 10
106.09438158744589
 20
133.76263128288991
 30
0.0
  0
VERTEX
  5
589C6
  8
3
 10
106.0046621937359
 20
133.7001519752537
 30
0.0
  0
VERTEX
  5
589C7
  8
3
 10
105.9579853341515
 20
133.66697654047721
 30
0.0
  0
VERTEX
  5
589C8
  8
3
 10
105.91129607387791
 20
133.63333707519001
 30
0.0
  0
VERTEX
  5
589C9
  8
3
 10
105.82161929238561
 20
133.5673897128458
 30
0.0
  0
VERTEX
  5
589CA
  8
3
 10
105.7321210412001
 20
133.49975525224809
 30
0.0
  0
VERTEX
  5
589CB
  8
3
 10
105.65757224631319
 20
133.45483385649391
 30
0.0
  0
SEQEND
  5
589CC
  8
3
  0
POLYLINE
  5
58646
  8
3
 66
     1
 10
0.0
 20
0.0
 30
0.0
  0
VERTEX
  5
589CD
  8
3
 10
107.28412183302861
 20
143.28049335637391
 30
0.0
  0
VERTEX
  5
589CE
  8
3
 10
107.24338594762121
 20
143.29996099085349
 30
0.0
  0
VERTEX
  5
589CF
  8
3
 10
107.1600945819808
 20
143.3405963567719
 30
0.0
  0
VERTEX
  5
589D0
  8
3
 10
107.0759145314522
 20
143.38280921469811
 30
0.0
  0
VERTEX
  5
589D1
  8
3
 10
107.03178572817249
 20
143.40539770775021
 30
0.0
  0
VERTEX
  5
589D2
  8
3
 10
106.9874042727857
 20
143.4284296530802
 30
0.0
  0
VERTEX
  5
589D3
  8
3
 10
106.9015123283324
 20
143.47393283811829
 30
0.0
  0
VERTEX
  5
589D4
  8
3
 10
106.81374851857061
 20
143.52172134002299
 30
0.0
  0
VERTEX
  5
589D5
  8
3
 10
106.7253231560624
 20
143.57120886461621
 30
0.0
  0
VERTEX
  5
589D6
  8
3
 10
106.63631301207489
 20
143.6224077397633
 30
0.0
  0
VERTEX
  5
589D7
  8
3
 10
106.54800437431901
 20
143.67461324258659
 30
0.0
  0
VERTEX
  5
589D8
  8
3
 10
106.5019000259702
 20
143.70243304663919
 30
0.0
  0
VERTEX
  5
589D9
  8
3
 10
106.45566816912179
 20
143.73071386735171
 30
0.0
  0
VERTEX
  5
589DA
  8
3
 10
106.3665591888257
 20
143.78635386416281
 30
0.0
  0
VERTEX
  5
589DB
  8
3
 10
106.275998216752
 20
143.84446598335049
 30
0.0
  0
VERTEX
  5
589DC
  8
3
 10
106.1852479950556
 20
143.9043102944253
 30
0.0
  0
VERTEX
  5
589DD
  8
3
 10
106.09438158744589
 20
143.9658873088857
 30
0.0
  0
VERTEX
  5
589DE
  8
3
 10
106.0046621937359
 20
144.02836661652191
 30
0.0
  0
VERTEX
  5
589DF
  8
3
 10
105.9579853341515
 20
144.0615420512984
 30
0.0
  0
VERTEX
  5
589E0
  8
3
 10
105.91129607387791
 20
144.09518151658551
 30
0.0
  0
VERTEX
  5
589E1
  8
3
 10
105.82161929238561
 20
144.16112887892979
 30
0.0
  0
VERTEX
  5
589E2
  8
3
 10
105.7321210412001
 20
144.2287633395274
 30
0.0
  0
VERTEX
  5
589E3
  8
3
 10
105.65757224631319
 20
144.27368473528171
 30
0.0
  0
SEQEND
  5
589E4
  8
3
  0
POLYLINE
  5
58647
  8
3
 66
     1
 10
0.0
 20
0.0
 30
0.0
  0
VERTEX
  5
589E5
  8
3
 10
110.9994747702486
 20
142.44177534885591
 30
0.0
  0
VERTEX
  5
589E6
  8
3
 10
110.8998388252848
 20
142.44236315103811
 30
0.0
  0
VERTEX
  5
589E7
  8
3
 10
110.6967020697867
 20
142.4471723583388
 30
0.0
  0
VERTEX
  5
589E8
  8
3
 10
110.492245838448
 20
142.4568920580229
 30
0.0
  0
VERTEX
  5
589E9
  8
3
 10
110.3854381387733
 20
142.4638955816576
 30
0.0
  0
VERTEX
  5
589EA
  8
3
 10
110.2783362675215
 20
142.47221500526399
 30
0.0
  0
VERTEX
  5
589EB
  8
3
 10
110.0718519413705
 20
142.4920305995424
 30
0.0
  0
VERTEX
  5
589EC
  8
3
 10
109.8619882617382
 20
142.5173316727155
 30
0.0
  0
VERTEX
  5
589ED
  8
3
 10
109.65176120606949
 20
142.54790468382191
 30
0.0
  0
VERTEX
  5
589EE
  8
3
 10
109.4414220354259
 20
142.58378712284201
 30
0.0
  0
VERTEX
  5
589EF
  8
3
 10
109.2340235551852
 20
142.62445290173741
 30
0.0
  0
VERTEX
  5
589F0
  8
3
 10
109.1262638112986
 20
142.64766460070791
 30
0.0
  0
VERTEX
  5
589F1
  8
3
 10
109.0186135439575
 20
142.67225243724201
 30
0.0
  0
VERTEX
  5
589F2
  8
3
 10
108.8121700521567
 20
142.7234693450834
 30
0.0
  0
VERTEX
  5
589F3
  8
3
 10
108.60381111376481
 20
142.7807011681206
 30
0.0
  0
VERTEX
  5
589F4
  8
3
 10
108.3965483578264
 20
142.84323047541511
 30
0.0
  0
VERTEX
  5
589F5
  8
3
 10
108.1906183111966
 20
142.91101416939071
 30
0.0
  0
VERTEX
  5
589F6
  8
3
 10
107.98897204338139
 20
142.9830252392635
 30
0.0
  0
VERTEX
  5
589F7
  8
3
 10
107.88474810063001
 20
143.02246617418089
 30
0.0
  0
VERTEX
  5
589F8
  8
3
 10
107.7810101561474
 20
143.06321486517601
 30
0.0
  0
VERTEX
  5
589F9
  8
3
 10
107.58309663808581
 20
143.14527844107391
 30
0.0
  0
VERTEX
  5
589FA
  8
3
 10
107.38730334078529
 20
143.23226950585649
 30
0.0
  0
VERTEX
  5
589FB
  8
3
 10
107.29157037756571
 20
143.2769744720014
 30
0.0
  0
SEQEND
  5
589FC
  8
3
  0
ARC
  5
58648
  8
3
 10
93.722027391283973
 20
138.86425929588779
 30
0.0
 40
14.48250673635196
 50
342.75155316026019
 51
17.248446839739842
  0
ARC
  5
58649
  8
3
 10
101.4918943104139
 20
138.86425929588779
 30
0.0
 40
6.8274999999999988
 50
52.400933895313273
 51
307.59906610468789
  0
LINE
  5
5864A
  8
0
 10
124.63561515724339
 20
90.279423857804375
 30
0.0
 11
121.2265659034984
 21
89.688015517601485
 31
0.0
  0
POLYLINE
  5
5864B
  8
0
 66
     1
 10
0.0
 20
0.0
 30
0.0
  0
VERTEX
  5
589FD
  8
0
 10
128.51189431041399
 20
88.000000000000014
 30
0.0
  0
VERTEX
  5
589FE
  8
0
 10
128.59328225778489
 20
88.000000000000014
 30
0.0
  0
VERTEX
  5
589FF
  8
0
 10
128.6189466394876
 20
88.000000000000014
 30
0.0
  0
VERTEX
  5
58A00
  8
0
 10
128.6828508840297
 20
88.000000000000014
 30
0.0
  0
VERTEX
  5
58A01
  8
0
 10
128.7462209672893
 20
88.000000000000014
 30
0.0
  0
VERTEX
  5
58A02
  8
0
 10
128.8473943578297
 20
88.000000000000014
 30
0.0
  0
VERTEX
  5
58A03
  8
0
 10
128.8949199416154
 20
88.000000000000014
 30
0.0
  0
VERTEX
  5
58A04
  8
0
 10
129.0353145209377
 20
88.006345905903046
 30
0.0
  0
VERTEX
  5
58A05
  8
0
 10
129.22065863647049
 20
88.039747835624567
 30
0.0
  0
VERTEX
  5
58A06
  8
0
 10
129.4700212357782
 20
88.094493194176849
 30
0.0
  0
VERTEX
  5
58A07
  8
0
 10
129.69631361830241
 20
88.18054852813512
 30
0.0
  0
VERTEX
  5
58A08
  8
0
 10
130.00977676934991
 20
88.338804414188544
 30
0.0
  0
VERTEX
  5
58A09
  8
0
 10
130.3542579636426
 20
88.686115928941632
 30
0.0
  0
VERTEX
  5
58A0A
  8
0
 10
130.61399395370631
 20
89.101636405661026
 30
0.0
  0
VERTEX
  5
58A0B
  8
0
 10
130.83407835062329
 20
89.529904851641405
 30
0.0
  0
VERTEX
  5
58A0C
  8
0
 10
131.02342555910789
 20
90.076684668262175
 30
0.0
  0
VERTEX
  5
58A0D
  8
0
 10
131.14965520769849
 20
90.518314671104832
 30
0.0
  0
VERTEX
  5
58A0E
  8
0
 10
131.214224458704
 20
91.058626306277944
 30
0.0
  0
VERTEX
  5
58A0F
  8
0
 10
131.2418943104139
 20
91.976111155545738
 30
0.0
  0
SEQEND
  5
58A10
  8
0
  0
LINE
  5
5864C
  8
0
 10
173.97266600334851
 20
65.200000000000031
 30
0.0
 11
173.97266600334851
 21
65.000000000000014
 31
0.0
  0
LINE
  5
5864D
  8
0
 10
166.97266600334851
 20
65.200000000000031
 30
0.0
 11
166.97266600334851
 21
65.000000000000014
 31
0.0
  0
LINE
  5
5864E
  8
0
 10
166.97266600334851
 20
65.000000000000014
 30
0.0
 11
173.97266600334851
 21
65.000000000000014
 31
0.0
  0
LINE
  5
5864F
  8
0
 10
176.47266600334851
 20
71.000000000000014
 30
0.0
 11
176.47266600334851
 21
65.700000000000145
 31
0.0
  0
LINE
  5
58650
  8
0
 10
175.97266600334851
 20
65.200000000000031
 30
0.0
 11
176.47266600334851
 21
65.700000000000145
 31
0.0
  0
LINE
  5
58651
  8
0
 10
164.47266600334851
 20
71.000000000000014
 30
0.0
 11
164.47266600334851
 21
65.700000000000145
 31
0.0
  0
LINE
  5
58652
  8
0
 10
164.97266600334839
 20
65.200000000000031
 30
0.0
 11
175.97266600334851
 21
65.200000000000031
 31
0.0
  0
LINE
  5
58653
  8
0
 10
164.97266600334839
 20
65.200000000000031
 30
0.0
 11
164.47266600334851
 21
65.700000000000145
 31
0.0
  0
LINE
  5
58654
  8
0
 10
176.47266600334851
 20
70.200000000000031
 30
0.0
 11
164.47266600334851
 21
70.200000000000031
 31
0.0
  0
LINE
  5
58655
  8
0
 10
38.51112261747943
 20
70.200000000000017
 30
0.0
 11
26.51112261747943
 21
70.200000000000017
 31
0.0
  0
LINE
  5
58656
  8
0
 10
27.011122617479369
 20
65.200000000000017
 30
0.0
 11
26.51112261747943
 21
65.700000000000131
 31
0.0
  0
LINE
  5
58657
  8
0
 10
27.011122617479369
 20
65.200000000000017
 30
0.0
 11
38.011122617479487
 21
65.200000000000017
 31
0.0
  0
LINE
  5
58658
  8
0
 10
26.51112261747943
 20
71.0
 30
0.0
 11
26.51112261747943
 21
65.700000000000131
 31
0.0
  0
LINE
  5
58659
  8
0
 10
38.011122617479487
 20
65.200000000000017
 30
0.0
 11
38.51112261747943
 21
65.700000000000131
 31
0.0
  0
LINE
  5
5865A
  8
0
 10
38.51112261747943
 20
71.0
 30
0.0
 11
38.51112261747943
 21
65.700000000000131
 31
0.0
  0
LINE
  5
5865B
  8
0
 10
29.01112261747943
 20
65.0
 30
0.0
 11
36.011122617479487
 21
65.0
 31
0.0
  0
LINE
  5
5865C
  8
0
 10
29.01112261747943
 20
65.200000000000017
 30
0.0
 11
29.01112261747943
 21
65.0
 31
0.0
  0
LINE
  5
5865D
  8
0
 10
36.011122617479487
 20
65.200000000000017
 30
0.0
 11
36.011122617479487
 21
65.0
 31
0.0
  0
ARC
  5
5865E
  8
0
 10
128.68913904700341
 20
92.447244736589454
 30
0.0
 40
2.560195098730937
 50
4.3690597804379978
 51
85.630940219576473
  0
POLYLINE
  5
5865F
  8
0
 66
     1
 10
0.0
 20
0.0
 30
0.0
  0
VERTEX
  5
58A11
  8
0
 10
128.48189431041391
 20
88.000000000000014
 30
0.0
  0
VERTEX
  5
58A12
  8
0
 10
128.38884679464331
 20
88.004226099032763
 30
0.0
  0
VERTEX
  5
58A13
  8
0
 10
128.32754563227539
 20
88.017677520597687
 30
0.0
  0
VERTEX
  5
58A14
  8
0
 10
128.2767084441935
 20
88.034116991148181
 30
0.0
  0
VERTEX
  5
58A15
  8
0
 10
128.2019507522744
 20
88.066998532813983
 30
0.0
  0
VERTEX
  5
58A16
  8
0
 10
128.14214314868201
 20
88.102868123465583
 30
0.0
  0
VERTEX
  5
58A17
  8
0
 10
128.07340138100611
 20
88.140439783796097
 30
0.0
  0
VERTEX
  5
58A18
  8
0
 10
127.9922761260062
 20
88.187744057989605
 30
0.0
  0
VERTEX
  5
58A19
  8
0
 10
127.9179099494941
 20
88.238426465892545
 30
0.0
  0
VERTEX
  5
58A1A
  8
0
 10
127.8570655551014
 20
88.306004743473196
 30
0.0
  0
VERTEX
  5
58A1B
  8
0
 10
127.8165038338871
 20
88.373581720771568
 30
0.0
  0
VERTEX
  5
58A1C
  8
0
 10
127.7348746840574
 20
88.54327117626363
 30
0.0
  0
VERTEX
  5
58A1D
  8
0
 10
127.6584004870893
 20
88.786933698244553
 30
0.0
  0
VERTEX
  5
58A1E
  8
0
 10
127.5819262901209
 20
89.006708732012072
 30
0.0
  0
VERTEX
  5
58A1F
  8
0
 10
127.4719938389792
 20
89.207372214869707
 30
0.0
  0
VERTEX
  5
58A20
  8
0
 10
127.3620632004088
 20
89.417591473182171
 30
0.0
  0
VERTEX
  5
58A21
  8
0
 10
127.24181721840159
 20
89.594110011908612
 30
0.0
  0
VERTEX
  5
58A22
  8
0
 10
127.0714101374183
 20
89.817676669193048
 30
0.0
  0
VERTEX
  5
58A23
  8
0
 10
126.94893288010419
 20
89.961398184610445
 30
0.0
  0
VERTEX
  5
58A24
  8
0
 10
126.9287027714943
 20
89.984107616957459
 30
0.0
  0
SEQEND
  5
58A25
  8
0
  0
ARC
  5
58660
  8
0
 10
126.06809788965199
 20
73.757223691596266
 30
0.0
 40
16.650242045581901
 50
106.9045679124865
 51
141.5022645620557
  0
LINE
  5
58661
  8
0
 10
109.2418943104139
 20
71.000000000000028
 30
0.0
 11
109.241894310414
 21
78.72432376208819
 31
0.0
  0
ARC
  5
58662
  8
2
 10
131.8261697203975
 20
23.703243115791189
 30
0.0
 40
68.743712025019249
 50
93.283413247178402
 51
108.17052093980369
  0
LINE
  5
58663
  8
2
 10
109.2418958553873
 20
87.500018860459249
 30
0.0
 11
109.241894310414
 21
78.724323762087948
 31
0.0
  0
ARC
  5
58664
  8
2
 10
110.86186723338631
 20
87.490448615733698
 30
0.0
 40
1.6000000000000001
 50
107.2008933668221
 51
179.6666666666666
  0
ARC
  5
58665
  8
2
 10
127.93233371109611
 20
91.37770053141125
 30
0.0
 40
0.9599999999999999
 50
1.0000000000001461
 51
90.965973498775256
  0
LINE
  5
58666
  8
2
 10
128.8978910982475
 20
88.000134297780605
 30
0.0
 11
128.85089168584341
 21
90.692728831075627
 31
0.0
  0
CIRCLE
  5
58667
  8
0
 10
111.7418943104139
 20
138.86425929588779
 30
0.0
 40
0.5
  0
CIRCLE
  5
58668
  8
0
 10
115.7418943104139
 20
138.86425929588779
 30
0.0
 40
0.5
  0
CIRCLE
  5
58669
  8
0
 10
117.7418943104139
 20
138.86425929588779
 30
0.0
 40
0.5
  0
CIRCLE
  5
5866A
  8
0
 10
109.7418943104139
 20
138.86425929588779
 30
0.0
 40
0.5
  0
CIRCLE
  5
5866B
  8
0
 10
113.7418943104139
 20
138.86425929588779
 30
0.0
 40
0.5
  0
LINE
  5
5866C
  8
0
 10
27.2536227639734
 20
92.25826600503845
 30
0.0
 11
28.63612261747943
 21
92.25826600503845
 31
0.0
  0
LINE
  5
5866D
  8
0
 10
37.768622470985463
 20
92.25826600503845
 30
0.0
 11
36.38612261747943
 21
92.25826600503845
 31
0.0
  0
LINE
  5
5866E
  8
0
 10
36.38612261747943
 20
94.205000000000027
 30
0.0
 11
36.38612261747943
 21
90.075000000000017
 31
0.0
  0
LINE
  5
5866F
  8
0
 10
36.091122617479471
 20
94.500000000000014
 30
0.0
 11
28.931122617479438
 21
94.500000000000014
 31
0.0
  0
ARC
  5
58670
  8
0
 10
36.091122617479471
 20
94.205000000000027
 30
0.0
 40
0.2950000000000048
 50
0.0
 51
90.0
  0
LINE
  5
58671
  8
0
 10
28.63612261747943
 20
94.205000000000027
 30
0.0
 11
28.63612261747943
 21
90.075000000000017
 31
0.0
  0
ARC
  5
58672
  8
0
 10
28.931122617479438
 20
94.205000000000027
 30
0.0
 40
0.2950000000000088
 50
90.0
 51
180.0
  0
LINE
  5
58673
  8
0
 10
24.76112261747943
 20
90.075000000000017
 30
0.0
 11
40.261122617479423
 21
90.075000000000017
 31
0.0
  0
LINE
  5
58674
  8
0
 10
40.261122617479423
 20
90.075000000000003
 30
0.0
 11
40.261122617479423
 21
71.0
 31
0.0
  0
LINE
  5
58675
  8
0
 10
24.76112261747943
 20
71.0
 30
0.0
 11
24.76112261747943
 21
90.075000000000003
 31
0.0
  0
LINE
  5
58676
  8
1
 10
32.51112261747943
 20
100.0
 30
0.0
 11
32.51112261747943
 21
30.00000000000006
 31
0.0
  0
LINE
  5
58677
  8
0
 10
28.01112261747943
 20
94.077499999999773
 30
0.0
 11
28.01112261747943
 21
92.418330606450155
 31
0.0
  0
POLYLINE
  5
58678
  8
0
 66
     1
 10
0.0
 20
0.0
 30
0.0
  0
VERTEX
  5
58A26
  8
0
 10
27.262552503325821
 20
92.277500000000018
 30
0.0
  0
VERTEX
  5
58A27
  8
0
 10
27.24469302462364
 20
92.23903201008244
 30
0.0
  0
VERTEX
  5
58A28
  8
0
 10
27.20790101651977
 20
92.163071953892512
 30
0.0
  0
VERTEX
  5
58A29
  8
0
 10
27.169659369231852
 20
92.088445494284372
 30
0.0
  0
VERTEX
  5
58A2A
  8
0
 10
27.149988355652681
 20
92.051644124791082
 30
0.0
  0
VERTEX
  5
58A2B
  8
0
 10
27.129947330826379
 20
92.015190051656134
 30
0.0
  0
VERTEX
  5
58A2C
  8
0
 10
27.08874648690443
 20
91.943341220501495
 30
0.0
  0
VERTEX
  5
58A2D
  8
0
 10
27.046040841154369
 20
91.872932472948307
 30
0.0
  0
VERTEX
  5
58A2E
  8
0
 10
27.001816872849592
 20
91.803994888773985
 30
0.0
  0
VERTEX
  5
58A2F
  8
0
 10
26.956063568250158
 20
91.736556911812784
 30
0.0
  0
VERTEX
  5
58A30
  8
0
 10
26.908772423171911
 20
91.670644133254385
 30
0.0
  0
VERTEX
  5
58A31
  8
0
 10
26.884548182670471
 20
91.638266863444514
 30
0.0
  0
VERTEX
  5
58A32
  8
0
 10
26.859937414057931
 20
91.606279102329751
 30
0.0
  0
VERTEX
  5
58A33
  8
0
 10
26.809554935017729
 20
91.543481164862925
 30
0.0
  0
VERTEX
  5
58A34
  8
0
 10
26.75762369847547
 20
91.482266330128155
 30
0.0
  0
VERTEX
  5
58A35
  8
0
 10
26.70414459730603
 20
91.422647166393546
 30
0.0
  0
VERTEX
  5
58A36
  8
0
 10
26.649117670774391
 20
91.364629797180683
 30
0.0
  0
VERTEX
  5
58A37
  8
0
 10
26.592522784884348
 20
91.308196127676595
 30
0.0
  0
VERTEX
  5
58A38
  8
0
 10
26.56363724254868
 20
91.280573406469998
 30
0.0
  0
VERTEX
  5
58A39
  8
0
 10
26.534361087206829
 20
91.253347778821549
 30
0.0
  0
VERTEX
  5
58A3A
  8
0
 10
26.474642401223662
 20
91.200089814682514
 30
0.0
  0
VERTEX
  5
58A3B
  8
0
 10
26.41337942781405
 20
91.148424465157774
 30
0.0
  0
VERTEX
  5
58A3C
  8
0
 10
26.38217355236014
 20
91.123188921215728
 30
0.0
  0
SEQEND
  5
58A3D
  8
0
  0
POLYLINE
  5
58679
  8
0
 66
     1
 10
0.0
 20
0.0
 30
0.0
  0
VERTEX
  5
58A3E
  8
0
 10
28.01112261747943
 20
92.418330606450169
 30
0.0
  0
VERTEX
  5
58A3F
  8
0
 10
28.010583172838381
 20
92.412938168108354
 30
0.0
  0
VERTEX
  5
58A40
  8
0
 10
28.00622817084497
 20
92.402350504665591
 30
0.0
  0
VERTEX
  5
58A41
  8
0
 10
27.99742420129002
 20
92.392042817669051
 30
0.0
  0
VERTEX
  5
58A42
  8
0
 10
27.99132665389072
 20
92.386999991843624
 30
0.0
  0
VERTEX
  5
58A43
  8
0
 10
27.984085890856651
 20
92.382034189124923
 30
0.0
  0
VERTEX
  5
58A44
  8
0
 10
27.966141184488318
 20
92.372342043354479
 30
0.0
  0
VERTEX
  5
58A45
  8
0
 10
27.943531236934351
 20
92.362982039666718
 30
0.0
  0
VERTEX
  5
58A46
  8
0
 10
27.916210120436581
 20
92.35396798883977
 30
0.0
  0
VERTEX
  5
58A47
  8
0
 10
27.884144344414441
 20
92.345311793134414
 30
0.0
  0
VERTEX
  5
58A48
  8
0
 10
27.847312188308251
 20
92.337023411092574
 30
0.0
  0
VERTEX
  5
58A49
  8
0
 10
27.82710502669892
 20
92.33301974366799
 30
0.0
  0
VERTEX
  5
58A4A
  8
0
 10
27.805703337022809
 20
92.329110932505216
 30
0.0
  0
VERTEX
  5
58A4B
  8
0
 10
27.759319633027701
 20
92.321580799415443
 30
0.0
  0
VERTEX
  5
58A4C
  8
0
 10
27.708175361501329
 20
92.314437824017176
 30
0.0
  0
VERTEX
  5
58A4D
  8
0
 10
27.652297089650801
 20
92.307685147682065
 30
0.0
  0
VERTEX
  5
58A4E
  8
0
 10
27.59172333871879
 20
92.301324223231774
 30
0.0
  0
VERTEX
  5
58A4F
  8
0
 10
27.526504092049439
 20
92.295354819897213
 30
0.0
  0
VERTEX
  5
58A50
  8
0
 10
27.492171003350279
 20
92.292516412218617
 30
0.0
  0
VERTEX
  5
58A51
  8
0
 10
27.456700137277839
 20
92.289775049550002
 30
0.0
  0
VERTEX
  5
58A52
  8
0
 10
27.382377907154201
 20
92.284581129689059
 30
0.0
  0
VERTEX
  5
58A53
  8
0
 10
27.303592855662199
 20
92.279766733374814
 30
0.0
  0
VERTEX
  5
58A54
  8
0
 10
27.262552503325821
 20
92.277500000000032
 30
0.0
  0
SEQEND
  5
58A55
  8
0
  0
LINE
  5
5867A
  8
0
 10
37.01112261747943
 20
94.077499999999773
 30
0.0
 11
37.01112261747943
 21
92.418330606450155
 31
0.0
  0
LINE
  5
5867B
  8
0
 10
36.088622617479423
 20
95.0
 30
0.0
 11
28.93362261747944
 21
95.0
 31
0.0
  0
POLYLINE
  5
5867C
  8
0
 66
     1
 10
0.0
 20
0.0
 30
0.0
  0
VERTEX
  5
58A56
  8
0
 10
37.759692731633038
 20
92.277500000000046
 30
0.0
  0
VERTEX
  5
58A57
  8
0
 10
37.718652379296707
 20
92.279766733374814
 30
0.0
  0
VERTEX
  5
58A58
  8
0
 10
37.639867327804673
 20
92.284581129689073
 30
0.0
  0
VERTEX
  5
58A59
  8
0
 10
37.565545097681031
 20
92.289775049550002
 30
0.0
  0
VERTEX
  5
58A5A
  8
0
 10
37.53007423160858
 20
92.292516412218617
 30
0.0
  0
VERTEX
  5
58A5B
  8
0
 10
37.495741142909417
 20
92.295354819897213
 30
0.0
  0
VERTEX
  5
58A5C
  8
0
 10
37.430521896240073
 20
92.301324223231774
 30
0.0
  0
VERTEX
  5
58A5D
  8
0
 10
37.369948145308058
 20
92.307685147682065
 30
0.0
  0
VERTEX
  5
58A5E
  8
0
 10
37.314069873457527
 20
92.314437824017176
 30
0.0
  0
VERTEX
  5
58A5F
  8
0
 10
37.262925601931158
 20
92.321580799415443
 30
0.0
  0
VERTEX
  5
58A60
  8
0
 10
37.216541897936061
 20
92.329110932505216
 30
0.0
  0
VERTEX
  5
58A61
  8
0
 10
37.195140208259943
 20
92.33301974366799
 30
0.0
  0
VERTEX
  5
58A62
  8
0
 10
37.174933046650608
 20
92.337023411092574
 30
0.0
  0
VERTEX
  5
58A63
  8
0
 10
37.138100890544422
 20
92.345311793134414
 30
0.0
  0
VERTEX
  5
58A64
  8
0
 10
37.106035114522292
 20
92.35396798883977
 30
0.0
  0
VERTEX
  5
58A65
  8
0
 10
37.078713998024512
 20
92.362982039666718
 30
0.0
  0
VERTEX
  5
58A66
  8
0
 10
37.056104050470537
 20
92.372342043354479
 30
0.0
  0
VERTEX
  5
58A67
  8
0
 10
37.038159344102212
 20
92.382034189124923
 30
0.0
  0
VERTEX
  5
58A68
  8
0
 10
37.030918581068143
 20
92.386999991843624
 30
0.0
  0
VERTEX
  5
58A69
  8
0
 10
37.02482103366885
 20
92.392042817669051
 30
0.0
  0
VERTEX
  5
58A6A
  8
0
 10
37.016017064113903
 20
92.402350504665591
 30
0.0
  0
VERTEX
  5
58A6B
  8
0
 10
37.011662062120479
 20
92.412938168108354
 30
0.0
  0
VERTEX
  5
58A6C
  8
0
 10
37.01112261747943
 20
92.418330606450155
 30
0.0
  0
SEQEND
  5
58A6D
  8
0
  0
POLYLINE
  5
5867D
  8
0
 66
     1
 10
0.0
 20
0.0
 30
0.0
  0
VERTEX
  5
58A6E
  8
0
 10
38.640071682598723
 20
91.123188921215728
 30
0.0
  0
VERTEX
  5
58A6F
  8
0
 10
38.60886580714498
 20
91.14842446515766
 30
0.0
  0
VERTEX
  5
58A70
  8
0
 10
38.547602833735539
 20
91.200089814682187
 30
0.0
  0
VERTEX
  5
58A71
  8
0
 10
38.487884147752709
 20
91.253347778820967
 30
0.0
  0
VERTEX
  5
58A72
  8
0
 10
38.458607992410919
 20
91.280573406469287
 30
0.0
  0
VERTEX
  5
58A73
  8
0
 10
38.429722450075417
 20
91.308196127675757
 30
0.0
  0
VERTEX
  5
58A74
  8
0
 10
38.373127564185552
 20
91.364629797179575
 30
0.0
  0
VERTEX
  5
58A75
  8
0
 10
38.31810063765414
 20
91.422647166392153
 30
0.0
  0
VERTEX
  5
58A76
  8
0
 10
38.264621536484867
 20
91.482266330126464
 30
0.0
  0
VERTEX
  5
58A77
  8
0
 10
38.212690299942778
 20
91.543481164860921
 30
0.0
  0
VERTEX
  5
58A78
  8
0
 10
38.162307820902761
 20
91.60627910232742
 30
0.0
  0
VERTEX
  5
58A79
  8
0
 10
38.137697052290321
 20
91.638266863442013
 30
0.0
  0
VERTEX
  5
58A7A
  8
0
 10
38.113472811789002
 20
91.670644133251713
 30
0.0
  0
VERTEX
  5
58A7B
  8
0
 10
38.066181666710861
 20
91.736556911809771
 30
0.0
  0
VERTEX
  5
58A7C
  8
0
 10
38.020428362111552
 20
91.803994888770603
 30
0.0
  0
VERTEX
  5
58A7D
  8
0
 10
37.976204393806832
 20
91.872932472944527
 30
0.0
  0
VERTEX
  5
58A7E
  8
0
 10
37.933498748056941
 20
91.943341220497331
 30
0.0
  0
VERTEX
  5
58A7F
  8
0
 10
37.892297904134978
 20
92.015190051651587
 30
0.0
  0
VERTEX
  5
58A80
  8
0
 10
37.872256879308743
 20
92.051644124786364
 30
0.0
  0
VERTEX
  5
58A81
  8
0
 10
37.852585865729623
 20
92.088445494279426
 30
0.0
  0
VERTEX
  5
58A82
  8
0
 10
37.814344218441818
 20
92.163071953887169
 30
0.0
  0
VERTEX
  5
58A83
  8
0
 10
37.777552210337831
 20
92.239032010076897
 30
0.0
  0
VERTEX
  5
58A84
  8
0
 10
37.759692731633038
 20
92.277500000000018
 30
0.0
  0
SEQEND
  5
58A85
  8
0
  0
POLYLINE
  5
5867E
  8
0
 66
     1
 10
0.0
 20
0.0
 30
0.0
  0
VERTEX
  5
58A86
  8
0
 10
26.38217355236014
 20
91.123188921215728
 30
0.0
  0
VERTEX
  5
58A87
  8
0
 10
26.31337524913079
 20
91.068373922530924
 30
0.0
  0
VERTEX
  5
58A88
  8
0
 10
26.17927040849483
 20
90.961854192582194
 30
0.0
  0
VERTEX
  5
58A89
  8
0
 10
26.04998998706558
 20
90.859704719247986
 30
0.0
  0
VERTEX
  5
58A8A
  8
0
 10
25.98722165548514
 20
90.810351091342156
 30
0.0
  0
VERTEX
  5
58A8B
  8
0
 10
25.9257343051097
 20
90.762187933924693
 30
0.0
  0
VERTEX
  5
58A8C
  8
0
 10
25.806700262958032
 20
90.669559693167059
 30
0.0
  0
VERTEX
  5
58A8D
  8
0
 10
25.693080398081811
 20
90.582068973032406
 30
0.0
  0
VERTEX
  5
58A8E
  8
0
 10
25.585062104076538
 20
90.499957698075619
 30
0.0
  0
VERTEX
  5
58A8F
  8
0
 10
25.482827056329992
 20
90.423460761620035
 30
0.0
  0
VERTEX
  5
58A90
  8
0
 10
25.386550791708601
 20
90.352806223382998
 30
0.0
  0
VERTEX
  5
58A91
  8
0
 10
25.34070084706736
 20
90.31973973421475
 30
0.0
  0
VERTEX
  5
58A92
  8
0
 10
25.296404658551442
 20
90.288217288970174
 30
0.0
  0
VERTEX
  5
58A93
  8
0
 10
25.212557175718871
 20
90.229913745237283
 30
0.0
  0
VERTEX
  5
58A94
  8
0
 10
25.135173359038529
 20
90.178111904107368
 30
0.0
  0
VERTEX
  5
58A95
  8
0
 10
25.06441460815935
 20
90.133025028010664
 30
0.0
  0
VERTEX
  5
58A96
  8
0
 10
25.000438835109549
 20
90.094864008751927
 30
0.0
  0
VERTEX
  5
58A97
  8
0
 10
24.963920612046401
 20
90.075000000000003
 30
0.0
  0
SEQEND
  5
58A98
  8
0
  0
LINE
  5
5867F
  8
0
 10
40.261122617479423
 20
90.075000000000003
 30
0.0
 11
40.057660808327157
 21
90.075000000000003
 31
0.0
  0
LINE
  5
58680
  8
0
 10
24.964584426631689
 20
90.075000000000003
 30
0.0
 11
24.76112261747943
 21
90.075000000000003
 31
0.0
  0
LINE
  5
58681
  8
0
 10
24.76112261747943
 20
71.0
 30
0.0
 11
40.261122617479423
 21
71.0
 31
0.0
  0
POLYLINE
  5
58682
  8
0
 66
     1
 10
0.0
 20
0.0
 30
0.0
  0
VERTEX
  5
58A99
  8
0
 10
40.058324622912487
 20
90.075000000000003
 30
0.0
  0
VERTEX
  5
58A9A
  8
0
 10
40.021806399849297
 20
90.094864008751927
 30
0.0
  0
VERTEX
  5
58A9B
  8
0
 10
39.957830626799527
 20
90.133025028010664
 30
0.0
  0
VERTEX
  5
58A9C
  8
0
 10
39.887071875920299
 20
90.178111904107368
 30
0.0
  0
VERTEX
  5
58A9D
  8
0
 10
39.809688059239988
 20
90.229913745237297
 30
0.0
  0
VERTEX
  5
58A9E
  8
0
 10
39.725840576407393
 20
90.288217288970174
 30
0.0
  0
VERTEX
  5
58A9F
  8
0
 10
39.681544387891513
 20
90.31973973421475
 30
0.0
  0
VERTEX
  5
58AA0
  8
0
 10
39.635694443250259
 20
90.352806223382998
 30
0.0
  0
VERTEX
  5
58AA1
  8
0
 10
39.539418178628871
 20
90.423460761620035
 30
0.0
  0
VERTEX
  5
58AA2
  8
0
 10
39.437183130882261
 20
90.499957698075619
 30
0.0
  0
VERTEX
  5
58AA3
  8
0
 10
39.329164836877048
 20
90.582068973032406
 30
0.0
  0
VERTEX
  5
58AA4
  8
0
 10
39.215544972000828
 20
90.669559693167059
 30
0.0
  0
VERTEX
  5
58AA5
  8
0
 10
39.09651092984916
 20
90.762187933924693
 30
0.0
  0
VERTEX
  5
58AA6
  8
0
 10
39.035023579473723
 20
90.810351091342156
 30
0.0
  0
VERTEX
  5
58AA7
  8
0
 10
38.972255247893322
 20
90.859704719247986
 30
0.0
  0
VERTEX
  5
58AA8
  8
0
 10
38.842974826464058
 20
90.961854192582194
 30
0.0
  0
VERTEX
  5
58AA9
  8
0
 10
38.708869985828017
 20
91.068373922530924
 30
0.0
  0
VERTEX
  5
58AAA
  8
0
 10
38.640071682598723
 20
91.123188921215728
 30
0.0
  0
SEQEND
  5
58AAB
  8
0
  0
POLYLINE
  5
58683
  8
0
 66
     1
 10
0.0
 20
0.0
 30
0.0
  0
VERTEX
  5
58AAC
  8
0
 10
162.92546399791539
 20
90.075000000000017
 30
0.0
  0
VERTEX
  5
58AAD
  8
0
 10
162.9619822209786
 20
90.094864008751955
 30
0.0
  0
VERTEX
  5
58AAE
  8
0
 10
163.02595799402829
 20
90.133025028010664
 30
0.0
  0
VERTEX
  5
58AAF
  8
0
 10
163.09671674490761
 20
90.178111904107368
 30
0.0
  0
VERTEX
  5
58AB0
  8
0
 10
163.17410056158789
 20
90.229913745237326
 30
0.0
  0
VERTEX
  5
58AB1
  8
0
 10
163.25794804442049
 20
90.288217288970188
 30
0.0
  0
VERTEX
  5
58AB2
  8
0
 10
163.3022442329364
 20
90.319739734214764
 30
0.0
  0
VERTEX
  5
58AB3
  8
0
 10
163.34809417757759
 20
90.352806223383013
 30
0.0
  0
VERTEX
  5
58AB4
  8
0
 10
163.44437044219899
 20
90.423460761620035
 30
0.0
  0
VERTEX
  5
58AB5
  8
0
 10
163.54660548994559
 20
90.499957698075633
 30
0.0
  0
VERTEX
  5
58AB6
  8
0
 10
163.6546237839508
 20
90.582068973032435
 30
0.0
  0
VERTEX
  5
58AB7
  8
0
 10
163.76824364882711
 20
90.669559693167059
 30
0.0
  0
VERTEX
  5
58AB8
  8
0
 10
163.88727769097869
 20
90.762187933924722
 30
0.0
  0
VERTEX
  5
58AB9
  8
0
 10
163.94876504135419
 20
90.810351091342184
 30
0.0
  0
VERTEX
  5
58ABA
  8
0
 10
164.01153337293459
 20
90.859704719248015
 30
0.0
  0
VERTEX
  5
58ABB
  8
0
 10
164.14081379436379
 20
90.961854192582209
 30
0.0
  0
VERTEX
  5
58ABC
  8
0
 10
164.27491863499989
 20
91.068373922530938
 30
0.0
  0
VERTEX
  5
58ABD
  8
0
 10
164.34371693822919
 20
91.123188921215743
 30
0.0
  0
SEQEND
  5
58ABE
  8
0
  0
LINE
  5
58684
  8
0
 10
178.22266600334851
 20
71.000000000000014
 30
0.0
 11
162.72266600334851
 21
71.000000000000014
 31
0.0
  0
LINE
  5
58685
  8
0
 10
178.01920419419619
 20
90.075000000000017
 30
0.0
 11
178.22266600334851
 21
90.075000000000017
 31
0.0
  0
LINE
  5
58686
  8
0
 10
162.72266600334851
 20
90.075000000000017
 30
0.0
 11
162.92612781250071
 21
90.075000000000017
 31
0.0
  0
POLYLINE
  5
58687
  8
0
 66
     1
 10
0.0
 20
0.0
 30
0.0
  0
VERTEX
  5
58ABF
  8
0
 10
176.60161506846771
 20
91.123188921215743
 30
0.0
  0
VERTEX
  5
58AC0
  8
0
 10
176.67041337169709
 20
91.068373922530938
 30
0.0
  0
VERTEX
  5
58AC1
  8
0
 10
176.80451821233311
 20
90.961854192582209
 30
0.0
  0
VERTEX
  5
58AC2
  8
0
 10
176.93379863376239
 20
90.859704719248015
 30
0.0
  0
VERTEX
  5
58AC3
  8
0
 10
176.99656696534271
 20
90.810351091342184
 30
0.0
  0
VERTEX
  5
58AC4
  8
0
 10
177.05805431571821
 20
90.762187933924722
 30
0.0
  0
VERTEX
  5
58AC5
  8
0
 10
177.17708835786979
 20
90.669559693167059
 30
0.0
  0
VERTEX
  5
58AC6
  8
0
 10
177.2907082227461
 20
90.582068973032435
 30
0.0
  0
VERTEX
  5
58AC7
  8
0
 10
177.39872651675131
 20
90.499957698075633
 30
0.0
  0
VERTEX
  5
58AC8
  8
0
 10
177.50096156449791
 20
90.423460761620035
 30
0.0
  0
VERTEX
  5
58AC9
  8
0
 10
177.59723782911931
 20
90.352806223383013
 30
0.0
  0
VERTEX
  5
58ACA
  8
0
 10
177.6430877737605
 20
90.319739734214764
 30
0.0
  0
VERTEX
  5
58ACB
  8
0
 10
177.68738396227641
 20
90.288217288970188
 30
0.0
  0
VERTEX
  5
58ACC
  8
0
 10
177.77123144510901
 20
90.229913745237297
 30
0.0
  0
VERTEX
  5
58ACD
  8
0
 10
177.84861526178929
 20
90.178111904107368
 30
0.0
  0
VERTEX
  5
58ACE
  8
0
 10
177.91937401266861
 20
90.133025028010664
 30
0.0
  0
VERTEX
  5
58ACF
  8
0
 10
177.9833497857183
 20
90.094864008751955
 30
0.0
  0
VERTEX
  5
58AD0
  8
0
 10
178.01986800878149
 20
90.075000000000017
 30
0.0
  0
SEQEND
  5
58AD1
  8
0
  0
POLYLINE
  5
58688
  8
0
 66
     1
 10
0.0
 20
0.0
 30
0.0
  0
VERTEX
  5
58AD2
  8
0
 10
164.34371693822919
 20
91.123188921215743
 30
0.0
  0
VERTEX
  5
58AD3
  8
0
 10
164.3749228136829
 20
91.148424465157674
 30
0.0
  0
VERTEX
  5
58AD4
  8
0
 10
164.4361857870924
 20
91.200089814682201
 30
0.0
  0
VERTEX
  5
58AD5
  8
0
 10
164.4959044730752
 20
91.253347778820981
 30
0.0
  0
VERTEX
  5
58AD6
  8
0
 10
164.52518062841699
 20
91.280573406469316
 30
0.0
  0
VERTEX
  5
58AD7
  8
0
 10
164.55406617075249
 20
91.308196127675771
 30
0.0
  0
VERTEX
  5
58AD8
  8
0
 10
164.6106610566423
 20
91.364629797179589
 30
0.0
  0
VERTEX
  5
58AD9
  8
0
 10
164.6656879831738
 20
91.422647166392153
 30
0.0
  0
VERTEX
  5
58ADA
  8
0
 10
164.71916708434301
 20
91.482266330126464
 30
0.0
  0
VERTEX
  5
58ADB
  8
0
 10
164.7710983208851
 20
91.543481164860935
 30
0.0
  0
VERTEX
  5
58ADC
  8
0
 10
164.8214807999251
 20
91.606279102327434
 30
0.0
  0
VERTEX
  5
58ADD
  8
0
 10
164.84609156853759
 20
91.638266863442027
 30
0.0
  0
VERTEX
  5
58ADE
  8
0
 10
164.87031580903891
 20
91.670644133251727
 30
0.0
  0
VERTEX
  5
58ADF
  8
0
 10
164.91760695411699
 20
91.736556911809785
 30
0.0
  0
VERTEX
  5
58AE0
  8
0
 10
164.96336025871631
 20
91.803994888770617
 30
0.0
  0
VERTEX
  5
58AE1
  8
0
 10
165.00758422702111
 20
91.872932472944555
 30
0.0
  0
VERTEX
  5
58AE2
  8
0
 10
165.05028987277089
 20
91.943341220497345
 30
0.0
  0
VERTEX
  5
58AE3
  8
0
 10
165.0914907166929
 20
92.015190051651601
 30
0.0
  0
VERTEX
  5
58AE4
  8
0
 10
165.11153174151909
 20
92.051644124786364
 30
0.0
  0
VERTEX
  5
58AE5
  8
0
 10
165.13120275509829
 20
92.088445494279441
 30
0.0
  0
VERTEX
  5
58AE6
  8
0
 10
165.16944440238609
 20
92.163071953887183
 30
0.0
  0
VERTEX
  5
58AE7
  8
0
 10
165.20623641048999
 20
92.239032010076926
 30
0.0
  0
VERTEX
  5
58AE8
  8
0
 10
165.22409588919481
 20
92.277500000000032
 30
0.0
  0
SEQEND
  5
58AE9
  8
0
  0
POLYLINE
  5
58689
  8
0
 66
     1
 10
0.0
 20
0.0
 30
0.0
  0
VERTEX
  5
58AEA
  8
0
 10
165.22409588919481
 20
92.277500000000046
 30
0.0
  0
VERTEX
  5
58AEB
  8
0
 10
165.2651362415312
 20
92.279766733374828
 30
0.0
  0
VERTEX
  5
58AEC
  8
0
 10
165.34392129302319
 20
92.284581129689101
 30
0.0
  0
VERTEX
  5
58AED
  8
0
 10
165.41824352314691
 20
92.289775049550016
 30
0.0
  0
VERTEX
  5
58AEE
  8
0
 10
165.4537143892193
 20
92.292516412218646
 30
0.0
  0
VERTEX
  5
58AEF
  8
0
 10
165.48804747791851
 20
92.295354819897227
 30
0.0
  0
VERTEX
  5
58AF0
  8
0
 10
165.55326672458779
 20
92.301324223231774
 30
0.0
  0
VERTEX
  5
58AF1
  8
0
 10
165.61384047551979
 20
92.307685147682093
 30
0.0
  0
VERTEX
  5
58AF2
  8
0
 10
165.6697187473703
 20
92.31443782401719
 30
0.0
  0
VERTEX
  5
58AF3
  8
0
 10
165.72086301889669
 20
92.321580799415457
 30
0.0
  0
VERTEX
  5
58AF4
  8
0
 10
165.7672467228918
 20
92.32911093250523
 30
0.0
  0
VERTEX
  5
58AF5
  8
0
 10
165.78864841256791
 20
92.333019743668004
 30
0.0
  0
VERTEX
  5
58AF6
  8
0
 10
165.8088555741773
 20
92.337023411092588
 30
0.0
  0
VERTEX
  5
58AF7
  8
0
 10
165.84568773028349
 20
92.345311793134414
 30
0.0
  0
VERTEX
  5
58AF8
  8
0
 10
165.8777535063056
 20
92.353967988839784
 30
0.0
  0
VERTEX
  5
58AF9
  8
0
 10
165.9050746228034
 20
92.362982039666747
 30
0.0
  0
VERTEX
  5
58AFA
  8
0
 10
165.9276845703574
 20
92.372342043354493
 30
0.0
  0
VERTEX
  5
58AFB
  8
0
 10
165.9456292767257
 20
92.382034189124937
 30
0.0
  0
VERTEX
  5
58AFC
  8
0
 10
165.9528700397598
 20
92.386999991843638
 30
0.0
  0
VERTEX
  5
58AFD
  8
0
 10
165.95896758715901
 20
92.392042817669065
 30
0.0
  0
VERTEX
  5
58AFE
  8
0
 10
165.96777155671401
 20
92.402350504665606
 30
0.0
  0
VERTEX
  5
58AFF
  8
0
 10
165.9721265587074
 20
92.412938168108354
 30
0.0
  0
VERTEX
  5
58B00
  8
0
 10
165.97266600334839
 20
92.418330606450169
 30
0.0
  0
SEQEND
  5
58B01
  8
0
  0
LINE
  5
5868A
  8
0
 10
165.97266600334839
 20
93.378378378378358
 30
0.0
 11
165.97266600334839
 21
90.193111099346083
 31
0.0
  0
POLYLINE
  5
5868B
  8
0
 66
     1
 10
0.0
 20
0.0
 30
0.0
  0
VERTEX
  5
58B02
  8
0
 10
174.97266600334851
 20
92.418330606450183
 30
0.0
  0
VERTEX
  5
58B03
  8
0
 10
174.9732054479895
 20
92.412938168108354
 30
0.0
  0
VERTEX
  5
58B04
  8
0
 10
174.97756044998289
 20
92.402350504665606
 30
0.0
  0
VERTEX
  5
58B05
  8
0
 10
174.98636441953789
 20
92.392042817669065
 30
0.0
  0
VERTEX
  5
58B06
  8
0
 10
174.99246196693721
 20
92.386999991843638
 30
0.0
  0
VERTEX
  5
58B07
  8
0
 10
174.99970272997129
 20
92.382034189124937
 30
0.0
  0
VERTEX
  5
58B08
  8
0
 10
175.01764743633959
 20
92.372342043354493
 30
0.0
  0
VERTEX
  5
58B09
  8
0
 10
175.0402573838935
 20
92.362982039666747
 30
0.0
  0
VERTEX
  5
58B0A
  8
0
 10
175.06757850039131
 20
92.353967988839784
 30
0.0
  0
VERTEX
  5
58B0B
  8
0
 10
175.09964427641339
 20
92.345311793134414
 30
0.0
  0
VERTEX
  5
58B0C
  8
0
 10
175.1364764325196
 20
92.337023411092588
 30
0.0
  0
VERTEX
  5
58B0D
  8
0
 10
175.15668359412899
 20
92.333019743668004
 30
0.0
  0
VERTEX
  5
58B0E
  8
0
 10
175.1780852838051
 20
92.32911093250523
 30
0.0
  0
VERTEX
  5
58B0F
  8
0
 10
175.22446898780021
 20
92.321580799415457
 30
0.0
  0
VERTEX
  5
58B10
  8
0
 10
175.2756132593266
 20
92.31443782401719
 30
0.0
  0
VERTEX
  5
58B11
  8
0
 10
175.33149153117711
 20
92.307685147682093
 30
0.0
  0
VERTEX
  5
58B12
  8
0
 10
175.39206528210909
 20
92.301324223231774
 30
0.0
  0
VERTEX
  5
58B13
  8
0
 10
175.45728452877839
 20
92.295354819897227
 30
0.0
  0
VERTEX
  5
58B14
  8
0
 10
175.4916176174776
 20
92.292516412218646
 30
0.0
  0
VERTEX
  5
58B15
  8
0
 10
175.5270884835501
 20
92.289775049550016
 30
0.0
  0
VERTEX
  5
58B16
  8
0
 10
175.60141071367369
 20
92.284581129689073
 30
0.0
  0
VERTEX
  5
58B17
  8
0
 10
175.68019576516571
 20
92.279766733374828
 30
0.0
  0
VERTEX
  5
58B18
  8
0
 10
175.72123611750209
 20
92.277500000000046
 30
0.0
  0
SEQEND
  5
58B19
  8
0
  0
POLYLINE
  5
5868C
  8
0
 66
     1
 10
0.0
 20
0.0
 30
0.0
  0
VERTEX
  5
58B1A
  8
0
 10
175.72123611750209
 20
92.277500000000032
 30
0.0
  0
VERTEX
  5
58B1B
  8
0
 10
175.73909559620421
 20
92.239032010082454
 30
0.0
  0
VERTEX
  5
58B1C
  8
0
 10
175.77588760430811
 20
92.163071953892526
 30
0.0
  0
VERTEX
  5
58B1D
  8
0
 10
175.814129251596
 20
92.088445494284386
 30
0.0
  0
VERTEX
  5
58B1E
  8
0
 10
175.8338002651752
 20
92.051644124791096
 30
0.0
  0
VERTEX
  5
58B1F
  8
0
 10
175.8538412900015
 20
92.015190051656134
 30
0.0
  0
VERTEX
  5
58B20
  8
0
 10
175.89504213392351
 20
91.943341220501495
 30
0.0
  0
VERTEX
  5
58B21
  8
0
 10
175.93774777967349
 20
91.872932472948321
 30
0.0
  0
VERTEX
  5
58B22
  8
0
 10
175.98197174797829
 20
91.803994888774
 30
0.0
  0
VERTEX
  5
58B23
  8
0
 10
176.02772505257769
 20
91.736556911812812
 30
0.0
  0
VERTEX
  5
58B24
  8
0
 10
176.075016197656
 20
91.670644133254385
 30
0.0
  0
VERTEX
  5
58B25
  8
0
 10
176.09924043815741
 20
91.638266863444528
 30
0.0
  0
VERTEX
  5
58B26
  8
0
 10
176.12385120677001
 20
91.606279102329765
 30
0.0
  0
VERTEX
  5
58B27
  8
0
 10
176.17423368581021
 20
91.543481164862939
 30
0.0
  0
VERTEX
  5
58B28
  8
0
 10
176.22616492235241
 20
91.482266330128184
 30
0.0
  0
VERTEX
  5
58B29
  8
0
 10
176.2796440235218
 20
91.42264716639356
 30
0.0
  0
VERTEX
  5
58B2A
  8
0
 10
176.33467095005349
 20
91.364629797180697
 30
0.0
  0
VERTEX
  5
58B2B
  8
0
 10
176.3912658359435
 20
91.308196127676609
 30
0.0
  0
VERTEX
  5
58B2C
  8
0
 10
176.4201513782792
 20
91.280573406470026
 30
0.0
  0
VERTEX
  5
58B2D
  8
0
 10
176.44942753362099
 20
91.253347778821563
 30
0.0
  0
VERTEX
  5
58B2E
  8
0
 10
176.50914621960419
 20
91.200089814682542
 30
0.0
  0
VERTEX
  5
58B2F
  8
0
 10
176.5704091930138
 20
91.148424465157774
 30
0.0
  0
VERTEX
  5
58B30
  8
0
 10
176.60161506846771
 20
91.123188921215743
 30
0.0
  0
SEQEND
  5
58B31
  8
0
  0
LINE
  5
5868D
  8
0
 10
174.97266600334851
 20
93.378378378378358
 30
0.0
 11
174.97266600334851
 21
90.193111099346083
 31
0.0
  0
LINE
  5
5868E
  8
1
 10
170.47266600334839
 20
100.0
 30
0.0
 11
170.47266600334839
 21
30.00000000000006
 31
0.0
  0
LINE
  5
5868F
  8
0
 10
178.22266600334851
 20
71.000000000000014
 30
0.0
 11
178.22266600334851
 21
90.075000000000017
 31
0.0
  0
LINE
  5
58690
  8
0
 10
162.72266600334851
 20
90.075000000000017
 30
0.0
 11
162.72266600334851
 21
71.000000000000014
 31
0.0
  0
LINE
  5
58691
  8
0
 10
104.991894310414
 20
65.200000000000045
 30
0.0
 11
104.991894310414
 21
65.000000000000028
 31
0.0
  0
LINE
  5
58692
  8
0
 10
97.991894310413954
 20
65.200000000000045
 30
0.0
 11
97.991894310413954
 21
65.000000000000028
 31
0.0
  0
LINE
  5
58693
  8
0
 10
97.991894310413954
 20
65.000000000000028
 30
0.0
 11
104.991894310414
 21
65.000000000000028
 31
0.0
  0
LINE
  5
58694
  8
0
 10
107.4918943104139
 20
71.000000000000028
 30
0.0
 11
107.4918943104139
 21
65.700000000000159
 31
0.0
  0
LINE
  5
58695
  8
0
 10
106.991894310414
 20
65.200000000000045
 30
0.0
 11
107.4918943104139
 21
65.700000000000159
 31
0.0
  0
LINE
  5
58696
  8
0
 10
95.491894310413954
 20
71.000000000000028
 30
0.0
 11
95.491894310413954
 21
65.700000000000159
 31
0.0
  0
LINE
  5
58697
  8
0
 10
95.991894310413898
 20
65.200000000000045
 30
0.0
 11
106.991894310414
 21
65.200000000000045
 31
0.0
  0
LINE
  5
58698
  8
0
 10
95.991894310413898
 20
65.200000000000045
 30
0.0
 11
95.491894310413954
 21
65.700000000000159
 31
0.0
  0
LINE
  5
58699
  8
0
 10
107.4918943104139
 20
70.200000000000045
 30
0.0
 11
95.491894310413954
 21
70.200000000000045
 31
0.0
  0
POLYLINE
  5
5869A
  8
0
 66
     1
 10
0.0
 20
0.0
 30
0.0
  0
VERTEX
  5
58B32
  8
0
 10
103.29733048576909
 20
90.075000000000045
 30
0.0
  0
VERTEX
  5
58B33
  8
0
 10
103.3180525555245
 20
90.07736805139055
 30
0.0
  0
VERTEX
  5
58B34
  8
0
 10
103.56032759717171
 20
90.113246644747406
 30
0.0
  0
VERTEX
  5
58B35
  8
0
 10
103.7992755675909
 20
90.156723020704561
 30
0.0
  0
VERTEX
  5
58B36
  8
0
 10
104.0347134718757
 20
90.207561112763301
 30
0.0
  0
VERTEX
  5
58B37
  8
0
 10
104.2664594016081
 20
90.265522555277457
 30
0.0
  0
VERTEX
  5
58B38
  8
0
 10
104.3808916895894
 20
90.297099170246497
 30
0.0
  0
VERTEX
  5
58B39
  8
0
 10
104.4943340164811
 20
90.330365716906059
 30
0.0
  0
VERTEX
  5
58B3A
  8
0
 10
104.7181620882818
 20
90.401845064791345
 30
0.0
  0
VERTEX
  5
58B3B
  8
0
 10
104.9377744498389
 20
90.479710991007536
 30
0.0
  0
VERTEX
  5
58B3C
  8
0
 10
105.1530075975556
 20
90.563709075495723
 30
0.0
  0
VERTEX
  5
58B3D
  8
0
 10
105.3636988094418
 20
90.653577240611057
 30
0.0
  0
VERTEX
  5
58B3E
  8
0
 10
105.56968842664359
 20
90.749045225909271
 30
0.0
  0
VERTEX
  5
58B3F
  8
0
 10
105.670871674994
 20
90.798792435991857
 30
0.0
  0
VERTEX
  5
58B40
  8
0
 10
105.7708222343111
 20
90.849834522714332
 30
0.0
  0
VERTEX
  5
58B41
  8
0
 10
105.9669534796073
 20
90.955658548584921
 30
0.0
  0
VERTEX
  5
58B42
  8
0
 10
106.1579445577985
 20
91.066223001374496
 30
0.0
  0
VERTEX
  5
58B43
  8
0
 10
106.25147237545011
 20
91.123188921215757
 30
0.0
  0
SEQEND
  5
58B44
  8
0
  0
ARC
  5
5869B
  8
0
 10
126.741894310414
 20
138.86425929588779
 30
0.0
 40
4.4999999999999538
 50
270.0
 51
90.0
  0
ARC
  5
5869C
  8
0
 10
101.4918943104139
 20
138.86425929588779
 30
0.0
 40
7.7499999999999982
 50
85.88286395676748
 51
274.1171360432316
  0
CIRCLE
  5
5869D
  8
0
 10
101.4918943104139
 20
138.86425929588779
 30
0.0
 40
3.8749999999999991
  0
LINE
  5
5869E
  8
0
 10
102.1735833891002
 20
131.1342592958878
 30
0.0
 11
102.0483114201437
 21
131.1342592958878
 31
0.0
  0
LINE
  5
5869F
  8
0
 10
102.1735833891001
 20
146.59425929588781
 30
0.0
 11
102.0483114201437
 21
146.59425929588781
 31
0.0
  0
POLYLINE
  5
586A0
  8
0
 66
     1
 10
0.0
 20
0.0
 30
0.0
  0
VERTEX
  5
58B45
  8
0
 10
106.25147237545011
 20
144.99320836100711
 30
0.0
  0
VERTEX
  5
58B46
  8
0
 10
106.1579445577985
 20
145.06470888352919
 30
0.0
  0
VERTEX
  5
58B47
  8
0
 10
105.9669534796073
 20
145.20393164011969
 30
0.0
  0
VERTEX
  5
58B48
  8
0
 10
105.7708222343111
 20
145.3379271760075
 30
0.0
  0
VERTEX
  5
58B49
  8
0
 10
105.670871674994
 20
145.4028943358887
 30
0.0
  0
VERTEX
  5
58B4A
  8
0
 10
105.56968842664359
 20
145.4664706788748
 30
0.0
  0
VERTEX
  5
58B4B
  8
0
 10
105.3636988094418
 20
145.58934144566911
 30
0.0
  0
VERTEX
  5
58B4C
  8
0
 10
105.1530075975556
 20
145.70632400609881
 30
0.0
  0
VERTEX
  5
58B4D
  8
0
 10
104.9377744498389
 20
145.8172090342878
 30
0.0
  0
VERTEX
  5
58B4E
  8
0
 10
104.7181620882818
 20
145.92179400890839
 30
0.0
  0
VERTEX
  5
58B4F
  8
0
 10
104.49433401648101
 20
146.01988336450901
 30
0.0
  0
VERTEX
  5
58B50
  8
0
 10
104.3808916895893
 20
146.0664321723965
 30
0.0
  0
VERTEX
  5
58B51
  8
0
 10
104.2664594016081
 20
146.11128548286459
 30
0.0
  0
VERTEX
  5
58B52
  8
0
 10
104.0347134718757
 20
146.19581238592971
 30
0.0
  0
VERTEX
  5
58B53
  8
0
 10
103.7992755675908
 20
146.27328026589649
 30
0.0
  0
VERTEX
  5
58B54
  8
0
 10
103.56032759717159
 20
146.34350950819069
 30
0.0
  0
VERTEX
  5
58B55
  8
0
 10
103.3180525555244
 20
146.40632440193241
 30
0.0
  0
VERTEX
  5
58B56
  8
0
 10
103.0726332276255
 20
146.46155252937649
 30
0.0
  0
VERTEX
  5
58B57
  8
0
 10
102.9488012711393
 20
146.4862683556955
 30
0.0
  0
VERTEX
  5
58B58
  8
0
 10
102.8236312391455
 20
146.50913187511711
 30
0.0
  0
VERTEX
  5
58B59
  8
0
 10
102.5678810452531
 20
146.5493001250864
 30
0.0
  0
VERTEX
  5
58B5A
  8
0
 10
102.3061821440406
 20
146.58141779652831
 30
0.0
  0
VERTEX
  5
58B5B
  8
0
 10
102.1735833891001
 20
146.59425929588781
 30
0.0
  0
SEQEND
  5
58B5C
  8
0
  0
POLYLINE
  5
586A1
  8
0
 66
     1
 10
0.0
 20
0.0
 30
0.0
  0
VERTEX
  5
58B5D
  8
0
 10
102.1735833891002
 20
131.1342592958878
 30
0.0
  0
VERTEX
  5
58B5E
  8
0
 10
102.3061821440406
 20
131.1471007952473
 30
0.0
  0
VERTEX
  5
58B5F
  8
0
 10
102.5678810452531
 20
131.17921846668921
 30
0.0
  0
VERTEX
  5
58B60
  8
0
 10
102.8236312391456
 20
131.21938671665839
 30
0.0
  0
VERTEX
  5
58B61
  8
0
 10
102.9488012711393
 20
131.24225023608011
 30
0.0
  0
VERTEX
  5
58B62
  8
0
 10
103.0726332276255
 20
131.26696606239909
 30
0.0
  0
VERTEX
  5
58B63
  8
0
 10
103.3180525555245
 20
131.3221941898432
 30
0.0
  0
VERTEX
  5
58B64
  8
0
 10
103.56032759717159
 20
131.38500908358489
 30
0.0
  0
VERTEX
  5
58B65
  8
0
 10
103.7992755675908
 20
131.45523832587909
 30
0.0
  0
VERTEX
  5
58B66
  8
0
 10
104.0347134718757
 20
131.5327062058459
 30
0.0
  0
VERTEX
  5
58B67
  8
0
 10
104.2664594016081
 20
131.61723310891099
 30
0.0
  0
VERTEX
  5
58B68
  8
0
 10
104.3808916895893
 20
131.66208641937911
 30
0.0
  0
VERTEX
  5
58B69
  8
0
 10
104.4943340164811
 20
131.70863522726651
 30
0.0
  0
VERTEX
  5
58B6A
  8
0
 10
104.7181620882818
 20
131.80672458286719
 30
0.0
  0
VERTEX
  5
58B6B
  8
0
 10
104.9377744498389
 20
131.91130955748781
 30
0.0
  0
VERTEX
  5
58B6C
  8
0
 10
105.1530075975556
 20
132.02219458567669
 30
0.0
  0
VERTEX
  5
58B6D
  8
0
 10
105.3636988094418
 20
132.1391771461065
 30
0.0
  0
VERTEX
  5
58B6E
  8
0
 10
105.56968842664359
 20
132.26204791290081
 30
0.0
  0
VERTEX
  5
58B6F
  8
0
 10
105.670871674994
 20
132.32562425588679
 30
0.0
  0
VERTEX
  5
58B70
  8
0
 10
105.7708222343111
 20
132.39059141576811
 30
0.0
  0
VERTEX
  5
58B71
  8
0
 10
105.9669534796073
 20
132.52458695165589
 30
0.0
  0
VERTEX
  5
58B72
  8
0
 10
106.1579445577985
 20
132.66380970824639
 30
0.0
  0
VERTEX
  5
58B73
  8
0
 10
106.25147237545011
 20
132.7353102307685
 30
0.0
  0
SEQEND
  5
58B74
  8
0
  0
POLYLINE
  5
586A2
  8
0
 66
     1
 10
0.0
 20
0.0
 30
0.0
  0
VERTEX
  5
58B75
  8
0
 10
106.25147237545011
 20
132.7353102307685
 30
0.0
  0
VERTEX
  5
58B76
  8
0
 10
106.2919310587082
 20
132.76651610622221
 30
0.0
  0
VERTEX
  5
58B77
  8
0
 10
106.3729981498643
 20
132.82777907963171
 30
0.0
  0
VERTEX
  5
58B78
  8
0
 10
106.4542050300719
 20
132.88749776561451
 30
0.0
  0
VERTEX
  5
58B79
  8
0
 10
106.4948383167455
 20
132.9167739209563
 30
0.0
  0
VERTEX
  5
58B7A
  8
0
 10
106.5354794240195
 20
132.9456594632918
 30
0.0
  0
VERTEX
  5
58B7B
  8
0
 10
106.6167488721173
 20
133.0022543491817
 30
0.0
  0
VERTEX
  5
58B7C
  8
0
 10
106.69794961202859
 20
133.05728127571311
 30
0.0
  0
VERTEX
  5
58B7D
  8
0
 10
106.779047383898
 20
133.1107603768823
 30
0.0
  0
VERTEX
  5
58B7E
  8
0
 10
106.8599761699752
 20
133.16269161342441
 30
0.0
  0
VERTEX
  5
58B7F
  8
0
 10
106.940665091423
 20
133.2130740924645
 30
0.0
  0
VERTEX
  5
58B80
  8
0
 10
106.98089735847719
 20
133.2376848610769
 30
0.0
  0
VERTEX
  5
58B81
  8
0
 10
107.0210429619633
 20
133.26190910157831
 30
0.0
  0
VERTEX
  5
58B82
  8
0
 10
107.10103867839
 20
133.30920024665639
 30
0.0
  0
VERTEX
  5
58B83
  8
0
 10
107.1805816023035
 20
133.3549535512557
 30
0.0
  0
VERTEX
  5
58B84
  8
0
 10
107.2596019303768
 20
133.3991775195604
 30
0.0
  0
VERTEX
  5
58B85
  8
0
 10
107.33803105077099
 20
133.44188316531029
 30
0.0
  0
VERTEX
  5
58B86
  8
0
 10
107.41580188361711
 20
133.48308400923219
 30
0.0
  0
VERTEX
  5
58B87
  8
0
 10
107.4544199784626
 20
133.50312503405851
 30
0.0
  0
VERTEX
  5
58B88
  8
0
 10
107.49284920375641
 20
133.5227960476376
 30
0.0
  0
VERTEX
  5
58B89
  8
0
 10
107.569109944183
 20
133.5610376949254
 30
0.0
  0
VERTEX
  5
58B8A
  8
0
 10
107.64452347942181
 20
133.59782970302939
 30
0.0
  0
VERTEX
  5
58B8B
  8
0
 10
107.6818943104139
 20
133.61568918173421
 30
0.0
  0
SEQEND
  5
58B8C
  8
0
  0
POLYLINE
  5
586A3
  8
0
 66
     1
 10
0.0
 20
0.0
 30
0.0
  0
VERTEX
  5
58B8D
  8
0
 10
107.6818943104139
 20
133.61568918173421
 30
0.0
  0
VERTEX
  5
58B8E
  8
0
 10
107.7697797262759
 20
133.65672953407051
 30
0.0
  0
VERTEX
  5
58B8F
  8
0
 10
107.94710351289881
 20
133.73551458556261
 30
0.0
  0
VERTEX
  5
58B90
  8
0
 10
108.126347152638
 20
133.8098368156862
 30
0.0
  0
VERTEX
  5
58B91
  8
0
 10
108.2166488198944
 20
133.8453076817587
 30
0.0
  0
VERTEX
  5
58B92
  8
0
 10
108.307375114252
 20
133.8796407704578
 30
0.0
  0
VERTEX
  5
58B93
  8
0
 10
108.4900028366817
 20
133.9448600171271
 30
0.0
  0
VERTEX
  5
58B94
  8
0
 10
108.6740287376377
 20
134.00543376805919
 30
0.0
  0
VERTEX
  5
58B95
  8
0
 10
108.85924564026941
 20
134.06131203990969
 30
0.0
  0
VERTEX
  5
58B96
  8
0
 10
109.04544215742639
 20
134.11245631143609
 30
0.0
  0
VERTEX
  5
58B97
  8
0
 10
109.2324041240695
 20
134.1588400154312
 30
0.0
  0
VERTEX
  5
58B98
  8
0
 10
109.3261048289683
 20
134.18024170510731
 30
0.0
  0
VERTEX
  5
58B99
  8
0
 10
109.4199160817538
 20
134.20044886671661
 30
0.0
  0
VERTEX
  5
58B9A
  8
0
 10
109.607762802213
 20
134.2372810228228
 30
0.0
  0
VERTEX
  5
58B9B
  8
0
 10
109.7957290865218
 20
134.26934679884499
 30
0.0
  0
VERTEX
  5
58B9C
  8
0
 10
109.983595366977
 20
134.29666791534271
 30
0.0
  0
VERTEX
  5
58B9D
  8
0
 10
110.1711370873434
 20
134.31927786289671
 30
0.0
  0
VERTEX
  5
58B9E
  8
0
 10
110.35812621067581
 20
134.33722256926501
 30
0.0
  0
VERTEX
  5
58B9F
  8
0
 10
110.4513417153704
 20
134.34446333229911
 30
0.0
  0
VERTEX
  5
58BA0
  8
0
 10
110.5443327646401
 20
134.35056087969841
 30
0.0
  0
VERTEX
  5
58BA1
  8
0
 10
110.7295263914525
 20
134.3593648492533
 30
0.0
  0
VERTEX
  5
58BA2
  8
0
 10
110.91347790774461
 20
134.3637198512468
 30
0.0
  0
VERTEX
  5
58BA3
  8
0
 10
111.0049169635984
 20
134.36425929588779
 30
0.0
  0
SEQEND
  5
58BA4
  8
0
  0
LINE
  5
586A4
  8
0
 10
111.0049169635984
 20
134.36425929588779
 30
0.0
 11
126.7418943103936
 21
134.36425929588779
 31
0.0
  0
POLYLINE
  5
586A5
  8
0
 66
     1
 10
0.0
 20
0.0
 30
0.0
  0
VERTEX
  5
58BA5
  8
0
 10
111.0049169635984
 20
143.36425929588779
 30
0.0
  0
VERTEX
  5
58BA6
  8
0
 10
110.91347790774461
 20
143.36479874052881
 30
0.0
  0
VERTEX
  5
58BA7
  8
0
 10
110.7295263914525
 20
143.36915374252229
 30
0.0
  0
VERTEX
  5
58BA8
  8
0
 10
110.5443327646401
 20
143.3779577120772
 30
0.0
  0
VERTEX
  5
58BA9
  8
0
 10
110.4513417153705
 20
143.3840552594765
 30
0.0
  0
VERTEX
  5
58BAA
  8
0
 10
110.35812621067591
 20
143.39129602251049
 30
0.0
  0
VERTEX
  5
58BAB
  8
0
 10
110.1711370873434
 20
143.4092407288789
 30
0.0
  0
VERTEX
  5
58BAC
  8
0
 10
109.983595366977
 20
143.4318506764329
 30
0.0
  0
VERTEX
  5
58BAD
  8
0
 10
109.7957290865218
 20
143.45917179293059
 30
0.0
  0
VERTEX
  5
58BAE
  8
0
 10
109.607762802213
 20
143.49123756895281
 30
0.0
  0
VERTEX
  5
58BAF
  8
0
 10
109.4199160817538
 20
143.528069725059
 30
0.0
  0
VERTEX
  5
58BB0
  8
0
 10
109.3261048289683
 20
143.5482768866683
 30
0.0
  0
VERTEX
  5
58BB1
  8
0
 10
109.2324041240695
 20
143.56967857634439
 30
0.0
  0
VERTEX
  5
58BB2
  8
0
 10
109.04544215742639
 20
143.61606228033949
 30
0.0
  0
VERTEX
  5
58BB3
  8
0
 10
108.85924564026941
 20
143.66720655186589
 30
0.0
  0
VERTEX
  5
58BB4
  8
0
 10
108.6740287376377
 20
143.72308482371639
 30
0.0
  0
VERTEX
  5
58BB5
  8
0
 10
108.4900028366817
 20
143.7836585746484
 30
0.0
  0
VERTEX
  5
58BB6
  8
0
 10
108.307375114252
 20
143.84887782131781
 30
0.0
  0
VERTEX
  5
58BB7
  8
0
 10
108.2166488198944
 20
143.88321091001691
 30
0.0
  0
VERTEX
  5
58BB8
  8
0
 10
108.126347152638
 20
143.91868177608939
 30
0.0
  0
VERTEX
  5
58BB9
  8
0
 10
107.94710351289881
 20
143.993004006213
 30
0.0
  0
VERTEX
  5
58BBA
  8
0
 10
107.7697797262759
 20
144.0717890577051
 30
0.0
  0
VERTEX
  5
58BBB
  8
0
 10
107.6818943104139
 20
144.1128294100414
 30
0.0
  0
SEQEND
  5
58BBC
  8
0
  0
POLYLINE
  5
586A6
  8
0
 66
     1
 10
0.0
 20
0.0
 30
0.0
  0
VERTEX
  5
58BBD
  8
0
 10
107.6818943104139
 20
144.1128294100414
 30
0.0
  0
VERTEX
  5
58BBE
  8
0
 10
107.64452347942731
 20
144.13068888874361
 30
0.0
  0
VERTEX
  5
58BBF
  8
0
 10
107.5691099441884
 20
144.16748089684751
 30
0.0
  0
VERTEX
  5
58BC0
  8
0
 10
107.49284920376149
 20
144.20572254413531
 30
0.0
  0
VERTEX
  5
58BC1
  8
0
 10
107.4544199784675
 20
144.22539355771451
 30
0.0
  0
VERTEX
  5
58BC2
  8
0
 10
107.415801883622
 20
144.24543458254081
 30
0.0
  0
VERTEX
  5
58BC3
  8
0
 10
107.3380310507755
 20
144.28663542646279
 30
0.0
  0
VERTEX
  5
58BC4
  8
0
 10
107.259601930381
 20
144.32934107221291
 30
0.0
  0
VERTEX
  5
58BC5
  8
0
 10
107.1805816023074
 20
144.37356504051769
 30
0.0
  0
VERTEX
  5
58BC6
  8
0
 10
107.10103867839361
 20
144.41931834511709
 30
0.0
  0
VERTEX
  5
58BC7
  8
0
 10
107.0210429619666
 20
144.46660949019531
 30
0.0
  0
VERTEX
  5
58BC8
  8
0
 10
106.98089735848031
 20
144.49083373069681
 30
0.0
  0
VERTEX
  5
58BC9
  8
0
 10
106.940665091426
 20
144.5154444993093
 30
0.0
  0
VERTEX
  5
58BCA
  8
0
 10
106.8599761699778
 20
144.56582697834949
 30
0.0
  0
VERTEX
  5
58BCB
  8
0
 10
106.77904738390021
 20
144.61775821489181
 30
0.0
  0
VERTEX
  5
58BCC
  8
0
 10
106.6979496120305
 20
144.67123731606119
 30
0.0
  0
VERTEX
  5
58BCD
  8
0
 10
106.61674887211881
 20
144.7262642425928
 30
0.0
  0
VERTEX
  5
58BCE
  8
0
 10
106.53547942402081
 20
144.7828591284829
 30
0.0
  0
VERTEX
  5
58BCF
  8
0
 10
106.49483831674659
 20
144.81174467081851
 30
0.0
  0
VERTEX
  5
58BD0
  8
0
 10
106.4542050300728
 20
144.84102082616039
 30
0.0
  0
VERTEX
  5
58BD1
  8
0
 10
106.3729981498648
 20
144.9007395121435
 30
0.0
  0
VERTEX
  5
58BD2
  8
0
 10
106.2919310587083
 20
144.9620024855532
 30
0.0
  0
VERTEX
  5
58BD3
  8
0
 10
106.25147237545011
 20
144.99320836100711
 30
0.0
  0
SEQEND
  5
58BD4
  8
0
  0
LINE
  5
586A7
  8
0
 10
126.741894310414
 20
143.36425929588779
 30
0.0
 11
111.0049169635984
 21
143.36425929588779
 31
0.0
  0
LINE
  5
586A8
  8
1
 10
88.741894310413954
 20
138.86425929588779
 30
0.0
 11
136.2418943104139
 21
138.86425929588779
 31
0.0
  0
LINE
  5
586A9
  8
1
 10
101.4918943104139
 20
126.11425929588781
 30
0.0
 11
101.4918943104139
 21
151.61425929588779
 31
0.0
  0
ARC
  5
586AA
  8
0
 10
97.91189431041397
 20
94.205000000000041
 30
0.0
 40
0.2950000000000088
 50
90.0
 51
180.0
  0
ARC
  5
586AB
  8
0
 10
105.0718943104139
 20
94.205000000000041
 30
0.0
 40
0.2950000000000048
 50
0.0
 51
90.0
  0
LINE
  5
586AC
  8
0
 10
93.741894310413954
 20
90.075000000000045
 30
0.0
 11
93.741894310413954
 21
71.000000000000028
 31
0.0
  0
LINE
  5
586AD
  8
0
 10
105.3668943104139
 20
90.655002192962343
 30
0.0
 11
105.3668943104139
 21
94.205000000000041
 31
0.0
  0
LINE
  5
586AE
  8
0
 10
97.616894310413954
 20
94.205000000000041
 30
0.0
 11
97.616894310413954
 21
90.075000000000045
 31
0.0
  0
ARC
  5
586AF
  8
0
 10
122.7252558902524
 20
73.276503315329819
 30
0.0
 40
14.54234462226707
 50
131.77483728122479
 51
157.9993104670526
  0
LINE
  5
586B0
  8
0
 10
105.0718943104139
 20
94.500000000000014
 30
0.0
 11
97.91189431041397
 21
94.500000000000014
 31
0.0
  0
LINE
  5
586B1
  8
0
 10
109.2418943104139
 20
71.000000000000028
 30
0.0
 11
93.741894310413954
 21
71.000000000000028
 31
0.0
  0
LINE
  5
586B2
  8
0
 10
103.29983063414829
 20
90.075000000000045
 30
0.0
 11
93.741894310413954
 21
90.075000000000045
 31
0.0
  0
POLYLINE
  5
586B3
  8
0
 66
     1
 10
0.0
 20
0.0
 30
0.0
  0
VERTEX
  5
58BD5
  8
0
 10
106.25147237545021
 20
91.123188921215757
 30
0.0
  0
VERTEX
  5
58BD6
  8
0
 10
106.2919310587082
 20
91.148424465157703
 30
0.0
  0
VERTEX
  5
58BD7
  8
0
 10
106.3729981498643
 20
91.200089814682215
 30
0.0
  0
VERTEX
  5
58BD8
  8
0
 10
106.4542050300719
 20
91.253347778820995
 30
0.0
  0
VERTEX
  5
58BD9
  8
0
 10
106.4948383167455
 20
91.280573406469316
 30
0.0
  0
VERTEX
  5
58BDA
  8
0
 10
106.5354794240196
 20
91.308196127675814
 30
0.0
  0
VERTEX
  5
58BDB
  8
0
 10
106.6167488721173
 20
91.364629797179603
 30
0.0
  0
VERTEX
  5
58BDC
  8
0
 10
106.69794961202859
 20
91.422647166392181
 30
0.0
  0
VERTEX
  5
58BDD
  8
0
 10
106.779047383898
 20
91.482266330126535
 30
0.0
  0
VERTEX
  5
58BDE
  8
0
 10
106.8599761699752
 20
91.543481164860964
 30
0.0
  0
VERTEX
  5
58BDF
  8
0
 10
106.940665091423
 20
91.606279102327477
 30
0.0
  0
VERTEX
  5
58BE0
  8
0
 10
106.98089735847731
 20
91.638266863442055
 30
0.0
  0
VERTEX
  5
58BE1
  8
0
 10
107.0210429619633
 20
91.670644133251756
 30
0.0
  0
VERTEX
  5
58BE2
  8
0
 10
107.10103867839
 20
91.736556911809814
 30
0.0
  0
VERTEX
  5
58BE3
  8
0
 10
107.1805816023035
 20
91.803994888770617
 30
0.0
  0
VERTEX
  5
58BE4
  8
0
 10
107.2596019303768
 20
91.872932472944598
 30
0.0
  0
VERTEX
  5
58BE5
  8
0
 10
107.33803105077099
 20
91.943341220497373
 30
0.0
  0
VERTEX
  5
58BE6
  8
0
 10
107.41580188361711
 20
92.015190051651643
 30
0.0
  0
VERTEX
  5
58BE7
  8
0
 10
107.4544199784627
 20
92.051644124786407
 30
0.0
  0
VERTEX
  5
58BE8
  8
0
 10
107.49284920375641
 20
92.088445494279483
 30
0.0
  0
VERTEX
  5
58BE9
  8
0
 10
107.569109944183
 20
92.163071953887226
 30
0.0
  0
VERTEX
  5
58BEA
  8
0
 10
107.64452347942181
 20
92.239032010076954
 30
0.0
  0
VERTEX
  5
58BEB
  8
0
 10
107.6818943104139
 20
92.277500000000046
 30
0.0
  0
SEQEND
  5
58BEC
  8
0
  0
ARC
  5
586B4
  8
0
 10
130.745215468309
 20
-3.9422078784123888
 30
0.0
 40
98.945181626186866
 50
94.833199302842672
 51
103.4791739195425
  0
ARC
  5
586B5
  8
0
 10
125.4902062210621
 20
87.864795191828335
 30
0.0
 40
2.5613975640091562
 50
55.833055354386538
 51
109.49000965609549
  0
LINE
  5
586B6
  8
0
 10
122.408566014559
 20
94.651145056379264
 30
0.0
 11
128.8841762452389
 21
95.000000000000028
 31
0.0
  0
LINE
  5
586B7
  8
0
 10
131.2418943104139
 20
92.642281934825604
 30
0.0
 11
131.2418943104139
 21
91.976111155545738
 31
0.0
  0
LINE
  5
586B8
  8
0
 10
128.54189431041391
 20
88.000000000000014
 30
0.0
 11
128.48189431041391
 21
88.000000000000014
 31
0.0
  0
LINE
  5
586B9
  8
1
 10
101.4918943104139
 20
99.500000000000014
 30
0.0
 11
101.4918943104139
 21
30.00000000000006
 31
0.0
  0
LINE
  5
586BA
  8
0
 10
165.97266600334839
 20
90.193111099346083
 30
0.0
 11
165.97266600334839
 21
84.492041703591198
 31
0.0
  0
POLYLINE
  5
586BB
  8
0
 66
     1
 10
0.0
 20
0.0
 30
0.0
  0
VERTEX
  5
58BED
  8
0
 10
165.97266600334839
 20
84.492041703591198
 30
0.0
  0
VERTEX
  5
58BEE
  8
0
 10
165.972336298106
 20
84.437578855535207
 30
0.0
  0
VERTEX
  5
58BEF
  8
0
 10
165.9696939009489
 20
84.329502099841974
 30
0.0
  0
VERTEX
  5
58BF0
  8
0
 10
165.96439838898121
 20
84.222650773515937
 30
0.0
  0
VERTEX
  5
58BF1
  8
0
 10
165.96075291859631
 20
84.169720050706857
 30
0.0
  0
SEQEND
  5
58BF2
  8
0
  0
POLYLINE
  5
586BC
  8
0
 66
     1
 10
0.0
 20
0.0
 30
0.0
  0
VERTEX
  5
58BF3
  8
0
 10
164.89761194604191
 20
80.665439312592596
 30
0.0
  0
VERTEX
  5
58BF4
  8
0
 10
164.93780454343701
 20
80.737169904546107
 30
0.0
  0
VERTEX
  5
58BF5
  8
0
 10
165.01718234295581
 20
80.889636887076264
 30
0.0
  0
VERTEX
  5
58BF6
  8
0
 10
165.0953464901217
 20
81.052974841323405
 30
0.0
  0
VERTEX
  5
58BF7
  8
0
 10
165.13447477760729
 20
81.139433337346063
 30
0.0
  0
VERTEX
  5
58BF8
  8
0
 10
165.1736113545243
 20
81.228963016837596
 30
0.0
  0
VERTEX
  5
58BF9
  8
0
 10
165.25164101026451
 20
81.416472270568249
 30
0.0
  0
VERTEX
  5
58BFA
  8
0
 10
165.32888845452899
 20
81.613980559173413
 30
0.0
  0
VERTEX
  5
58BFB
  8
0
 10
165.4047866346281
 20
81.819979888113025
 30
0.0
  0
VERTEX
  5
58BFC
  8
0
 10
165.4787457777222
 20
82.032981056945047
 30
0.0
  0
VERTEX
  5
58BFD
  8
0
 10
165.54973565665469
 20
82.250199458722207
 30
0.0
  0
VERTEX
  5
58BFE
  8
0
 10
165.58351180089599
 20
82.358528500708346
 30
0.0
  0
VERTEX
  5
58BFF
  8
0
 10
165.6160900889231
 20
82.466450028813995
 30
0.0
  0
VERTEX
  5
58C00
  8
0
 10
165.67757838473199
 20
82.680731774896316
 30
0.0
  0
VERTEX
  5
58C01
  8
0
 10
165.73402425960799
 20
82.892400114050091
 30
0.0
  0
VERTEX
  5
58C02
  8
0
 10
165.78521402425909
 20
83.100855619346092
 30
0.0
  0
VERTEX
  5
58C03
  8
0
 10
165.83092229236479
 20
83.305629954620187
 30
0.0
  0
VERTEX
  5
58C04
  8
0
 10
165.87090671896439
 20
83.506395707154965
 30
0.0
  0
VERTEX
  5
58C05
  8
0
 10
165.88865010022971
 20
83.605104245102453
 30
0.0
  0
VERTEX
  5
58C06
  8
0
 10
165.90483603255689
 20
83.702605832742265
 30
0.0
  0
VERTEX
  5
58C07
  8
0
 10
165.93235160891911
 20
83.893723346927473
 30
0.0
  0
VERTEX
  5
58C08
  8
0
 10
165.95306981570201
 20
84.079229360621255
 30
0.0
  0
VERTEX
  5
58C09
  8
0
 10
165.96075291859631
 20
84.169720050706857
 30
0.0
  0
SEQEND
  5
58C0A
  8
0
  0
LINE
  5
586BD
  8
0
 10
164.89761194604191
 20
78.724323762087948
 30
0.0
 11
164.89761194604191
 21
80.665439312592596
 31
0.0
  0
LINE
  5
586BE
  8
0
 10
168.97266600334851
 20
78.724323762087948
 30
0.0
 11
168.97266600334851
 21
88.257327873704625
 31
0.0
  0
LINE
  5
586BF
  8
0
 10
171.97266600334851
 20
78.724323762087948
 30
0.0
 11
171.97266600334851
 21
88.257327873703204
 31
0.0
  0
LINE
  5
586C0
  8
0
 10
174.97266600334851
 20
90.193111099346083
 30
0.0
 11
174.97266600334851
 21
84.492041703591198
 31
0.0
  0
POLYLINE
  5
586C1
  8
0
 66
     1
 10
0.0
 20
0.0
 30
0.0
  0
VERTEX
  5
58C0B
  8
0
 10
174.98457908810059
 20
84.169720050706857
 30
0.0
  0
VERTEX
  5
58C0C
  8
0
 10
174.98093362395679
 20
84.222650673471932
 30
0.0
  0
VERTEX
  5
58C0D
  8
0
 10
174.97563811090629
 20
84.329501960094305
 30
0.0
  0
VERTEX
  5
58C0E
  8
0
 10
174.97299570925659
 20
84.437578800718924
 30
0.0
  0
VERTEX
  5
58C0F
  8
0
 10
174.97266600334851
 20
84.492041703591198
 30
0.0
  0
SEQEND
  5
58C10
  8
0
  0
POLYLINE
  5
586C2
  8
0
 66
     1
 10
0.0
 20
0.0
 30
0.0
  0
VERTEX
  5
58C11
  8
0
 10
174.98457908810059
 20
84.169720050706857
 30
0.0
  0
VERTEX
  5
58C12
  8
0
 10
174.99258851925671
 20
84.075775879907425
 30
0.0
  0
VERTEX
  5
58C13
  8
0
 10
175.01436571563841
 20
83.883007400269889
 30
0.0
  0
VERTEX
  5
58C14
  8
0
 10
175.0434468753341
 20
83.684191883014918
 30
0.0
  0
VERTEX
  5
58C15
  8
0
 10
175.06059366200259
 20
83.582692727855317
 30
0.0
  0
VERTEX
  5
58C16
  8
0
 10
175.07941090829499
 20
83.479895717272527
 30
0.0
  0
VERTEX
  5
58C17
  8
0
 10
175.1218669189638
 20
83.270705813386357
 30
0.0
  0
VERTEX
  5
58C18
  8
0
 10
175.17045390510299
 20
83.057233667233476
 30
0.0
  0
VERTEX
  5
58C19
  8
0
 10
175.22482434688581
 20
82.840186126493862
 30
0.0
  0
VERTEX
  5
58C1A
  8
0
 10
175.28391031157309
 20
82.622952514983908
 30
0.0
  0
VERTEX
  5
58C1B
  8
0
 10
175.34673539626939
 20
82.408059581803116
 30
0.0
  0
VERTEX
  5
58C1C
  8
0
 10
175.37934577043279
 20
82.301888686398414
 30
0.0
  0
VERTEX
  5
58C1D
  8
0
 10
175.41264831416549
 20
82.1967820211689
 30
0.0
  0
VERTEX
  5
58C1E
  8
0
 10
175.4810179724912
 20
81.990407143143557
 30
0.0
  0
VERTEX
  5
58C1F
  8
0
 10
175.55123139723079
 20
81.790231987996236
 30
0.0
  0
VERTEX
  5
58C20
  8
0
 10
175.62269107200879
 20
81.597559852509121
 30
0.0
  0
VERTEX
  5
58C21
  8
0
 10
175.69481126761741
 20
81.413695410359097
 30
0.0
  0
VERTEX
  5
58C22
  8
0
 10
175.76701270471011
 20
81.239936981265814
 30
0.0
  0
VERTEX
  5
58C23
  8
0
 10
175.80362016095449
 20
81.155760178785016
 30
0.0
  0
VERTEX
  5
58C24
  8
0
 10
175.8415603038853
 20
81.071331109574359
 30
0.0
  0
VERTEX
  5
58C25
  8
0
 10
175.9210490461565
 20
80.903946631628386
 30
0.0
  0
VERTEX
  5
58C26
  8
0
 10
176.00464935193591
 20
80.742451154688169
 30
0.0
  0
VERTEX
  5
58C27
  8
0
 10
176.047720060655
 20
80.665439312592554
 30
0.0
  0
SEQEND
  5
58C28
  8
0
  0
LINE
  5
586C3
  8
0
 10
176.047720060655
 20
80.665439312592554
 30
0.0
 11
176.047720060655
 21
78.724323762087948
 31
0.0
  0
LINE
  5
586C4
  8
3
 10
170.16966600334851
 20
65.200000000000031
 30
0.0
 11
170.1696660033484
 21
70.200000000000031
 31
0.0
  0
LINE
  5
586C5
  8
3
 10
170.77566600334839
 20
65.200000000000031
 30
0.0
 11
170.77566600334839
 21
70.200000000000031
 31
0.0
  0
LINE
  5
586C6
  8
3
 10
171.45108684149909
 20
65.200000000000031
 30
0.0
 11
171.45108684149901
 21
70.200000000000031
 31
0.0
  0
LINE
  5
586C7
  8
3
 10
172.057086841499
 20
65.200000000000031
 30
0.0
 11
172.057086841499
 21
70.200000000000031
 31
0.0
  0
LINE
  5
586C8
  8
3
 10
172.73250767964959
 20
65.200000000000031
 30
0.0
 11
172.73250767964959
 21
70.200000000000031
 31
0.0
  0
LINE
  5
586C9
  8
3
 10
173.33850767964961
 20
65.200000000000031
 30
0.0
 11
173.33850767964961
 21
70.200000000000031
 31
0.0
  0
LINE
  5
586CA
  8
3
 10
174.01392851780031
 20
65.200000000000031
 30
0.0
 11
174.01392851780031
 21
70.200000000000031
 31
0.0
  0
LINE
  5
586CB
  8
3
 10
174.61992851780019
 20
65.200000000000031
 30
0.0
 11
174.61992851780019
 21
70.200000000000031
 31
0.0
  0
LINE
  5
586CC
  8
3
 10
175.29534935595089
 20
65.200000000000031
 30
0.0
 11
175.29534935595089
 21
70.200000000000031
 31
0.0
  0
LINE
  5
586CD
  8
3
 10
175.9013493559508
 20
65.200000000000031
 30
0.0
 11
175.9013493559508
 21
70.200000000000031
 31
0.0
  0
LINE
  5
586CE
  8
3
 10
169.49424516519781
 20
65.200000000000031
 30
0.0
 11
169.49424516519781
 21
70.200000000000031
 31
0.0
  0
LINE
  5
586CF
  8
3
 10
168.8882451651979
 20
65.200000000000031
 30
0.0
 11
168.8882451651979
 21
70.200000000000031
 31
0.0
  0
LINE
  5
586D0
  8
3
 10
168.2128243270472
 20
65.200000000000031
 30
0.0
 11
168.2128243270472
 21
70.200000000000031
 31
0.0
  0
LINE
  5
586D1
  8
3
 10
167.60682432704729
 20
65.200000000000031
 30
0.0
 11
167.60682432704729
 21
70.200000000000031
 31
0.0
  0
LINE
  5
586D2
  8
3
 10
166.93140348889659
 20
65.200000000000031
 30
0.0
 11
166.93140348889659
 21
70.200000000000031
 31
0.0
  0
LINE
  5
586D3
  8
3
 10
166.32540348889671
 20
65.200000000000031
 30
0.0
 11
166.32540348889671
 21
70.200000000000031
 31
0.0
  0
LINE
  5
586D4
  8
3
 10
165.64998265074601
 20
65.200000000000031
 30
0.0
 11
165.64998265074601
 21
70.200000000000031
 31
0.0
  0
LINE
  5
586D5
  8
3
 10
165.04398265074599
 20
65.200000000000031
 30
0.0
 11
165.04398265074599
 21
70.200000000000031
 31
0.0
  0
LINE
  5
586D6
  8
3
 10
101.1888943104139
 20
65.200000000000045
 30
0.0
 11
101.1888943104139
 21
70.200000000000045
 31
0.0
  0
LINE
  5
586D7
  8
3
 10
101.7948943104138
 20
65.200000000000045
 30
0.0
 11
101.7948943104138
 21
70.200000000000045
 31
0.0
  0
LINE
  5
586D8
  8
3
 10
102.4703151485645
 20
65.200000000000045
 30
0.0
 11
102.4703151485645
 21
70.200000000000045
 31
0.0
  0
LINE
  5
586D9
  8
3
 10
103.0763151485644
 20
65.200000000000045
 30
0.0
 11
103.0763151485644
 21
70.200000000000045
 31
0.0
  0
LINE
  5
586DA
  8
3
 10
103.7517359867151
 20
65.200000000000045
 30
0.0
 11
103.7517359867151
 21
70.200000000000045
 31
0.0
  0
LINE
  5
586DB
  8
3
 10
104.357735986715
 20
65.200000000000045
 30
0.0
 11
104.357735986715
 21
70.200000000000045
 31
0.0
  0
LINE
  5
586DC
  8
3
 10
105.0331568248657
 20
65.200000000000045
 30
0.0
 11
105.0331568248657
 21
70.200000000000045
 31
0.0
  0
LINE
  5
586DD
  8
3
 10
105.63915682486559
 20
65.200000000000045
 30
0.0
 11
105.63915682486559
 21
70.200000000000045
 31
0.0
  0
LINE
  5
586DE
  8
3
 10
106.31457766301629
 20
65.200000000000045
 30
0.0
 11
106.31457766301629
 21
70.200000000000045
 31
0.0
  0
LINE
  5
586DF
  8
3
 10
106.9205776630163
 20
65.200000000000045
 30
0.0
 11
106.9205776630163
 21
70.200000000000045
 31
0.0
  0
LINE
  5
586E0
  8
3
 10
100.5134734722633
 20
65.200000000000045
 30
0.0
 11
100.5134734722633
 21
70.200000000000045
 31
0.0
  0
LINE
  5
586E1
  8
3
 10
99.907473472263376
 20
65.200000000000045
 30
0.0
 11
99.907473472263348
 21
70.200000000000045
 31
0.0
  0
LINE
  5
586E2
  8
3
 10
99.232052634112691
 20
65.200000000000045
 30
0.0
 11
99.232052634112691
 21
70.200000000000045
 31
0.0
  0
LINE
  5
586E3
  8
3
 10
98.626052634112753
 20
65.200000000000045
 30
0.0
 11
98.626052634112753
 21
70.200000000000045
 31
0.0
  0
LINE
  5
586E4
  8
3
 10
97.950631795962067
 20
65.200000000000045
 30
0.0
 11
97.950631795962067
 21
70.200000000000045
 31
0.0
  0
LINE
  5
586E5
  8
3
 10
97.34463179596213
 20
65.200000000000045
 30
0.0
 11
97.34463179596213
 21
70.200000000000045
 31
0.0
  0
LINE
  5
586E6
  8
3
 10
96.669210957811487
 20
65.200000000000045
 30
0.0
 11
96.669210957811458
 21
70.200000000000045
 31
0.0
  0
LINE
  5
586E7
  8
3
 10
96.063210957811535
 20
65.200000000000045
 30
0.0
 11
96.063210957811535
 21
70.200000000000045
 31
0.0
  0
LINE
  5
586E8
  8
3
 10
32.208122617479368
 20
65.200000000000017
 30
0.0
 11
32.208122617479368
 21
70.200000000000017
 31
0.0
  0
LINE
  5
586E9
  8
3
 10
32.814122617479313
 20
65.200000000000017
 30
0.0
 11
32.814122617479313
 21
70.200000000000017
 31
0.0
  0
LINE
  5
586EA
  8
3
 10
33.489543455629992
 20
65.200000000000017
 30
0.0
 11
33.489543455629992
 21
70.200000000000017
 31
0.0
  0
LINE
  5
586EB
  8
3
 10
34.095543455629929
 20
65.200000000000017
 30
0.0
 11
34.095543455629922
 21
70.200000000000017
 31
0.0
  0
LINE
  5
586EC
  8
3
 10
34.770964293780601
 20
65.200000000000017
 30
0.0
 11
34.770964293780601
 21
70.200000000000017
 31
0.0
  0
LINE
  5
586ED
  8
3
 10
35.376964293780532
 20
65.200000000000017
 30
0.0
 11
35.376964293780532
 21
70.200000000000017
 31
0.0
  0
LINE
  5
586EE
  8
3
 10
36.052385131931203
 20
65.200000000000017
 30
0.0
 11
36.052385131931203
 21
70.200000000000017
 31
0.0
  0
LINE
  5
586EF
  8
3
 10
36.658385131931141
 20
65.200000000000017
 30
0.0
 11
36.658385131931141
 21
70.200000000000017
 31
0.0
  0
LINE
  5
586F0
  8
3
 10
37.333805970081819
 20
65.200000000000017
 30
0.0
 11
37.333805970081812
 21
70.200000000000017
 31
0.0
  0
LINE
  5
586F1
  8
3
 10
37.93980597008175
 20
65.200000000000017
 30
0.0
 11
37.93980597008175
 21
70.200000000000017
 31
0.0
  0
LINE
  5
586F2
  8
3
 10
31.532701779328761
 20
65.200000000000017
 30
0.0
 11
31.532701779328761
 21
70.200000000000017
 31
0.0
  0
LINE
  5
586F3
  8
3
 10
30.92670177932883
 20
65.200000000000017
 30
0.0
 11
30.92670177932883
 21
70.200000000000017
 31
0.0
  0
LINE
  5
586F4
  8
3
 10
30.251280941178159
 20
65.200000000000017
 30
0.0
 11
30.251280941178148
 21
70.200000000000017
 31
0.0
  0
LINE
  5
586F5
  8
3
 10
29.645280941178221
 20
65.200000000000017
 30
0.0
 11
29.645280941178221
 21
70.200000000000017
 31
0.0
  0
LINE
  5
586F6
  8
3
 10
28.96986010302755
 20
65.200000000000017
 30
0.0
 11
28.969860103027539
 21
70.200000000000017
 31
0.0
  0
LINE
  5
586F7
  8
3
 10
28.363860103027601
 20
65.200000000000017
 30
0.0
 11
28.363860103027601
 21
70.200000000000017
 31
0.0
  0
LINE
  5
586F8
  8
3
 10
27.688439264876941
 20
65.200000000000017
 30
0.0
 11
27.688439264876941
 21
70.200000000000017
 31
0.0
  0
LINE
  5
586F9
  8
3
 10
27.082439264876999
 20
65.200000000000017
 30
0.0
 11
27.082439264876999
 21
70.200000000000017
 31
0.0
  0
LINE
  5
58706
  8
3
 10
103.6327424433226
 20
62.999999999999972
 30
0.0
 11
103.6327424433226
 21
35.243956122349211
 31
0.0
  0
LINE
  5
58707
  8
0
 10
104.4918943104141
 20
65.000000000000085
 30
0.0
 11
104.4918943104141
 21
36.732050807569152
 31
0.0
  0
LINE
  5
58708
  8
0
 10
103.491894310414
 20
35.000000000000092
 30
0.0
 11
104.4918943104141
 21
36.732050807569152
 31
0.0
  0
LINE
  5
5870A
  8
0
 10
98.491894310413983
 20
36.732050807569152
 30
0.0
 11
104.4918943104141
 21
36.732050807569152
 31
0.0
  0
LINE
  5
5870B
  8
0
 10
99.491894310414111
 20
35.000000000000092
 30
0.0
 11
98.491894310413983
 21
36.732050807569152
 31
0.0
  0
LINE
  5
5870C
  8
0
 10
98.491894310413983
 20
62.999999999999972
 30
0.0
 11
104.4918943104141
 21
62.999999999999972
 31
0.0
  0
LINE
  5
5870E
  8
0
 10
98.491894310413983
 20
65.000000000000085
 30
0.0
 11
98.491894310413983
 21
36.732050807569152
 31
0.0
  0
LINE
  5
5870F
  8
3
 10
99.351046177505424
 20
62.999999999999972
 30
0.0
 11
99.351046177505324
 21
35.243956122349211
 31
0.0
  0
LINE
  5
58710
  8
0
 10
99.491894310414111
 20
35.000000000000092
 30
0.0
 11
103.491894310414
 21
35.000000000000092
 31
0.0
  0
LINE
  5
58711
  8
3
 10
172.61351413625709
 20
62.999999999999943
 30
0.0
 11
172.61351413625709
 21
35.243956122349182
 31
0.0
  0
LINE
  5
58712
  8
0
 10
173.47266600334859
 20
65.000000000000057
 30
0.0
 11
173.47266600334859
 21
36.732050807569117
 31
0.0
  0
LINE
  5
58713
  8
0
 10
172.47266600334851
 20
35.000000000000057
 30
0.0
 11
173.47266600334859
 21
36.732050807569117
 31
0.0
  0
LINE
  5
58715
  8
0
 10
167.47266600334851
 20
36.732050807569117
 30
0.0
 11
173.47266600334859
 21
36.732050807569117
 31
0.0
  0
LINE
  5
58716
  8
0
 10
168.47266600334859
 20
35.000000000000057
 30
0.0
 11
167.47266600334851
 21
36.732050807569117
 31
0.0
  0
LINE
  5
58717
  8
0
 10
167.47266600334851
 20
62.999999999999943
 30
0.0
 11
173.47266600334859
 21
62.999999999999943
 31
0.0
  0
LINE
  5
58719
  8
0
 10
167.47266600334851
 20
65.000000000000057
 30
0.0
 11
167.47266600334851
 21
36.732050807569117
 31
0.0
  0
LINE
  5
5871A
  8
3
 10
168.33181787043989
 20
62.999999999999943
 30
0.0
 11
168.33181787043981
 21
35.243956122349182
 31
0.0
  0
LINE
  5
5871B
  8
0
 10
168.47266600334859
 20
35.000000000000057
 30
0.0
 11
172.47266600334851
 21
35.000000000000057
 31
0.0
  0
LINE
  5
588A2
  8
3
 10
172.61351413625709
 20
62.999999999999908
 30
0.0
 11
173.47266600334859
 21
64.488094685219934
 31
0.0
  0
LINE
  5
588A3
  8
3
 10
168.33181787043989
 20
62.999999999999908
 30
0.0
 11
167.47266600334851
 21
64.488094685219977
 31
0.0
  0
LINE
  5
588A4
  8
3
 10
103.6327424433227
 20
62.999999999999943
 30
0.0
 11
104.4918943104141
 21
64.488094685219963
 31
0.0
  0
LINE
  5
588A5
  8
3
 10
99.351046177505509
 20
62.999999999999943
 30
0.0
 11
98.49189431041404
 21
64.488094685220005
 31
0.0
  0
LINE
  5
588A6
  8
3
 10
34.651970750388159
 20
62.999999999999908
 30
0.0
 11
35.511122617479629
 21
64.488094685219934
 31
0.0
  0
LINE
  5
588A7
  8
3
 10
30.370274484570992
 20
62.999999999999908
 30
0.0
 11
29.511122617479511
 21
64.488094685219977
 31
0.0
  0
TEXT
  5
5893F
  8
0
 62
     3
 10
0.0
 20
0.0
 30
0.0
 40
10.0
  1
EAL30AX30-SUS
  7
STANDARD1
  0
VIEWPORT
  5
1EC2F
 67
     1
  8
0
 10
261.51769911504419
 20
148.5
 30
0.0
 40
523.0353982300885
 41
297.0
 68
     1
 69
     1
1001
ACAD
1000
MVIEW
1002
{
1070
    16
1010
0.0
1020
0.0
1030
0.0
1010
0.0
1020
0.0
1030
1.0
1040
0.0
1040
297.0
1040
261.51769911504419
1040
148.5
1040
50.0
1040
0.0
1040
0.0
1070
     0
1070
   100
1070
     1
1070
     1
1070
     0
1070
     0
1070
     0
1070
     0
1040
0.0
1040
0.0
1040
0.0
1040
1.0
1040
1.0
1040
10.0
1040
10.0
1070
     0
1002
{
1002
}
1002
}
  0
ENDSEC
  0
EOF
